Sie sind auf Seite 1von 1

La chispa adecuada

PRIMER INTRO
e|---------------------------------------------------------|
B|---------------------------------------------------------|
G|------------10---9---------9h10-9------------------0-----|
D|----------0----0---10---10--------10-------8---10-10--10-|
A|----------------------0--------------0---8---8-------8---|
E|-8-8/10-10-----------------------------6-----------------|
SEGUNDO INTRO
e|---------------------------------------------------------|
B|----------------------------10---------------------------|
G|------------10---9-------------9------------------10-10--|
D|----------0----0---10--10--------10-------8---10--10-----|
A|----------------------0-------------0---8---8-----8------|
E|-8-8/10-10----------------------------6------------------|

e|-12----------12-----14----15-----14------12--------------|
B|------15-----------------------------------------15------|
G|---14----14-----14-----14-----14----14-------14----------|
D|---------------------------------------------------------|
A|---------------------------------------------------------|
E|---------------------------------------------------------|