Sie sind auf Seite 1von 3

SUBLIME - ALL YOU NEED

LBUM: ROBBIN' THE HOOD (1992)


AFINACIN: ESTNDAR (tambin sirve la afinacin Eb)
Am+

Am+

-55x5x5x5x5--55x5x5x5x5--55x5x5x5x5--------------------------------------x2

C+

D+

F+

-55x-5/-8-8x-8\-xx----------|
-55x-5/-8-8x-8\-77x-7/10x10-|
-55x-5/1010x10\-77x-7/10x10-|
----------------77x-7/10x10-|
----------------------------|
----------------------------|x3

-----------------------|
-----------------------|
-----------------------|
-7p5-------------------|
-----7-6-5-3--0h3h4-5--|
-----------------------|
Am+

Am+

-55x5x5x5x5--55x5x5x5x5--55x5x5x5x5--------------------------------------x4

C+

D+

F+

-55x-5/-8-8x-8\-xx----------|
-55x-5/-8-8x-8\-77x-7/10x10-|
-55x-5/1010x10\-77x-7/10x10-|
----------------77x-7/10x10-|
----------------------------|
----------------------------|x4
F#m

-----------------------------------------|
-----------------------------------------|
----------2:--------2:------------2:-----|
---4:-------4:----------4:----------4:---|
--------------4:----------4:----------4:-|
-2:-----2:--------2:------------2:-------|
A5

E5+

C#5

A5

B5

D5

E5+

------------------------------------------------------------------------|
------------------------------------------------------------------------|
---------99999999---------------------------------------------7777-9999-|
77777777-99999999-11111111111111111111111111111111--7777-9999-7777-9999-|
77777777-77777777-11111111111111111111111111111111--7777-9999-5555-7777-|
55555555-----------9-9-9-9-9-9-9-9-9-9-9-9-9-9-9-9--5555-7777-----------|
F#5+

B5 F#5+ B5

C#5

---------------------------------------|
---------------------------------------|
-1111xx----1111xx----------------------|
-1111xx-99-1111xx-99--1111111111111111-|
--9-9xx-99--9-9xx-99--1111111111111111-|
--------77--------77---9-9-9-9-9-9-9-9-|
Am

-55x-5/-8-8x-8\-xx-----------|

-55x-5/-8-8x-8\-77x-7/10x10--|
-55x-5/1010x10\-77x-7/10x10--|
----------------77x-7/10x10--|
-----------------------------|
-----------------------------|x3
-----------------------|
-----------------------|
-----------------------|
-7-5-------------------|
-----7-6-5-3b-0-3-4-5b-|
-----------------------|
Am

Am

-55x5x5x5x5--55x5x5x5x5--55x5x5x5x5--------------------------------------x4

-55x-5/-8-8x-8\-xx----------|
-55x-5/-8-8x-8\-77x-7/10x10-|
-55x-5/1010x10\-77x-7/10x10-|
----------------77x-7/10x10-|
----------------------------|
----------------------------|x4

F#m
-2:-2:-2:-4:-4:-2:-x4
A5

E5+

C#5

A5

B5

D5

E5+

------------------------------------------------------------------------|
------------------------------------------------------------------------|
----------99999999--------------------------------------------7777-9999-|
77777777--99999999-11111111111111111111111111111111-7777-9999-7777-9999-|
77777777--77777777-11111111111111111111111111111111-7777-9999-5555-7777-|
55555555------------9-9-9-9-9-9-9-9-9-9-9-9-9-9-9-9-5555-7777-----------|
F#5+

B5 F#5+ B5

C#5

---------------------------------------|
---------------------------------------|
-1111xx----1111xx----------------------|
-1111xx-99-1111xx-99--1111111111111111-|
--9-9xx-99--9-9xx-99--1111111111111111-|
--------77--------77---9-9-9-9-9-9-9-9-|
Am

-55x-5/-8-8x-8\-xx-----------|
-55x-5/-8-8x-8\-77x-7/10x10--|
-55x-5/1010x10\-77x-7/10x10--|
----------------77x-7/10x10--|
-----------------------------|
-----------------------------|x3
-----------------------|

-----------------------|
-----------------------|
-7p5-------------------|
-----7-6-5-3--0h3h4-5--|
-----------------------|
Solo de guitarra:
----------------6-3-------------------6600-5b^------6p5p3p0--------|
-------------------6--------------------------5b-5b----------------|
-----5b^-(5)-5--------5b-3-0-3b-----------------------------7b^--0-|
-----------------------------------------------------------------0-|
-------------------------------------------------------------------|
-------------------------------------------------------------------|
E5+ & sexta cuerda al aire
---------------------------|
---------------------------|
-9-9-9-9-9-9-9-9-9-9-9-9-9-|
-9-9-9-9-9-9-9-9-9-9-9-9-9-|
-7-7-7-7-7-7-7-7-7-7-7-7-7-|
-0-0-0-0-0-0-0-0-0-0-0-0-0-| las veces que se ocupen
E5+ F5 C#5 A5+
-------------------|
-------------------|
-99/1010/1111/1414-|
-99/1010/1111/1414-|
-77/-8-8/-9-9/1212-|
-00-0-0---0-0--0-0-|
A5 C5

D5

F5+

-------------------|
-------------------|
----------77-/1010-|
-77-/1010-77-/1010-|
-77-/1010-55-/-8-8-|
-55-/-8-8----------| x3
-----------------------|
-----------------------|
-----------------------|
-7p5-------------------|
-----7-6-5-3--0h3h4-5--|
-----------------------|
A5
------|
------|
------|
-7:x\-|
-7:x\-|
-5:x\-|
Daniel Sols danielsolis265@gmail.com