Sie sind auf Seite 1von 797

----------------------------------------------------------------------------------------------------------------------------------------------------13522-Distritos-de-Alemania-2011.

jpg
F:\Carpeta Deutsche Schule Agenda\Links
10,0 MB 12-03-2013 18:08:08
13522-Distritos-de-Alemania-2011.jpg
F:\TRABAJOS\Colegios\Deutsche Schule Pun
ta Arenas\2013\Agenda\Agenda 2013 Deutsche Schule\Links 10,0 MB 12-03-2013 18:08
:08
13522-Distritos-de-Alemania-2011.jpg
F:\TRABAJOS\Colegios\Deutsche Schule Pun
ta Arenas\2013\Agenda\info\imagenes
10,0 MB 12-03-2013 18:08:08
13522-Distritos-de-Alemania-2011.jpg
F:\TRABAJOS\Colegios\Deutsche Schule Pun
ta Arenas\2014\Carpeta Deutsche Schule Agenda\Links
10,0 MB 12-03-2013 18:08
:08
----------------------------------------------------------------------------------------------------------------------------------------------------2-black-bird.jpg
F:\Carpeta Deutsche Schule Agenda\Links 3,91 MB 11-03-20
13 22:54:56
2-black-bird.jpg
F:\TRABAJOS\Colegios\Deutsche Schule Punta Arenas\2013\A
genda\Agenda 2013 Deutsche Schule\Links 3,91 MB 11-03-2013 22:54:56
2-black-bird.jpg
F:\TRABAJOS\Colegios\Deutsche Schule Punta Arenas\2013\A
genda\info\imagenes
3,91 MB 11-03-2013 22:54:56
2-black-bird.jpg
F:\TRABAJOS\Colegios\Deutsche Schule Punta Arenas\2014\C
arpeta Deutsche Schule Agenda\Links
3,91 MB 11-03-2013 22:54:56
----------------------------------------------------------------------------------------------------------------------------------------------------2.jpg F:\Carpeta Deutsche Schule Agenda\Links 2,01 MB 06-03-2013 15:07:36
2.jpg F:\TRABAJOS\Colegios\Deutsche Schule Punta Arenas\2013\Agenda\Agenda 201
3 Deutsche Schule\Links 2,01 MB 06-03-2013 15:07:36
2.jpg F:\TRABAJOS\Colegios\Deutsche Schule Punta Arenas\2013\Agenda\info\Alema
nia
2,01 MB 06-03-2013 15:07:36
2.jpg F:\TRABAJOS\Colegios\Deutsche Schule Punta Arenas\2014\Carpeta Deutsche
Schule Agenda\Links
2,01 MB 06-03-2013 15:07:36
----------------------------------------------------------------------------------------------------------------------------------------------------7.jpg F:\Carpeta Deutsche Schule Agenda\Links 1,05 MB 06-03-2013 15:17:11
7.jpg F:\TRABAJOS\Colegios\Deutsche Schule Punta Arenas\2013\Agenda\Agenda 201
3 Deutsche Schule\Links 1,05 MB 06-03-2013 15:17:11
7.jpg F:\TRABAJOS\Colegios\Deutsche Schule Punta Arenas\2013\Agenda\info\Alema
nia
1,05 MB 06-03-2013 15:17:11
7.jpg F:\TRABAJOS\Colegios\Deutsche Schule Punta Arenas\2014\Carpeta Deutsche
Schule Agenda\Links
1,05 MB 06-03-2013 15:17:11
----------------------------------------------------------------------------------------------------------------------------------------------------Arbol_que_camina.jpg
F:\Carpeta Deutsche Schule Agenda\Links 3,35 MB 11-01-20
13 14:03:44
Arbol_que_camina.jpg
F:\TRABAJOS\Colegios\Deutsche Schule Punta Arenas\2014\C
arpeta Deutsche Schule Agenda\Links
3,35 MB 11-01-2013 14:03:44
----------------------------------------------------------------------------------------------------------------------------------------------------autumn-forest-green-leaf-nature-road-tree.jpg F:\Carpeta Deutsche Schule Agend
a\Links 1,11 MB 07-10-2013 22:09:50
autumn-forest-green-leaf-nature-road-tree.jpg F:\TRABAJOS\Colegios\Deutsche Sc
hule Punta Arenas\2014\Carpeta Deutsche Schule Agenda\Links
1,11 MB 07-10-20
13 22:09:50
----------------------------------------------------------------------------------------------------------------------------------------------------Imagen1.tif
F:\Carpeta Deutsche Schule Agenda\Links 1,05 MB 05-02-2014 18:14
:16
Imagen1.tif
F:\TRABAJOS\Colegios\Deutsche Schule Punta Arenas\2014\Carpeta D
eutsche Schule Agenda\Links
1,05 MB 05-02-2014 18:14:16
--------------------------------------------------------------------------------

---------------------------------------------------------------------Imagen2.tif
F:\Carpeta Deutsche Schule Agenda\Links 1,50 MB 05-02-2014 18:14
:28
Imagen2.tif
F:\TRABAJOS\Colegios\Deutsche Schule Punta Arenas\2014\Carpeta D
eutsche Schule Agenda\Links
1,50 MB 05-02-2014 18:14:28
----------------------------------------------------------------------------------------------------------------------------------------------------Imagen4.tif
F:\Carpeta Deutsche Schule Agenda\Links 1,62 MB 05-02-2014 18:12
:40
Imagen4.tif
F:\TRABAJOS\Colegios\Deutsche Schule Punta Arenas\2014\Carpeta D
eutsche Schule Agenda\Links
1,62 MB 05-02-2014 18:12:40
----------------------------------------------------------------------------------------------------------------------------------------------------S_M COLOR (2).jpg
F:\Carpeta Deutsche Schule Agenda\Links 2,66 MB 31-01-20
14 22:00:18
S_M COLOR (2).jpg
F:\TRABAJOS\Colegios\Deutsche Schule Punta Arenas\2014\C
arpeta Deutsche Schule Agenda\Links
2,66 MB 31-01-2014 22:00:18
S_M COLOR (2).jpg
F:\TRABAJOS\Colegios\Josefino Santisima Trinidad\2014\Ag
enda\Agenda Josefino Santisima Trinidad\Links 2,66 MB 31-01-2014 22:00:18
S_M COLOR (2).jpg
F:\TRABAJOS\Colegios\Sagrado Corazon de Talagante\2014\A
genda\Carpeta Agenda sagrado corazon p1\Links 2,66 MB 31-01-2014 22:00:18
S_M COLOR (2).jpg
F:\TRABAJOS\Colegios\Sagrado Corazon de Talagante\2014\A
genda\fondos paginas
2,66 MB 31-01-2014 22:00:18
S_M COLOR (2).jpg
F:\TRABAJOS\Colegios\Sagrado Corazon de Talagante\2014\A
genda\Tapa\fotos tapa\fotos sagrado corazon agenda
2,66 MB 31-01-2014 22:00
:18
S_M COLOR (2).jpg
F:\TRABAJOS\Colegios\San Antonio\2014\Agenda
2,66 MB
31-01-2014 22:00:18
----------------------------------------------------------------------------------------------------------------------------------------------------S_M COLOR (4).jpg
F:\Carpeta Deutsche Schule Agenda\Links 4,53 MB 31-01-20
14 22:02:26
S_M COLOR (4).jpg
F:\TRABAJOS\Colegios\Carmen Teresiano\La reina\2014\Agen
da\imagenes
4,53 MB 31-01-2014 22:02:26
S_M COLOR (4).jpg
F:\TRABAJOS\Colegios\Deutsche Schule Punta Arenas\2014\C
arpeta Deutsche Schule Agenda\Links
4,53 MB 31-01-2014 22:02:26
S_M COLOR (4).jpg
F:\TRABAJOS\Colegios\Josefino Santisima Trinidad\2014\Ag
enda\Agenda Josefino Santisima Trinidad\Links 4,53 MB 31-01-2014 22:02:26
S_M COLOR (4).jpg
F:\TRABAJOS\Colegios\Sagrado Corazon de Talagante\2014\A
genda\Carpeta Agenda sagrado corazon p1\Links 4,53 MB 31-01-2014 22:02:26
S_M COLOR (4).jpg
F:\TRABAJOS\Colegios\Sagrado Corazon de Talagante\2014\A
genda\fondos paginas
4,53 MB 31-01-2014 22:02:26
S_M COLOR (4).jpg
F:\TRABAJOS\Colegios\Sagrado Corazon de Talagante\2014\A
genda\Tapa\fotos tapa\fotos sagrado corazon agenda
4,53 MB 31-01-2014 22:02
:26
S_M COLOR (4).jpg
F:\TRABAJOS\Colegios\San Antonio\2014\Agenda
4,53 MB
31-01-2014 22:02:26
----------------------------------------------------------------------------------------------------------------------------------------------------DSC08694.JPG
F:\TRABAJOS\Colegios\Acropolis\2012\fotos\2010\Fotografias del c
olegio\Fotos cheerleaders\archivos con fotos
1,36 MB 13-11-2009 18:32:12
DSC08694.JPG
F:\TRABAJOS\Colegios\Acropolis\2012\fotos\2010\Fotografias del c
olegio\Fotos cheerleaders\cheearlers
1,36 MB 13-11-2009 18:32:12
DSC08694.JPG
F:\TRABAJOS\Colegios\Acropolis\2012\fotos\2010\Fotografias del c
olegio\Fotos cheerleaders
1,36 MB 13-11-2009 18:32:12
----------------------------------------------------------------------------------------------------------------------------------------------------DSC_0103.jpg
F:\TRABAJOS\Colegios\Acropolis\2013\Agenda 2013\ai
2,60 MB
24-09-2012 13:27:02
DSC_0103.jpg
F:\TRABAJOS\Colegios\Acropolis\2013\Volante
2,60 MB 24-09-20

12 13:27:02
DSC_0103.jpg
F:\TRABAJOS\Colegios\Acropolis\2013\Volante\JPEG
2,60 MB
24-09-2012 13:27:02
----------------------------------------------------------------------------------------------------------------------------------------------------DSC_0112.jpg
F:\TRABAJOS\Colegios\Acropolis\2013\Agenda 2013\ai
1,91 MB
20-09-2012 15:24:50
DSC_0112.jpg
F:\TRABAJOS\Colegios\Acropolis\2013\Volante\JPEG
1,91 MB
20-09-2012 15:24:50
----------------------------------------------------------------------------------------------------------------------------------------------------DSC_0133.jpg
F:\TRABAJOS\Colegios\Acropolis\2013\Agenda 2013\ai
5,25 MB
20-09-2012 15:38:24
DSC_0133.jpg
F:\TRABAJOS\Colegios\Acropolis\2013\Volante\JPEG
5,25 MB
20-09-2012 15:38:24
----------------------------------------------------------------------------------------------------------------------------------------------------DSC_0138.jpg
F:\TRABAJOS\Colegios\Acropolis\2013\Agenda 2013\ai
5,04 MB
10-10-2012 12:38:00
DSC_0138.jpg
F:\TRABAJOS\Colegios\Acropolis\2013\Fotos 2012\psd
5,04 MB
10-10-2012 12:38:00
----------------------------------------------------------------------------------------------------------------------------------------------------DSC_0129.jpg
F:\TRABAJOS\Colegios\Acropolis\2013\Volante
5,11 MB 20-09-20
12 15:33:12
DSC_0129.jpg
F:\TRABAJOS\Colegios\Acropolis\2013\Volante\JPEG
5,11 MB
20-09-2012 15:33:12
----------------------------------------------------------------------------------------------------------------------------------------------------DSC_0150.jpg
F:\TRABAJOS\Colegios\Acropolis\2013\Volante
5,76 MB 24-09-20
12 13:24:16
DSC_0150.jpg
F:\TRABAJOS\Colegios\Acropolis\2013\Volante\JPEG
5,76 MB
24-09-2012 13:24:16
----------------------------------------------------------------------------------------------------------------------------------------------------Alcantara Cordillera-Trans.jpg F:\TRABAJOS\Colegios\Alcantara-Alicante\Alcantar
as\Alcantara de la Cordillera\2005\Licenciatura 2005
1,02 MB 01-12-2005 16:05
:14
Alcantara Cordillera-Trans.jpg F:\TRABAJOS\Colegios\Alcantara-Alicante\Alcantar
as\Alcantara de la Cordillera\2006\Licenciatura 2006-Alcantara Cordillera
1,02 MB 01-12-2005 16:05:14
Alcantara Cordillera-Trans.jpg F:\TRABAJOS\Colegios\Alcantara-Alicante\Alcantar
as\Alcantara de la Cordillera\2008\Invitacin 2008
1,02 MB 01-12-2005 16:05
:14
Alcantara Cordillera-Trans.jpg F:\TRABAJOS\Colegios\Alcantara-Alicante\Alcantar
as\Alcantara de la Cordillera\2008\Licenciatura 2008
1,02 MB 01-12-2005 16:05
:14
Alcantara Cordillera-Trans.jpg F:\TRABAJOS\Colegios\Alcantara-Alicante\Alcantar
as\Alcantara de la Cordillera\2009\Licenciatura 2009
1,02 MB 01-12-2005 16:05
:14
Alcantara Cordillera-Trans.jpg F:\TRABAJOS\Colegios\Alcantara-Alicante\Alcantar
as\Alcantara de la Cordillera\2009\Licenciatura 2009\Invitacin 2009
1,02 MB
01-12-2005 16:05:14
----------------------------------------------------------------------------------------------------------------------------------------------------HojaGrande.jpg F:\TRABAJOS\Colegios\Alcantara-Alicante\Alcantaras\alcantara la
florida\2007\Anuario2007\Interior\Hoja 00-09
1,76 MB 31-07-2007 20:05:44
HojaGrande.jpg F:\TRABAJOS\Colegios\Alcantara-Alicante\Alcantaras\alcantara la
florida\2007\Anuario2007\Interior\Hoja 10-19
1,76 MB 31-07-2007 20:05:44
HojaGrande.jpg F:\TRABAJOS\Colegios\Alcantara-Alicante\Alcantaras\alcantara la

florida\2007\Anuario2007\Interior\Hoja 20-29
1,76 MB 31-07-2007 20:05:44
HojaGrande.jpg F:\TRABAJOS\Colegios\Alcantara-Alicante\Alcantaras\alcantara la
florida\2007\Anuario2007\Interior\Hoja 30-39
1,76 MB 31-07-2007 20:05:44
HojaGrande.jpg F:\TRABAJOS\Colegios\Alcantara-Alicante\Alcantaras\alcantara la
florida\2007\Anuario2007\Interior\Hoja 40-49
1,76 MB 31-07-2007 20:05:44
HojaGrande.jpg F:\TRABAJOS\Colegios\Alcantara-Alicante\Alcantaras\alcantara la
florida\2007\Anuario2007\Interior\Hoja 50-59
1,76 MB 31-07-2007 20:05:44
HojaGrande.jpg F:\TRABAJOS\Colegios\Alcantara-Alicante\Alcantaras\alcantara la
florida\2007\Anuario2007\Interior\Hoja 60-69
1,76 MB 31-07-2007 20:05:44
HojaGrande.jpg F:\TRABAJOS\Colegios\Alcantara-Alicante\Alcantaras\alcantara la
florida\2007\Anuario2007\Interior\Hoja 70-79
1,76 MB 31-07-2007 20:05:44
HojaGrande.jpg F:\TRABAJOS\Colegios\Alcantara-Alicante\Alcantaras\alcantara la
florida\2007\Anuario2007\Interior\Hoja 80-86
1,76 MB 31-07-2007 20:05:44
HojaGrande.jpg F:\TRABAJOS\Colegios\Alcantara-Alicante\Alcantaras\alcantara la
florida\2007\Anuario2007\PeliculaAnuario\Montaje(1-2)(3-4)(7-8)(15-16) 1,76 MB
31-07-2007 20:05:44
HojaGrande.jpg F:\TRABAJOS\Colegios\Alcantara-Alicante\Alcantaras\alcantara la
florida\2007\Anuario2007\PeliculaAnuario\Montaje(17-18)(25-26)(27-28)(29-30)
1,76 MB 31-07-2007 20:05:44
HojaGrande.jpg F:\TRABAJOS\Colegios\Alcantara-Alicante\Alcantaras\alcantara la
florida\2007\Anuario2007\PeliculaAnuario\Montaje(19-20)(21-22)(35-36)(13-14)
1,76 MB 31-07-2007 20:05:44
HojaGrande.jpg F:\TRABAJOS\Colegios\Alcantara-Alicante\Alcantaras\alcantara la
florida\2007\Anuario2007\PeliculaAnuario\Montaje(23-24)(45-46)(65-66)(67-68)
1,76 MB 31-07-2007 20:05:44
HojaGrande.jpg F:\TRABAJOS\Colegios\Alcantara-Alicante\Alcantaras\alcantara la
florida\2007\Anuario2007\PeliculaAnuario\Montaje(31-32)(33-34)(37-38)(39-40)
1,76 MB 31-07-2007 20:05:44
HojaGrande.jpg F:\TRABAJOS\Colegios\Alcantara-Alicante\Alcantaras\alcantara la
florida\2007\Anuario2007\PeliculaAnuario\Montaje(41-42)(47-48)(49-50)(51-52)
1,76 MB 31-07-2007 20:05:44
HojaGrande.jpg F:\TRABAJOS\Colegios\Alcantara-Alicante\Alcantaras\alcantara la
florida\2007\Anuario2007\PeliculaAnuario\Montaje(5-6)(9-10)(11-12)(43-44)
1,76 MB 31-07-2007 20:05:44
HojaGrande.jpg F:\TRABAJOS\Colegios\Alcantara-Alicante\Alcantaras\alcantara la
florida\2007\Anuario2007\PeliculaAnuario\Montaje(53-54)(55-56)(57-58)(59-60)
1,76 MB 31-07-2007 20:05:44
HojaGrande.jpg F:\TRABAJOS\Colegios\Alcantara-Alicante\Alcantaras\alcantara la
florida\2007\Anuario2007\PeliculaAnuario\Montaje(61-62)(63-64)(69-70)(71-72)
1,76 MB 31-07-2007 20:05:44
HojaGrande.jpg F:\TRABAJOS\Colegios\Alcantara-Alicante\Alcantaras\alcantara la
florida\2007\Anuario2007\PeliculaAnuario\Montaje(73-74)(75-76)(77-78)(79-80)
1,76 MB 31-07-2007 20:05:44
HojaGrande.jpg F:\TRABAJOS\Colegios\Alcantara-Alicante\Alcantaras\alcantara la
florida\2007\Anuario2007\PeliculaAnuario\Montaje(81-82)(83-84)(85-86) 1,76 MB
31-07-2007 20:05:44
HojaGrande.jpg F:\TRABAJOS\Colegios\Alcantara-Alicante\Alcantaras\alcantara la
florida\2007\Anuario2007\Trabajos y Montajes
1,76 MB 31-07-2007 20:05:44
HojaGrande.jpg F:\TRABAJOS\Colegios\Alcantara-Alicante\Alcantaras\alcantara la
florida\2007\Anuario2007\Trabajos y Montajes\Montaje Antiguo\Pag (1-2-3-4-7-8-15
-16-17-18)
1,76 MB 31-07-2007 20:05:44
HojaGrande.jpg F:\TRABAJOS\Colegios\Alcantara-Alicante\Alcantaras\alcantara la
florida\2007\Anuario2007\Trabajos y Montajes\Montaje Antiguo\Pag (25-26-27-28-29
-30-31-32-33-34)
1,76 MB 31-07-2007 20:05:44
HojaGrande.jpg F:\TRABAJOS\Colegios\Alcantara-Alicante\Alcantaras\alcantara la
florida\2007\Anuario2007\Trabajos y Montajes\Montaje Antiguo\Pag (37-38-39-40-41
-42-47-48-49-50)
1,76 MB 31-07-2007 20:05:44
HojaGrande.jpg F:\TRABAJOS\Colegios\Alcantara-Alicante\Alcantaras\alcantara la
florida\2007\Anuario2007\Trabajos y Montajes\Montaje Antiguo\Pag (51-52-53-54-55
-56-57-58-59-60)
1,76 MB 31-07-2007 20:05:44

HojaGrande.jpg F:\TRABAJOS\Colegios\Alcantara-Alicante\Alcantaras\alcantara la
florida\2007\Anuario2007\Trabajos y Montajes\Montaje Antiguo\Pag (61-62-63-64-69
-70-71-72-73-74)
1,76 MB 31-07-2007 20:05:44
HojaGrande.jpg F:\TRABAJOS\Colegios\Alcantara-Alicante\Alcantaras\alcantara la
florida\2007\Anuario2007\Trabajos y Montajes\Montaje Antiguo\Pag (75-76-77-78-79
-80-81-82-83-84)
1,76 MB 31-07-2007 20:05:44
----------------------------------------------------------------------------------------------------------------------------------------------------14-07.JPG
F:\TRABAJOS\Colegios\Alcantara-Alicante\Alcantaras\alcantara la
florida\2007\Anuario2007\Interior\Hoja 10-19
1,71 MB 29-10-2007 12:46:06
14-07.JPG
F:\TRABAJOS\Colegios\Alcantara-Alicante\Alcantaras\alcantara la
florida\2007\Anuario2007\PeliculaAnuario\Montaje(19-20)(21-22)(35-36)(13-14)
1,71 MB 29-10-2007 12:46:06
----------------------------------------------------------------------------------------------------------------------------------------------------14-10.JPG
F:\TRABAJOS\Colegios\Alcantara-Alicante\Alcantaras\alcantara la
florida\2007\Anuario2007\Interior\Hoja 10-19
1,73 MB 29-10-2007 12:55:44
14-10.JPG
F:\TRABAJOS\Colegios\Alcantara-Alicante\Alcantaras\alcantara la
florida\2007\Anuario2007\PeliculaAnuario\Montaje(19-20)(21-22)(35-36)(13-14)
1,73 MB 29-10-2007 12:55:44
----------------------------------------------------------------------------------------------------------------------------------------------------16-2753.JPG
F:\TRABAJOS\Colegios\Alcantara-Alicante\Alcantaras\alcantara la
florida\2007\Anuario2007\Interior\Hoja 10-19
1,11 MB 29-10-2007 14:49:28
16-2753.JPG
F:\TRABAJOS\Colegios\Alcantara-Alicante\Alcantaras\alcantara la
florida\2007\Anuario2007\PeliculaAnuario\Montaje(1-2)(3-4)(7-8)(15-16) 1,11 MB
29-10-2007 14:49:28
----------------------------------------------------------------------------------------------------------------------------------------------------18-52.JPG
F:\TRABAJOS\Colegios\Alcantara-Alicante\Alcantaras\alcantara la
florida\2007\Anuario2007\Interior\Hoja 10-19
1,52 MB 26-10-2007 14:14:38
18-52.JPG
F:\TRABAJOS\Colegios\Alcantara-Alicante\Alcantaras\alcantara la
florida\2007\Anuario2007\PeliculaAnuario\Montaje(17-18)(25-26)(27-28)(29-30)
1,52 MB 26-10-2007 14:14:38
----------------------------------------------------------------------------------------------------------------------------------------------------68.jpg F:\TRABAJOS\Colegios\Alcantara-Alicante\Alcantaras\alcantara la florida\
2007\Anuario2007\Interior\Hoja 60-69
2,80 MB 24-07-2007 14:27:40
68.jpg F:\TRABAJOS\Colegios\Alcantara-Alicante\Alcantaras\alcantara la florida\
2007\Anuario2007\PeliculaAnuario\Montaje(23-24)(45-46)(65-66)(67-68)
2,80 MB
24-07-2007 14:27:40
----------------------------------------------------------------------------------------------------------------------------------------------------DSCN2000.jpg
F:\TRABAJOS\Colegios\Alcantara-Alicante\Alcantaras\alcantara la
florida\2008\anuario 2008\anuario 2008\00-09
1,00 MB 11-11-2008 14:24:14
DSCN2000.jpg
F:\TRABAJOS\Colegios\Alcantara-Alicante\Alcantaras\alcantara la
florida\2008\anuario 2008\montaje 2008 montaje\interior 2009\03 color 1,00 MB
11-11-2008 14:24:14
----------------------------------------------------------------------------------------------------------------------------------------------------DSCN2011.jpg
F:\TRABAJOS\Colegios\Alcantara-Alicante\Alcantaras\alcantara la
florida\2008\anuario 2008\anuario 2008\00-09
1,21 MB 11-11-2008 14:18:50
DSCN2011.jpg
F:\TRABAJOS\Colegios\Alcantara-Alicante\Alcantaras\alcantara la
florida\2008\anuario 2008\montaje 2008 montaje\interior 2009\03 color 1,21 MB
11-11-2008 14:18:50
----------------------------------------------------------------------------------------------------------------------------------------------------DSCN2017.jpg
F:\TRABAJOS\Colegios\Alcantara-Alicante\Alcantaras\alcantara la
florida\2008\anuario 2008\anuario 2008\00-09
1,20 MB 11-11-2008 14:18:24
DSCN2017.jpg
F:\TRABAJOS\Colegios\Alcantara-Alicante\Alcantaras\alcantara la

florida\2008\anuario 2008\montaje 2008 montaje\interior 2009\03 color 1,20 MB


11-11-2008 14:18:24
----------------------------------------------------------------------------------------------------------------------------------------------------DSCN2023.jpg
F:\TRABAJOS\Colegios\Alcantara-Alicante\Alcantaras\alcantara la
florida\2008\anuario 2008\anuario 2008\00-09
1,01 MB 11-11-2008 14:25:30
DSCN2023.jpg
F:\TRABAJOS\Colegios\Alcantara-Alicante\Alcantaras\alcantara la
florida\2008\anuario 2008\montaje 2008 montaje\interior 2009\03 color 1,01 MB
11-11-2008 14:25:30
----------------------------------------------------------------------------------------------------------------------------------------------------DSCN2037.jpg
F:\TRABAJOS\Colegios\Alcantara-Alicante\Alcantaras\alcantara la
florida\2008\anuario 2008\anuario 2008\00-09
1,18 MB 11-11-2008 14:56:18
DSCN2037.jpg
F:\TRABAJOS\Colegios\Alcantara-Alicante\Alcantaras\alcantara la
florida\2008\anuario 2008\montaje 2008 montaje\interior 2009\03 color 1,18 MB
11-11-2008 14:56:18
----------------------------------------------------------------------------------------------------------------------------------------------------DSCN2051.jpg
F:\TRABAJOS\Colegios\Alcantara-Alicante\Alcantaras\alcantara la
florida\2008\anuario 2008\anuario 2008\00-09
1,03 MB 11-11-2008 14:41:30
DSCN2051.jpg
F:\TRABAJOS\Colegios\Alcantara-Alicante\Alcantaras\alcantara la
florida\2008\anuario 2008\montaje 2008 montaje\interior 2009\03 color 1,03 MB
11-11-2008 14:41:30
----------------------------------------------------------------------------------------------------------------------------------------------------DSCN2057.jpg
F:\TRABAJOS\Colegios\Alcantara-Alicante\Alcantaras\alcantara la
florida\2008\anuario 2008\anuario 2008\00-09
1,01 MB 11-11-2008 14:41:02
DSCN2057.jpg
F:\TRABAJOS\Colegios\Alcantara-Alicante\Alcantaras\alcantara la
florida\2008\anuario 2008\montaje 2008 montaje\interior 2009\03 color 1,01 MB
11-11-2008 14:41:02
----------------------------------------------------------------------------------------------------------------------------------------------------DSCN2088.jpg
F:\TRABAJOS\Colegios\Alcantara-Alicante\Alcantaras\alcantara la
florida\2008\anuario 2008\anuario 2008\00-09
1,08 MB 11-11-2008 14:40:08
DSCN2088.jpg
F:\TRABAJOS\Colegios\Alcantara-Alicante\Alcantaras\alcantara la
florida\2008\anuario 2008\montaje 2008 montaje\interior 2009\03 color 1,08 MB
11-11-2008 14:40:08
----------------------------------------------------------------------------------------------------------------------------------------------------DSCN2107.jpg
F:\TRABAJOS\Colegios\Alcantara-Alicante\Alcantaras\alcantara la
florida\2008\anuario 2008\anuario 2008\00-09
1,12 MB 11-11-2008 14:29:56
DSCN2107.jpg
F:\TRABAJOS\Colegios\Alcantara-Alicante\Alcantaras\alcantara la
florida\2008\anuario 2008\montaje 2008 montaje\interior 2009\03 color 1,12 MB
11-11-2008 14:29:56
----------------------------------------------------------------------------------------------------------------------------------------------------DSCN2111.jpg
F:\TRABAJOS\Colegios\Alcantara-Alicante\Alcantaras\alcantara la
florida\2008\anuario 2008\anuario 2008\00-09
1,02 MB 11-11-2008 14:29:26
DSCN2111.jpg
F:\TRABAJOS\Colegios\Alcantara-Alicante\Alcantaras\alcantara la
florida\2008\anuario 2008\montaje 2008 montaje\interior 2009\03 color 1,02 MB
11-11-2008 14:29:26
----------------------------------------------------------------------------------------------------------------------------------------------------DSCN2127.jpg
F:\TRABAJOS\Colegios\Alcantara-Alicante\Alcantaras\alcantara la
florida\2008\anuario 2008\anuario 2008\00-09
1,14 MB 11-11-2008 15:01:26
DSCN2127.jpg
F:\TRABAJOS\Colegios\Alcantara-Alicante\Alcantaras\alcantara la
florida\2008\anuario 2008\montaje 2008 montaje\interior 2009\03 color 1,14 MB
11-11-2008 15:01:26
-----------------------------------------------------------------------------------------------------------------------------------------------------

DSCN3529.jpg
F:\TRABAJOS\Colegios\Alcantara-Alicante\Alcantaras\alcantara la
florida\2008\anuario 2008\anuario 2008\00-09
1,04 MB 11-11-2008 16:38:06
DSCN3529.jpg
F:\TRABAJOS\Colegios\Alcantara-Alicante\Alcantaras\alcantara la
florida\2008\anuario 2008\montaje 2008 montaje\interior 2009\03 color 1,04 MB
11-11-2008 16:38:06
----------------------------------------------------------------------------------------------------------------------------------------------------DSCN3534.jpg
F:\TRABAJOS\Colegios\Alcantara-Alicante\Alcantaras\alcantara la
florida\2008\anuario 2008\anuario 2008\00-09
1,04 MB 11-11-2008 15:18:06
DSCN3534.jpg
F:\TRABAJOS\Colegios\Alcantara-Alicante\Alcantaras\alcantara la
florida\2008\anuario 2008\montaje 2008 montaje\interior 2009\03 color 1,04 MB
11-11-2008 15:18:06
----------------------------------------------------------------------------------------------------------------------------------------------------DSCN3537.jpg
F:\TRABAJOS\Colegios\Alcantara-Alicante\Alcantaras\alcantara la
florida\2008\anuario 2008\anuario 2008\00-09
1,03 MB 11-11-2008 15:17:44
DSCN3537.jpg
F:\TRABAJOS\Colegios\Alcantara-Alicante\Alcantaras\alcantara la
florida\2008\anuario 2008\montaje 2008 montaje\interior 2009\03 color 1,03 MB
11-11-2008 15:17:44
----------------------------------------------------------------------------------------------------------------------------------------------------DSCN3543.jpg
F:\TRABAJOS\Colegios\Alcantara-Alicante\Alcantaras\alcantara la
florida\2008\anuario 2008\anuario 2008\00-09
1,10 MB 11-11-2008 15:16:34
DSCN3543.jpg
F:\TRABAJOS\Colegios\Alcantara-Alicante\Alcantaras\alcantara la
florida\2008\anuario 2008\montaje 2008 montaje\interior 2009\03 color 1,10 MB
11-11-2008 15:16:34
----------------------------------------------------------------------------------------------------------------------------------------------------DSCN3545.jpg
F:\TRABAJOS\Colegios\Alcantara-Alicante\Alcantaras\alcantara la
florida\2008\anuario 2008\anuario 2008\00-09
1,16 MB 11-11-2008 15:16:08
DSCN3545.jpg
F:\TRABAJOS\Colegios\Alcantara-Alicante\Alcantaras\alcantara la
florida\2008\anuario 2008\montaje 2008 montaje\interior 2009\03 color 1,16 MB
11-11-2008 15:16:08
----------------------------------------------------------------------------------------------------------------------------------------------------DSCN3556.jpg
F:\TRABAJOS\Colegios\Alcantara-Alicante\Alcantaras\alcantara la
florida\2008\anuario 2008\anuario 2008\00-09
1,09 MB 11-11-2008 15:18:50
DSCN3556.jpg
F:\TRABAJOS\Colegios\Alcantara-Alicante\Alcantaras\alcantara la
florida\2008\anuario 2008\montaje 2008 montaje\interior 2009\03 color 1,09 MB
11-11-2008 15:18:50
----------------------------------------------------------------------------------------------------------------------------------------------------seleccion poms JPG.jpg F:\TRABAJOS\Colegios\Alcantara-Alicante\Alcantaras\alcan
tara la florida\2008\anuario 2008\anuario 2008\00-09
1,23 MB 13-11-2008 20:39
:36
seleccion poms JPG.jpg F:\TRABAJOS\Colegios\Alcantara-Alicante\Alcantaras\alcan
tara la florida\2008\anuario 2008\montaje 2008 montaje\interior 2009\03 color
1,23 MB 13-11-2008 20:39:36
----------------------------------------------------------------------------------------------------------------------------------------------------DSCN0424.jpg
F:\TRABAJOS\Colegios\Alcantara-Alicante\Alcantaras\alcantara la
florida\2008\anuario 2008\anuario 2008\10-19
1,64 MB 10-11-2008 21:35:50
DSCN0424.jpg
F:\TRABAJOS\Colegios\Alcantara-Alicante\Alcantaras\alcantara la
florida\2008\anuario 2008\montaje 2008 montaje\interior 2009\01 1,64 MB 10-11-20
08 21:35:50
----------------------------------------------------------------------------------------------------------------------------------------------------DSCN0429.jpg
F:\TRABAJOS\Colegios\Alcantara-Alicante\Alcantaras\alcantara la
florida\2008\anuario 2008\anuario 2008\10-19
1,84 MB 10-11-2008 21:35:30
DSCN0429.jpg
F:\TRABAJOS\Colegios\Alcantara-Alicante\Alcantaras\alcantara la

florida\2008\anuario 2008\montaje 2008 montaje\interior 2009\01 1,84 MB 10-11-20


08 21:35:30
----------------------------------------------------------------------------------------------------------------------------------------------------DSCN0430.jpg
F:\TRABAJOS\Colegios\Alcantara-Alicante\Alcantaras\alcantara la
florida\2008\anuario 2008\anuario 2008\10-19
1,84 MB 10-11-2008 21:35:08
DSCN0430.jpg
F:\TRABAJOS\Colegios\Alcantara-Alicante\Alcantaras\alcantara la
florida\2008\anuario 2008\montaje 2008 montaje\interior 2009\01 1,84 MB 10-11-20
08 21:35:08
----------------------------------------------------------------------------------------------------------------------------------------------------DSCN0432.jpg
F:\TRABAJOS\Colegios\Alcantara-Alicante\Alcantaras\alcantara la
florida\2008\anuario 2008\anuario 2008\10-19
1,95 MB 10-11-2008 21:34:48
DSCN0432.jpg
F:\TRABAJOS\Colegios\Alcantara-Alicante\Alcantaras\alcantara la
florida\2008\anuario 2008\montaje 2008 montaje\interior 2009\01 1,95 MB 10-11-20
08 21:34:48
----------------------------------------------------------------------------------------------------------------------------------------------------DSCN0434.jpg
F:\TRABAJOS\Colegios\Alcantara-Alicante\Alcantaras\alcantara la
florida\2008\anuario 2008\anuario 2008\10-19
1,86 MB 10-11-2008 21:34:26
DSCN0434.jpg
F:\TRABAJOS\Colegios\Alcantara-Alicante\Alcantaras\alcantara la
florida\2008\anuario 2008\montaje 2008 montaje\interior 2009\01 1,86 MB 10-11-20
08 21:34:26
----------------------------------------------------------------------------------------------------------------------------------------------------DSCN0437.jpg
F:\TRABAJOS\Colegios\Alcantara-Alicante\Alcantaras\alcantara la
florida\2008\anuario 2008\anuario 2008\10-19
1,73 MB 10-11-2008 21:33:50
DSCN0437.jpg
F:\TRABAJOS\Colegios\Alcantara-Alicante\Alcantaras\alcantara la
florida\2008\anuario 2008\montaje 2008 montaje\interior 2009\01 1,73 MB 10-11-20
08 21:33:50
----------------------------------------------------------------------------------------------------------------------------------------------------DSCN0441.jpg
F:\TRABAJOS\Colegios\Alcantara-Alicante\Alcantaras\alcantara la
florida\2008\anuario 2008\anuario 2008\10-19
1,98 MB 10-11-2008 21:33:28
DSCN0441.jpg
F:\TRABAJOS\Colegios\Alcantara-Alicante\Alcantaras\alcantara la
florida\2008\anuario 2008\montaje 2008 montaje\interior 2009\01 1,98 MB 10-11-20
08 21:33:28
----------------------------------------------------------------------------------------------------------------------------------------------------DSCN0455.jpg
F:\TRABAJOS\Colegios\Alcantara-Alicante\Alcantaras\alcantara la
florida\2008\anuario 2008\anuario 2008\10-19
1,77 MB 10-11-2008 21:33:04
DSCN0455.jpg
F:\TRABAJOS\Colegios\Alcantara-Alicante\Alcantaras\alcantara la
florida\2008\anuario 2008\montaje 2008 montaje\interior 2009\01 1,77 MB 10-11-20
08 21:33:04
----------------------------------------------------------------------------------------------------------------------------------------------------DSCN0464.jpg
F:\TRABAJOS\Colegios\Alcantara-Alicante\Alcantaras\alcantara la
florida\2008\anuario 2008\anuario 2008\10-19
1,66 MB 10-11-2008 21:36:16
DSCN0464.jpg
F:\TRABAJOS\Colegios\Alcantara-Alicante\Alcantaras\alcantara la
florida\2008\anuario 2008\montaje 2008 montaje\interior 2009\01 1,66 MB 10-11-20
08 21:36:16
----------------------------------------------------------------------------------------------------------------------------------------------------DSCN0920.jpg
F:\TRABAJOS\Colegios\Alcantara-Alicante\Alcantaras\alcantara la
florida\2008\anuario 2008\anuario 2008\10-19
1,05 MB 10-11-2008 16:43:36
DSCN0920.jpg
F:\TRABAJOS\Colegios\Alcantara-Alicante\Alcantaras\alcantara la
florida\2008\anuario 2008\montaje 2008 montaje\interior 2009\01 1,05 MB 10-11-20
08 16:43:36
-----------------------------------------------------------------------------------------------------------------------------------------------------

DSCN1007.jpg
F:\TRABAJOS\Colegios\Alcantara-Alicante\Alcantaras\alcantara la
florida\2008\anuario 2008\anuario 2008\10-19
1,02 MB 10-11-2008 21:58:20
DSCN1007.jpg
F:\TRABAJOS\Colegios\Alcantara-Alicante\Alcantaras\alcantara la
florida\2008\anuario 2008\montaje 2008 montaje\interior 2009\01 1,02 MB 10-11-20
08 21:58:20
----------------------------------------------------------------------------------------------------------------------------------------------------DSCN1274.jpg
F:\TRABAJOS\Colegios\Alcantara-Alicante\Alcantaras\alcantara la
florida\2008\anuario 2008\anuario 2008\10-19
1,80 MB 10-11-2008 16:48:52
DSCN1274.jpg
F:\TRABAJOS\Colegios\Alcantara-Alicante\Alcantaras\alcantara la
florida\2008\anuario 2008\montaje 2008 montaje\interior 2009\01 1,80 MB 10-11-20
08 16:48:52
----------------------------------------------------------------------------------------------------------------------------------------------------DSCN1277.jpg
F:\TRABAJOS\Colegios\Alcantara-Alicante\Alcantaras\alcantara la
florida\2008\anuario 2008\anuario 2008\10-19
1,74 MB 10-11-2008 16:48:28
DSCN1277.jpg
F:\TRABAJOS\Colegios\Alcantara-Alicante\Alcantaras\alcantara la
florida\2008\anuario 2008\montaje 2008 montaje\interior 2009\01 1,74 MB 10-11-20
08 16:48:28
----------------------------------------------------------------------------------------------------------------------------------------------------DSCN1283.jpg
F:\TRABAJOS\Colegios\Alcantara-Alicante\Alcantaras\alcantara la
florida\2008\anuario 2008\anuario 2008\10-19
1,81 MB 10-11-2008 16:48:04
DSCN1283.jpg
F:\TRABAJOS\Colegios\Alcantara-Alicante\Alcantaras\alcantara la
florida\2008\anuario 2008\montaje 2008 montaje\interior 2009\01 1,81 MB 10-11-20
08 16:48:04
----------------------------------------------------------------------------------------------------------------------------------------------------DSCN1285.jpg
F:\TRABAJOS\Colegios\Alcantara-Alicante\Alcantaras\alcantara la
florida\2008\anuario 2008\anuario 2008\10-19
1,86 MB 10-11-2008 16:47:36
DSCN1285.jpg
F:\TRABAJOS\Colegios\Alcantara-Alicante\Alcantaras\alcantara la
florida\2008\anuario 2008\montaje 2008 montaje\interior 2009\01 1,86 MB 10-11-20
08 16:47:36
----------------------------------------------------------------------------------------------------------------------------------------------------DSCN1286.jpg
F:\TRABAJOS\Colegios\Alcantara-Alicante\Alcantaras\alcantara la
florida\2008\anuario 2008\anuario 2008\10-19
1,76 MB 10-11-2008 16:47:06
DSCN1286.jpg
F:\TRABAJOS\Colegios\Alcantara-Alicante\Alcantaras\alcantara la
florida\2008\anuario 2008\montaje 2008 montaje\interior 2009\01 1,76 MB 10-11-20
08 16:47:06
----------------------------------------------------------------------------------------------------------------------------------------------------DSCN1307.jpg
F:\TRABAJOS\Colegios\Alcantara-Alicante\Alcantaras\alcantara la
florida\2008\anuario 2008\anuario 2008\10-19
1,73 MB 10-11-2008 16:46:32
DSCN1307.jpg
F:\TRABAJOS\Colegios\Alcantara-Alicante\Alcantaras\alcantara la
florida\2008\anuario 2008\montaje 2008 montaje\interior 2009\01 1,73 MB 10-11-20
08 16:46:32
----------------------------------------------------------------------------------------------------------------------------------------------------DSCN1308.jpg
F:\TRABAJOS\Colegios\Alcantara-Alicante\Alcantaras\alcantara la
florida\2008\anuario 2008\anuario 2008\10-19
1,56 MB 10-11-2008 16:50:10
DSCN1308.jpg
F:\TRABAJOS\Colegios\Alcantara-Alicante\Alcantaras\alcantara la
florida\2008\anuario 2008\montaje 2008 montaje\interior 2009\01 1,56 MB 10-11-20
08 16:50:10
----------------------------------------------------------------------------------------------------------------------------------------------------DSCN1511.jpg
F:\TRABAJOS\Colegios\Alcantara-Alicante\Alcantaras\alcantara la
florida\2008\anuario 2008\anuario 2008\10-19
1,06 MB 14-11-2008 16:33:34
DSCN1511.jpg
F:\TRABAJOS\Colegios\Alcantara-Alicante\Alcantaras\alcantara la
florida\2008\anuario 2008\montaje 2008 montaje\interior 2009\01 1,06 MB 14-11-20

08 16:33:34
----------------------------------------------------------------------------------------------------------------------------------------------------DSCN1520.jpg
F:\TRABAJOS\Colegios\Alcantara-Alicante\Alcantaras\alcantara la
florida\2008\anuario 2008\anuario 2008\10-19
1,10 MB 13-11-2008 13:31:36
DSCN1520.jpg
F:\TRABAJOS\Colegios\Alcantara-Alicante\Alcantaras\alcantara la
florida\2008\anuario 2008\montaje 2008 montaje\interior 2009\01 1,10 MB 13-11-20
08 13:31:36
----------------------------------------------------------------------------------------------------------------------------------------------------DSCN1585.jpg
F:\TRABAJOS\Colegios\Alcantara-Alicante\Alcantaras\alcantara la
florida\2008\anuario 2008\anuario 2008\10-19
1,04 MB 10-11-2008 21:09:54
DSCN1585.jpg
F:\TRABAJOS\Colegios\Alcantara-Alicante\Alcantaras\alcantara la
florida\2008\anuario 2008\montaje 2008 montaje\interior 2009\01 1,04 MB 10-11-20
08 21:09:54
----------------------------------------------------------------------------------------------------------------------------------------------------DSCN1896.jpg
F:\TRABAJOS\Colegios\Alcantara-Alicante\Alcantaras\alcantara la
florida\2008\anuario 2008\anuario 2008\10-19
1,10 MB 10-11-2008 21:46:58
DSCN1896.jpg
F:\TRABAJOS\Colegios\Alcantara-Alicante\Alcantaras\alcantara la
florida\2008\anuario 2008\montaje 2008 montaje\interior 2009\01 1,10 MB 10-11-20
08 21:46:58
----------------------------------------------------------------------------------------------------------------------------------------------------DSCN1909.jpg
F:\TRABAJOS\Colegios\Alcantara-Alicante\Alcantaras\alcantara la
florida\2008\anuario 2008\anuario 2008\10-19
1,09 MB 10-11-2008 21:46:16
DSCN1909.jpg
F:\TRABAJOS\Colegios\Alcantara-Alicante\Alcantaras\alcantara la
florida\2008\anuario 2008\montaje 2008 montaje\interior 2009\01 1,09 MB 10-11-20
08 21:46:16
----------------------------------------------------------------------------------------------------------------------------------------------------DSCN1918.jpg
F:\TRABAJOS\Colegios\Alcantara-Alicante\Alcantaras\alcantara la
florida\2008\anuario 2008\anuario 2008\10-19
1,02 MB 10-11-2008 21:48:28
DSCN1918.jpg
F:\TRABAJOS\Colegios\Alcantara-Alicante\Alcantaras\alcantara la
florida\2008\anuario 2008\montaje 2008 montaje\interior 2009\01 1,02 MB 10-11-20
08 21:48:28
----------------------------------------------------------------------------------------------------------------------------------------------------26 - alumnos.jpg
F:\TRABAJOS\Colegios\Alcantara-Alicante\Alcantaras\alcan
tara la florida\2008\anuario 2008\anuario 2008\20-29
1,13 MB 29-08-2008 19:05
:30
26 - alumnos.jpg
F:\TRABAJOS\Colegios\Alcantara-Alicante\Alcantaras\alcan
tara la florida\2008\anuario 2008\montaje 2008 montaje\interior 2009\02 1,13 MB
29-08-2008 19:05:30
----------------------------------------------------------------------------------------------------------------------------------------------------27 - alumnos.jpg
F:\TRABAJOS\Colegios\Alcantara-Alicante\Alcantaras\alcan
tara la florida\2008\anuario 2008\anuario 2008\20-29
1,05 MB 29-08-2008 20:38
:32
27 - alumnos.jpg
F:\TRABAJOS\Colegios\Alcantara-Alicante\Alcantaras\alcan
tara la florida\2008\anuario 2008\montaje 2008 montaje\interior 2009\02 1,05 MB
29-08-2008 20:38:32
----------------------------------------------------------------------------------------------------------------------------------------------------28 - alumnos.jpg
F:\TRABAJOS\Colegios\Alcantara-Alicante\Alcantaras\alcan
tara la florida\2008\anuario 2008\anuario 2008\20-29
1,01 MB 29-08-2008 21:10
:12
28 - alumnos.jpg
F:\TRABAJOS\Colegios\Alcantara-Alicante\Alcantaras\alcan
tara la florida\2008\anuario 2008\montaje 2008 montaje\interior 2009\02 1,01 MB
29-08-2008 21:10:12

----------------------------------------------------------------------------------------------------------------------------------------------------29 - alumnos.jpg
F:\TRABAJOS\Colegios\Alcantara-Alicante\Alcantaras\alcan
tara la florida\2008\anuario 2008\anuario 2008\20-29
1,13 MB 29-08-2008 21:52
:20
29 - alumnos.jpg
F:\TRABAJOS\Colegios\Alcantara-Alicante\Alcantaras\alcan
tara la florida\2008\anuario 2008\montaje 2008 montaje\interior 2009\02 1,13 MB
29-08-2008 21:52:20
----------------------------------------------------------------------------------------------------------------------------------------------------24 - profesores.jpg
F:\TRABAJOS\Colegios\Alcantara-Alicante\Alcantaras\alcan
tara la florida\2008\anuario 2008\anuario 2008\20-29Revisado
2,91 MB 27-08-20
08 13:41:49
24 - profesores.jpg
F:\TRABAJOS\Colegios\Alcantara-Alicante\Ambos\anuario\In
terior\Hoja 20-29\Hoja nueva
2,91 MB 27-08-2008 13:41:49
----------------------------------------------------------------------------------------------------------------------------------------------------25 - alumnos.jpg
F:\TRABAJOS\Colegios\Alcantara-Alicante\Alcantaras\alcan
tara la florida\2008\anuario 2008\anuario 2008\20-29Revisado
1,23 MB 27-08-20
08 13:59:50
25 - alumnos.jpg
F:\TRABAJOS\Colegios\Alcantara-Alicante\Ambos\anuario\In
terior\Hoja 20-29\Hoja nueva
1,23 MB 27-08-2008 13:59:50
----------------------------------------------------------------------------------------------------------------------------------------------------26 - alumnos.jpg
F:\TRABAJOS\Colegios\Alcantara-Alicante\Alcantaras\alcan
tara la florida\2008\anuario 2008\anuario 2008\20-29Revisado
1,13 MB 29-08-20
08 19:05:29
26 - alumnos.jpg
F:\TRABAJOS\Colegios\Alcantara-Alicante\Ambos\anuario\In
terior\Hoja 20-29\Hoja nueva
1,13 MB 29-08-2008 19:05:29
----------------------------------------------------------------------------------------------------------------------------------------------------27 - alumnos.jpg
F:\TRABAJOS\Colegios\Alcantara-Alicante\Alcantaras\alcan
tara la florida\2008\anuario 2008\anuario 2008\20-29Revisado
1,05 MB 29-08-20
08 20:38:31
27 - alumnos.jpg
F:\TRABAJOS\Colegios\Alcantara-Alicante\Ambos\anuario\In
terior\Hoja 20-29\Hoja nueva
1,05 MB 29-08-2008 20:38:31
----------------------------------------------------------------------------------------------------------------------------------------------------28 - alumnos.jpg
F:\TRABAJOS\Colegios\Alcantara-Alicante\Alcantaras\alcan
tara la florida\2008\anuario 2008\anuario 2008\20-29Revisado
1,01 MB 29-08-20
08 21:10:11
28 - alumnos.jpg
F:\TRABAJOS\Colegios\Alcantara-Alicante\Ambos\anuario\In
terior\Hoja 20-29\Hoja nueva
1,01 MB 29-08-2008 21:10:11
----------------------------------------------------------------------------------------------------------------------------------------------------29 - alumnos.jpg
F:\TRABAJOS\Colegios\Alcantara-Alicante\Alcantaras\alcan
tara la florida\2008\anuario 2008\anuario 2008\20-29Revisado
1,13 MB 29-08-20
08 21:52:19
29 - alumnos.jpg
F:\TRABAJOS\Colegios\Alcantara-Alicante\Ambos\anuario\In
terior\Hoja 20-29\Hoja nueva
1,13 MB 29-08-2008 21:52:19
----------------------------------------------------------------------------------------------------------------------------------------------------Copia de 26 - alumnos.jpg
F:\TRABAJOS\Colegios\Alcantara-Alicante\Alcantar
as\alcantara la florida\2008\anuario 2008\anuario 2008\20-29Revisado
1,13 MB
29-08-2008 19:05:29
Copia de 26 - alumnos.jpg
F:\TRABAJOS\Colegios\Alcantara-Alicante\Ambos\an
uario\Interior\Hoja 20-29\Hoja nueva
1,13 MB 29-08-2008 19:05:29
----------------------------------------------------------------------------------------------------------------------------------------------------30 - alumnos.jpg
F:\TRABAJOS\Colegios\Alcantara-Alicante\Alcantaras\alcan

tara la florida\2008\anuario 2008\anuario 2008\30-39


1,07 MB 29-08-2008 22:13
:24
30 - alumnos.jpg
F:\TRABAJOS\Colegios\Alcantara-Alicante\Alcantaras\alcan
tara la florida\2008\anuario 2008\montaje 2008 montaje\interior 2009\02 1,07 MB
29-08-2008 22:13:24
----------------------------------------------------------------------------------------------------------------------------------------------------31 - alumnos.jpg
F:\TRABAJOS\Colegios\Alcantara-Alicante\Alcantaras\alcan
tara la florida\2008\anuario 2008\anuario 2008\30-39
1,08 MB 29-08-2008 22:25
:54
31 - alumnos.jpg
F:\TRABAJOS\Colegios\Alcantara-Alicante\Alcantaras\alcan
tara la florida\2008\anuario 2008\montaje 2008 montaje\interior 2009\01 1,08 MB
29-08-2008 22:25:54
----------------------------------------------------------------------------------------------------------------------------------------------------32 - alumnos.jpg
F:\TRABAJOS\Colegios\Alcantara-Alicante\Alcantaras\alcan
tara la florida\2008\anuario 2008\anuario 2008\30-39
1,18 MB 29-08-2008 22:47
:56
32 - alumnos.jpg
F:\TRABAJOS\Colegios\Alcantara-Alicante\Alcantaras\alcan
tara la florida\2008\anuario 2008\montaje 2008 montaje\interior 2009\01 1,18 MB
29-08-2008 22:47:56
----------------------------------------------------------------------------------------------------------------------------------------------------33 - alumnos.jpg
F:\TRABAJOS\Colegios\Alcantara-Alicante\Alcantaras\alcan
tara la florida\2008\anuario 2008\anuario 2008\30-39
1,09 MB 29-08-2008 23:09
:40
33 - alumnos.jpg
F:\TRABAJOS\Colegios\Alcantara-Alicante\Alcantaras\alcan
tara la florida\2008\anuario 2008\montaje 2008 montaje\interior 2009\01 1,09 MB
29-08-2008 23:09:40
----------------------------------------------------------------------------------------------------------------------------------------------------34 - alumnos.jpg
F:\TRABAJOS\Colegios\Alcantara-Alicante\Alcantaras\alcan
tara la florida\2008\anuario 2008\anuario 2008\30-39
1,13 MB 01-09-2008 13:35
:24
34 - alumnos.jpg
F:\TRABAJOS\Colegios\Alcantara-Alicante\Alcantaras\alcan
tara la florida\2008\anuario 2008\montaje 2008 montaje\interior 2009\01 1,13 MB
01-09-2008 13:35:24
----------------------------------------------------------------------------------------------------------------------------------------------------37 - alumnos.jpg
F:\TRABAJOS\Colegios\Alcantara-Alicante\Alcantaras\alcan
tara la florida\2008\anuario 2008\anuario 2008\30-39
1,14 MB 01-09-2008 14:11
:16
37 - alumnos.jpg
F:\TRABAJOS\Colegios\Alcantara-Alicante\Alcantaras\alcan
tara la florida\2008\anuario 2008\montaje 2008 montaje\interior 2009\01 1,14 MB
01-09-2008 14:11:16
----------------------------------------------------------------------------------------------------------------------------------------------------37 - gina.jpg F:\TRABAJOS\Colegios\Alcantara-Alicante\Alcantaras\alcantara la
florida\2008\anuario 2008\anuario 2008\30-39
1,10 MB 01-09-2008 14:13:24
37 - gina.jpg F:\TRABAJOS\Colegios\Alcantara-Alicante\Alcantaras\alcantara la
florida\2008\anuario 2008\montaje 2008 montaje\interior 2009\01 1,10 MB 01-09-20
08 14:13:24
----------------------------------------------------------------------------------------------------------------------------------------------------38 - alumnos.jpg
F:\TRABAJOS\Colegios\Alcantara-Alicante\Alcantaras\alcan
tara la florida\2008\anuario 2008\anuario 2008\30-39
1,17 MB 01-09-2008 14:37
:38
38 - alumnos.jpg
F:\TRABAJOS\Colegios\Alcantara-Alicante\Alcantaras\alcan
tara la florida\2008\anuario 2008\montaje 2008 montaje\interior 2009\01 1,17 MB
01-09-2008 14:37:38

----------------------------------------------------------------------------------------------------------------------------------------------------38 - Kathia.jpg F:\TRABAJOS\Colegios\Alcantara-Alicante\Alcantaras\alcantara la


florida\2008\anuario 2008\anuario 2008\30-39
1,03 MB 01-09-2008 14:39:38
38 - Kathia.jpg F:\TRABAJOS\Colegios\Alcantara-Alicante\Alcantaras\alcantara la
florida\2008\anuario 2008\montaje 2008 montaje\interior 2009\01 1,03 MB 01-09-20
08 14:39:38
----------------------------------------------------------------------------------------------------------------------------------------------------39 - alumnos.jpg
F:\TRABAJOS\Colegios\Alcantara-Alicante\Alcantaras\alcan
tara la florida\2008\anuario 2008\anuario 2008\30-39
1,09 MB 01-09-2008 17:01
:58
39 - alumnos.jpg
F:\TRABAJOS\Colegios\Alcantara-Alicante\Alcantaras\alcan
tara la florida\2008\anuario 2008\montaje 2008 montaje\interior 2009\01 1,09 MB
01-09-2008 17:01:58
39 - alumnos.jpg
F:\TRABAJOS\Colegios\Alcantara-Alicante\Alcantaras\alcan
tara la florida\2008\anuario 2008\montaje 2008 montaje\interior 2009\02 1,09 MB
01-09-2008 17:01:58
----------------------------------------------------------------------------------------------------------------------------------------------------42 - alumnos.jpg
F:\TRABAJOS\Colegios\Alcantara-Alicante\Alcantaras\alcan
tara la florida\2008\anuario 2008\anuario 2008\30-39
1,13 MB 01-09-2008 15:42
:22
42 - alumnos.jpg
F:\TRABAJOS\Colegios\Alcantara-Alicante\Alcantaras\alcan
tara la florida\2008\anuario 2008\anuario 2008\40-49
1,13 MB 01-09-2008 15:42
:22
42 - alumnos.jpg
F:\TRABAJOS\Colegios\Alcantara-Alicante\Alcantaras\alcan
tara la florida\2008\anuario 2008\montaje 2008 montaje\interior 2009\02 1,13 MB
01-09-2008 15:42:22
----------------------------------------------------------------------------------------------------------------------------------------------------30 - alumnos.jpg
F:\TRABAJOS\Colegios\Alcantara-Alicante\Alcantaras\alcan
tara la florida\2008\anuario 2008\anuario 2008\30-39Revisado
1,07 MB 29-08-20
08 22:13:22
30 - alumnos.jpg
F:\TRABAJOS\Colegios\Alcantara-Alicante\Ambos\anuario\In
terior\Hoja 30-39\Hojas nuevas 1,07 MB 29-08-2008 22:13:22
----------------------------------------------------------------------------------------------------------------------------------------------------31 - alumnos.jpg
F:\TRABAJOS\Colegios\Alcantara-Alicante\Alcantaras\alcan
tara la florida\2008\anuario 2008\anuario 2008\30-39Revisado
1,08 MB 29-08-20
08 22:25:53
31 - alumnos.jpg
F:\TRABAJOS\Colegios\Alcantara-Alicante\Ambos\anuario\In
terior\Hoja 30-39\Hojas nuevas 1,08 MB 29-08-2008 22:25:53
----------------------------------------------------------------------------------------------------------------------------------------------------32 - alumnos.jpg
F:\TRABAJOS\Colegios\Alcantara-Alicante\Alcantaras\alcan
tara la florida\2008\anuario 2008\anuario 2008\30-39Revisado
1,18 MB 29-08-20
08 22:47:55
32 - alumnos.jpg
F:\TRABAJOS\Colegios\Alcantara-Alicante\Ambos\anuario\In
terior\Hoja 30-39\Hojas nuevas 1,18 MB 29-08-2008 22:47:55
----------------------------------------------------------------------------------------------------------------------------------------------------33 - alumnos.jpg
F:\TRABAJOS\Colegios\Alcantara-Alicante\Alcantaras\alcan
tara la florida\2008\anuario 2008\anuario 2008\30-39Revisado
1,09 MB 29-08-20
08 23:09:38
33 - alumnos.jpg
F:\TRABAJOS\Colegios\Alcantara-Alicante\Ambos\anuario\In
terior\Hoja 30-39\Hojas nuevas 1,09 MB 29-08-2008 23:09:38
----------------------------------------------------------------------------------------------------------------------------------------------------34 - alumnos.jpg
F:\TRABAJOS\Colegios\Alcantara-Alicante\Alcantaras\alcan

tara la florida\2008\anuario 2008\anuario 2008\30-39Revisado


1,13 MB 01-09-20
08 13:35:22
34 - alumnos.jpg
F:\TRABAJOS\Colegios\Alcantara-Alicante\Ambos\anuario\In
terior\Hoja 30-39\Hojas nuevas 1,13 MB 01-09-2008 13:35:22
----------------------------------------------------------------------------------------------------------------------------------------------------35 - color 2.jpg
F:\TRABAJOS\Colegios\Alcantara-Alicante\Alcantaras\alcan
tara la florida\2008\anuario 2008\anuario 2008\30-39Revisado
2,53 MB 01-09-20
08 13:52:02
35 - color 2.jpg
F:\TRABAJOS\Colegios\Alcantara-Alicante\Ambos\anuario\In
terior\Hoja 30-39\Hojas nuevas 2,53 MB 01-09-2008 13:52:02
----------------------------------------------------------------------------------------------------------------------------------------------------37 - alumnos.jpg
F:\TRABAJOS\Colegios\Alcantara-Alicante\Alcantaras\alcan
tara la florida\2008\anuario 2008\anuario 2008\30-39Revisado
1,14 MB 01-09-20
08 14:11:14
37 - alumnos.jpg
F:\TRABAJOS\Colegios\Alcantara-Alicante\Ambos\anuario\In
terior\Hoja 30-39\Hojas nuevas 1,14 MB 01-09-2008 14:11:14
----------------------------------------------------------------------------------------------------------------------------------------------------37 - gina.jpg F:\TRABAJOS\Colegios\Alcantara-Alicante\Alcantaras\alcantara la
florida\2008\anuario 2008\anuario 2008\30-39Revisado
1,10 MB 01-09-2008 14:13
:23
37 - gina.jpg F:\TRABAJOS\Colegios\Alcantara-Alicante\Ambos\anuario\Interior\H
oja 30-39\Hojas nuevas 1,10 MB 01-09-2008 14:13:23
----------------------------------------------------------------------------------------------------------------------------------------------------38 - alumnos.jpg
F:\TRABAJOS\Colegios\Alcantara-Alicante\Alcantaras\alcan
tara la florida\2008\anuario 2008\anuario 2008\30-39Revisado
1,17 MB 01-09-20
08 14:37:37
38 - alumnos.jpg
F:\TRABAJOS\Colegios\Alcantara-Alicante\Ambos\anuario\In
terior\Hoja 30-39\Hojas nuevas 1,17 MB 01-09-2008 14:37:37
----------------------------------------------------------------------------------------------------------------------------------------------------38 - Kathia.jpg F:\TRABAJOS\Colegios\Alcantara-Alicante\Alcantaras\alcantara la
florida\2008\anuario 2008\anuario 2008\30-39Revisado
1,03 MB 01-09-2008 14:39
:37
38 - Kathia.jpg F:\TRABAJOS\Colegios\Alcantara-Alicante\Ambos\anuario\Interior\H
oja 30-39\Hojas nuevas 1,03 MB 01-09-2008 14:39:37
----------------------------------------------------------------------------------------------------------------------------------------------------39 - alumnos.jpg
F:\TRABAJOS\Colegios\Alcantara-Alicante\Alcantaras\alcan
tara la florida\2008\anuario 2008\anuario 2008\30-39Revisado
1,09 MB 01-09-20
08 17:01:57
39 - alumnos.jpg
F:\TRABAJOS\Colegios\Alcantara-Alicante\Ambos\anuario\In
terior\Hoja 30-39\Hojas nuevas 1,09 MB 01-09-2008 17:01:57
----------------------------------------------------------------------------------------------------------------------------------------------------42 - alumnos.jpg
F:\TRABAJOS\Colegios\Alcantara-Alicante\Alcantaras\alcan
tara la florida\2008\anuario 2008\anuario 2008\30-39Revisado
1,13 MB 01-09-20
08 15:42:21
42 - alumnos.jpg
F:\TRABAJOS\Colegios\Alcantara-Alicante\Alcantaras\alcan
tara la florida\2008\anuario 2008\anuario 2008\40-49Revisado
1,13 MB 01-09-20
08 15:42:21
42 - alumnos.jpg
F:\TRABAJOS\Colegios\Alcantara-Alicante\Ambos\anuario\In
terior\Hoja 30-39\Hojas nuevas 1,13 MB 01-09-2008 15:42:21
42 - alumnos.jpg
F:\TRABAJOS\Colegios\Alcantara-Alicante\Ambos\anuario\In
terior\Hoja 40-49\hojas nuevas 1,13 MB 01-09-2008 15:42:21
-----------------------------------------------------------------------------------------------------------------------------------------------------

40 - alumnos.jpg
F:\TRABAJOS\Colegios\Alcantara-Alicante\Alcantaras\alcan
tara la florida\2008\anuario 2008\anuario 2008\40-49
1,11 MB 01-09-2008 14:59
:54
40 - alumnos.jpg
F:\TRABAJOS\Colegios\Alcantara-Alicante\Alcantaras\alcan
tara la florida\2008\anuario 2008\montaje 2008 montaje\interior 2009\01 1,11 MB
01-09-2008 14:59:54
----------------------------------------------------------------------------------------------------------------------------------------------------40 - javiera.jpg
F:\TRABAJOS\Colegios\Alcantara-Alicante\Alcantaras\alcan
tara la florida\2008\anuario 2008\anuario 2008\40-49
1,05 MB 01-09-2008 15:07
:44
40 - javiera.jpg
F:\TRABAJOS\Colegios\Alcantara-Alicante\Alcantaras\alcan
tara la florida\2008\anuario 2008\montaje 2008 montaje\interior 2009\01 1,05 MB
01-09-2008 15:07:44
----------------------------------------------------------------------------------------------------------------------------------------------------41 - catalina.jpg
F:\TRABAJOS\Colegios\Alcantara-Alicante\Alcantaras\alcan
tara la florida\2008\anuario 2008\anuario 2008\40-49
1,11 MB 01-09-2008 15:39
:44
41 - catalina.jpg
F:\TRABAJOS\Colegios\Alcantara-Alicante\Alcantaras\alcan
tara la florida\2008\anuario 2008\montaje 2008 montaje\interior 2009\02 1,11 MB
01-09-2008 15:39:44
----------------------------------------------------------------------------------------------------------------------------------------------------47.jpg F:\TRABAJOS\Colegios\Alcantara-Alicante\Alcantaras\alcantara la florida\
2008\anuario 2008\anuario 2008\40-49
2,88 MB 25-09-2008 15:47:06
47.jpg F:\TRABAJOS\Colegios\Alcantara-Alicante\Alcantaras\alcantara la florida\
2008\anuario 2008\montaje 2008 montaje\interior 2009\02 2,88 MB 25-09-2008 15:47
:06
----------------------------------------------------------------------------------------------------------------------------------------------------40 - alumnos.jpg
F:\TRABAJOS\Colegios\Alcantara-Alicante\Alcantaras\alcan
tara la florida\2008\anuario 2008\anuario 2008\40-49Revisado
1,11 MB 01-09-20
08 14:59:53
40 - alumnos.jpg
F:\TRABAJOS\Colegios\Alcantara-Alicante\Ambos\anuario\In
terior\Hoja 40-49\hojas nuevas 1,11 MB 01-09-2008 14:59:53
----------------------------------------------------------------------------------------------------------------------------------------------------40 - javiera.jpg
F:\TRABAJOS\Colegios\Alcantara-Alicante\Alcantaras\alcan
tara la florida\2008\anuario 2008\anuario 2008\40-49Revisado
1,05 MB 01-09-20
08 15:07:42
40 - javiera.jpg
F:\TRABAJOS\Colegios\Alcantara-Alicante\Ambos\anuario\In
terior\Hoja 40-49\hojas nuevas 1,05 MB 01-09-2008 15:07:42
----------------------------------------------------------------------------------------------------------------------------------------------------41 - alumnos.jpg
F:\TRABAJOS\Colegios\Alcantara-Alicante\Alcantaras\alcan
tara la florida\2008\anuario 2008\anuario 2008\40-49Revisado
1,12 MB 01-09-20
08 15:12:51
41 - alumnos.jpg
F:\TRABAJOS\Colegios\Alcantara-Alicante\Ambos\anuario\In
terior\Hoja 40-49\hojas nuevas 1,12 MB 01-09-2008 15:12:51
----------------------------------------------------------------------------------------------------------------------------------------------------41 - catalina.jpg
F:\TRABAJOS\Colegios\Alcantara-Alicante\Alcantaras\alcan
tara la florida\2008\anuario 2008\anuario 2008\40-49Revisado
1,11 MB 01-09-20
08 15:39:42
41 - catalina.jpg
F:\TRABAJOS\Colegios\Alcantara-Alicante\Ambos\anuario\In
terior\Hoja 40-49\hojas nuevas 1,11 MB 01-09-2008 15:39:42
----------------------------------------------------------------------------------------------------------------------------------------------------43 - alumnos.jpg
F:\TRABAJOS\Colegios\Alcantara-Alicante\Alcantaras\alcan

tara la florida\2008\anuario 2008\anuario 2008\40-49Revisado


1,08 MB 01-09-20
08 15:49:26
43 - alumnos.jpg
F:\TRABAJOS\Colegios\Alcantara-Alicante\Ambos\anuario\In
terior\Hoja 40-49\hojas nuevas 1,08 MB 01-09-2008 15:49:26
----------------------------------------------------------------------------------------------------------------------------------------------------44 - 01.jpg
F:\TRABAJOS\Colegios\Alcantara-Alicante\Alcantaras\alcantara la
florida\2008\anuario 2008\anuario 2008\40-49Revisado
2,51 MB 25-09-2008 14:44
:43
44 - 01.jpg
F:\TRABAJOS\Colegios\Alcantara-Alicante\Ambos\anuario\fotos anua
rio\pag 44
2,51 MB 25-09-2008 14:44:43
44 - 01.jpg
F:\TRABAJOS\Colegios\Alcantara-Alicante\Ambos\anuario\Interior\H
oja 40-49\hojas nuevas 2,51 MB 25-09-2008 14:44:43
----------------------------------------------------------------------------------------------------------------------------------------------------44 - 02.jpg
F:\TRABAJOS\Colegios\Alcantara-Alicante\Alcantaras\alcantara la
florida\2008\anuario 2008\anuario 2008\40-49Revisado
2,64 MB 25-09-2008 14:45
:18
44 - 02.jpg
F:\TRABAJOS\Colegios\Alcantara-Alicante\Ambos\anuario\fotos anua
rio\pag 44
2,64 MB 25-09-2008 14:45:18
44 - 02.jpg
F:\TRABAJOS\Colegios\Alcantara-Alicante\Ambos\anuario\Interior\H
oja 40-49\hojas nuevas 2,64 MB 25-09-2008 14:45:18
----------------------------------------------------------------------------------------------------------------------------------------------------44 - 03.jpg
F:\TRABAJOS\Colegios\Alcantara-Alicante\Alcantaras\alcantara la
florida\2008\anuario 2008\anuario 2008\40-49Revisado
2,55 MB 25-09-2008 14:46
:53
44 - 03.jpg
F:\TRABAJOS\Colegios\Alcantara-Alicante\Ambos\anuario\fotos anua
rio\pag 44
2,55 MB 25-09-2008 14:46:53
44 - 03.jpg
F:\TRABAJOS\Colegios\Alcantara-Alicante\Ambos\anuario\Interior\H
oja 40-49\hojas nuevas 2,55 MB 25-09-2008 14:46:53
----------------------------------------------------------------------------------------------------------------------------------------------------44 - 04.jpg
F:\TRABAJOS\Colegios\Alcantara-Alicante\Alcantaras\alcantara la
florida\2008\anuario 2008\anuario 2008\40-49Revisado
2,36 MB 25-09-2008 14:47
:18
44 - 04.jpg
F:\TRABAJOS\Colegios\Alcantara-Alicante\Ambos\anuario\fotos anua
rio\pag 44
2,36 MB 25-09-2008 14:47:18
44 - 04.jpg
F:\TRABAJOS\Colegios\Alcantara-Alicante\Ambos\anuario\Interior\H
oja 40-49\hojas nuevas 2,36 MB 25-09-2008 14:47:18
----------------------------------------------------------------------------------------------------------------------------------------------------44 - 05.jpg
F:\TRABAJOS\Colegios\Alcantara-Alicante\Alcantaras\alcantara la
florida\2008\anuario 2008\anuario 2008\40-49Revisado
2,45 MB 25-09-2008 14:49
:57
44 - 05.jpg
F:\TRABAJOS\Colegios\Alcantara-Alicante\Ambos\anuario\fotos anua
rio\pag 44
2,45 MB 25-09-2008 14:49:57
44 - 05.jpg
F:\TRABAJOS\Colegios\Alcantara-Alicante\Ambos\anuario\Interior\H
oja 40-49\hojas nuevas 2,45 MB 25-09-2008 14:49:57
----------------------------------------------------------------------------------------------------------------------------------------------------44 - 06.jpg
F:\TRABAJOS\Colegios\Alcantara-Alicante\Alcantaras\alcantara la
florida\2008\anuario 2008\anuario 2008\40-49Revisado
2,26 MB 25-09-2008 14:49
:11
44 - 06.jpg
F:\TRABAJOS\Colegios\Alcantara-Alicante\Ambos\anuario\fotos anua
rio\pag 44
2,26 MB 25-09-2008 14:49:11
44 - 06.jpg
F:\TRABAJOS\Colegios\Alcantara-Alicante\Ambos\anuario\Interior\H
oja 40-49\hojas nuevas 2,26 MB 25-09-2008 14:49:11
-----------------------------------------------------------------------------------------------------------------------------------------------------

44 - 07.jpg
F:\TRABAJOS\Colegios\Alcantara-Alicante\Alcantaras\alcantara la
florida\2008\anuario 2008\anuario 2008\40-49Revisado
2,46 MB 25-09-2008 14:51
:36
44 - 07.jpg
F:\TRABAJOS\Colegios\Alcantara-Alicante\Ambos\anuario\fotos anua
rio\pag 44
2,46 MB 25-09-2008 14:51:36
44 - 07.jpg
F:\TRABAJOS\Colegios\Alcantara-Alicante\Ambos\anuario\Interior\H
oja 40-49\hojas nuevas 2,46 MB 25-09-2008 14:51:36
----------------------------------------------------------------------------------------------------------------------------------------------------44 - 08.jpg
F:\TRABAJOS\Colegios\Alcantara-Alicante\Alcantaras\alcantara la
florida\2008\anuario 2008\anuario 2008\40-49Revisado
3,40 MB 25-09-2008 14:53
:44
44 - 08.jpg
F:\TRABAJOS\Colegios\Alcantara-Alicante\Ambos\anuario\fotos anua
rio\pag 44
3,40 MB 25-09-2008 14:53:44
44 - 08.jpg
F:\TRABAJOS\Colegios\Alcantara-Alicante\Ambos\anuario\Interior\H
oja 40-49\hojas nuevas 3,40 MB 25-09-2008 14:53:44
----------------------------------------------------------------------------------------------------------------------------------------------------44 - 09.jpg
F:\TRABAJOS\Colegios\Alcantara-Alicante\Alcantaras\alcantara la
florida\2008\anuario 2008\anuario 2008\40-49Revisado
3,66 MB 25-09-2008 14:55
:14
44 - 09.jpg
F:\TRABAJOS\Colegios\Alcantara-Alicante\Ambos\anuario\fotos anua
rio\pag 44
3,66 MB 25-09-2008 14:55:14
44 - 09.jpg
F:\TRABAJOS\Colegios\Alcantara-Alicante\Ambos\anuario\Interior\H
oja 40-49\hojas nuevas 3,66 MB 25-09-2008 14:55:14
----------------------------------------------------------------------------------------------------------------------------------------------------44 - 10.jpg
F:\TRABAJOS\Colegios\Alcantara-Alicante\Alcantaras\alcantara la
florida\2008\anuario 2008\anuario 2008\40-49Revisado
3,59 MB 25-09-2008 14:55
:45
44 - 10.jpg
F:\TRABAJOS\Colegios\Alcantara-Alicante\Ambos\anuario\fotos anua
rio\pag 44
3,59 MB 25-09-2008 14:55:45
44 - 10.jpg
F:\TRABAJOS\Colegios\Alcantara-Alicante\Ambos\anuario\Interior\H
oja 40-49\hojas nuevas 3,59 MB 25-09-2008 14:55:45
----------------------------------------------------------------------------------------------------------------------------------------------------45 - curso chico.jpg
F:\TRABAJOS\Colegios\Alcantara-Alicante\Alcantaras\alcan
tara la florida\2008\anuario 2008\anuario 2008\40-49Revisado
2,59 MB 25-09-20
08 15:02:51
45 - curso chico.jpg
F:\TRABAJOS\Colegios\Alcantara-Alicante\Ambos\anuario\fo
tos anuario\pag 45
2,59 MB 25-09-2008 15:02:51
45 - curso chico.jpg
F:\TRABAJOS\Colegios\Alcantara-Alicante\Ambos\anuario\In
terior\Hoja 40-49\hojas nuevas 2,59 MB 25-09-2008 15:02:51
----------------------------------------------------------------------------------------------------------------------------------------------------45 - curso grande.jpg F:\TRABAJOS\Colegios\Alcantara-Alicante\Alcantaras\alcan
tara la florida\2008\anuario 2008\anuario 2008\40-49Revisado
2,35 MB 25-09-20
08 15:03:37
45 - curso grande.jpg F:\TRABAJOS\Colegios\Alcantara-Alicante\Ambos\anuario\fo
tos anuario\pag 45
2,35 MB 25-09-2008 15:03:37
45 - curso grande.jpg F:\TRABAJOS\Colegios\Alcantara-Alicante\Ambos\anuario\In
terior\Hoja 40-49\hojas nuevas 2,35 MB 25-09-2008 15:03:37
----------------------------------------------------------------------------------------------------------------------------------------------------45 - profe.jpg F:\TRABAJOS\Colegios\Alcantara-Alicante\Alcantaras\alcantara la
florida\2008\anuario 2008\anuario 2008\40-49Revisado
2,73 MB 25-09-2008 15:05
:53
45 - profe.jpg F:\TRABAJOS\Colegios\Alcantara-Alicante\Ambos\anuario\fotos anua
rio\pag 45
2,73 MB 25-09-2008 15:05:53
45 - profe.jpg F:\TRABAJOS\Colegios\Alcantara-Alicante\Ambos\anuario\Interior\H

oja 40-49\hojas nuevas 2,73 MB 25-09-2008 15:05:53


----------------------------------------------------------------------------------------------------------------------------------------------------46 - 01.jpg
F:\TRABAJOS\Colegios\Alcantara-Alicante\Alcantaras\alcantara la
florida\2008\anuario 2008\anuario 2008\40-49Revisado
1,26 MB 30-10-2008 17:00
:17
46 - 01.jpg
F:\TRABAJOS\Colegios\Alcantara-Alicante\Ambos\anuario\Interior\H
oja 40-49\hojas nuevas 1,26 MB 30-10-2008 17:00:17
----------------------------------------------------------------------------------------------------------------------------------------------------46 - 02.jpg
F:\TRABAJOS\Colegios\Alcantara-Alicante\Alcantaras\alcantara la
florida\2008\anuario 2008\anuario 2008\40-49Revisado
1,29 MB 30-10-2008 16:59
:54
46 - 02.jpg
F:\TRABAJOS\Colegios\Alcantara-Alicante\Ambos\anuario\Interior\H
oja 40-49\hojas nuevas 1,29 MB 30-10-2008 16:59:54
----------------------------------------------------------------------------------------------------------------------------------------------------47.jpg F:\TRABAJOS\Colegios\Alcantara-Alicante\Alcantaras\alcantara la florida\
2008\anuario 2008\anuario 2008\40-49Revisado
2,88 MB 25-09-2008 15:47:04
47.jpg F:\TRABAJOS\Colegios\Alcantara-Alicante\Ambos\anuario\fotos anuario
2,88 MB 25-09-2008 15:47:04
47.jpg F:\TRABAJOS\Colegios\Alcantara-Alicante\Ambos\anuario\Interior\Hoja 40-4
9\hojas nuevas 2,88 MB 25-09-2008 15:47:04
----------------------------------------------------------------------------------------------------------------------------------------------------50-1.jpg
F:\TRABAJOS\Colegios\Alcantara-Alicante\Alcantaras\alcantara la
florida\2008\anuario 2008\anuario 2008\50-59
2,05 MB 26-09-2008 19:48:52
50-1.jpg
F:\TRABAJOS\Colegios\Alcantara-Alicante\Alcantaras\alcantara la
florida\2008\anuario 2008\montaje 2008 montaje\interior 2009\02 2,05 MB 26-09-20
08 19:48:52
----------------------------------------------------------------------------------------------------------------------------------------------------53-3.jpg
F:\TRABAJOS\Colegios\Alcantara-Alicante\Alcantaras\alcantara la
florida\2008\anuario 2008\anuario 2008\50-59
1,00 MB 29-09-2008 13:36:44
53-3.jpg
F:\TRABAJOS\Colegios\Alcantara-Alicante\Alcantaras\alcantara la
florida\2008\anuario 2008\montaje 2008 montaje\interior 2009\01 1,00 MB 29-09-20
08 13:36:44
----------------------------------------------------------------------------------------------------------------------------------------------------57-1.jpg
F:\TRABAJOS\Colegios\Alcantara-Alicante\Alcantaras\alcantara la
florida\2008\anuario 2008\anuario 2008\50-59
1,07 MB 29-09-2008 13:53:34
57-1.jpg
F:\TRABAJOS\Colegios\Alcantara-Alicante\Alcantaras\alcantara la
florida\2008\anuario 2008\montaje 2008 montaje\interior 2009\01 1,07 MB 29-09-20
08 13:53:34
----------------------------------------------------------------------------------------------------------------------------------------------------58-4.jpg
F:\TRABAJOS\Colegios\Alcantara-Alicante\Alcantaras\alcantara la
florida\2008\anuario 2008\anuario 2008\50-59
1,25 MB 29-09-2008 13:56:48
58-4.jpg
F:\TRABAJOS\Colegios\Alcantara-Alicante\Alcantaras\alcantara la
florida\2008\anuario 2008\montaje 2008 montaje\interior 2009\01 1,25 MB 29-09-20
08 13:56:48
----------------------------------------------------------------------------------------------------------------------------------------------------50-1.jpg
F:\TRABAJOS\Colegios\Alcantara-Alicante\Alcantaras\alcantara la
florida\2008\anuario 2008\anuario 2008\50-59Revisado
2,05 MB 26-09-2008 19:48
:51
50-1.jpg
F:\TRABAJOS\Colegios\Alcantara-Alicante\Ambos\anuario\fotos anua
rio\50 2,05 MB 26-09-2008 19:48:51
50-1.jpg
F:\TRABAJOS\Colegios\Alcantara-Alicante\Ambos\anuario\Interior\H
oja 50-59\Hojas Nuevasc 2,05 MB 26-09-2008 19:48:51

----------------------------------------------------------------------------------------------------------------------------------------------------53-3.jpg
F:\TRABAJOS\Colegios\Alcantara-Alicante\Alcantaras\alcantara la
florida\2008\anuario 2008\anuario 2008\50-59Revisado
1,00 MB 29-09-2008 13:36
:43
53-3.jpg
F:\TRABAJOS\Colegios\Alcantara-Alicante\Ambos\anuario\fotos anua
rio\53 1,00 MB 29-09-2008 13:36:43
53-3.jpg
F:\TRABAJOS\Colegios\Alcantara-Alicante\Ambos\anuario\Interior\H
oja 50-59\Hojas Nuevasc 1,00 MB 29-09-2008 13:36:43
----------------------------------------------------------------------------------------------------------------------------------------------------57-1.jpg
F:\TRABAJOS\Colegios\Alcantara-Alicante\Alcantaras\alcantara la
florida\2008\anuario 2008\anuario 2008\50-59Revisado
1,07 MB 29-09-2008 13:53
:33
57-1.jpg
F:\TRABAJOS\Colegios\Alcantara-Alicante\Ambos\anuario\fotos anua
rio\57 1,07 MB 29-09-2008 13:53:33
57-1.jpg
F:\TRABAJOS\Colegios\Alcantara-Alicante\Ambos\anuario\Interior\H
oja 50-59\Hojas Nuevasc 1,07 MB 29-09-2008 13:53:33
----------------------------------------------------------------------------------------------------------------------------------------------------58-4.jpg
F:\TRABAJOS\Colegios\Alcantara-Alicante\Alcantaras\alcantara la
florida\2008\anuario 2008\anuario 2008\50-59Revisado
1,25 MB 29-09-2008 13:56
:46
58-4.jpg
F:\TRABAJOS\Colegios\Alcantara-Alicante\Ambos\anuario\fotos anua
rio\58 1,25 MB 29-09-2008 13:56:46
58-4.jpg
F:\TRABAJOS\Colegios\Alcantara-Alicante\Ambos\anuario\Interior\H
oja 50-59\Hojas Nuevasc 1,25 MB 29-09-2008 13:56:46
----------------------------------------------------------------------------------------------------------------------------------------------------69.jpg F:\TRABAJOS\Colegios\Alcantara-Alicante\Alcantaras\alcantara la florida\
2008\anuario 2008\anuario 2008\60-69
1,33 MB 06-11-2008 19:07:16
69.jpg F:\TRABAJOS\Colegios\Alcantara-Alicante\Alcantaras\alcantara la florida\
2008\anuario 2008\anuario 2008\60-69Revisado
1,33 MB 06-11-2008 19:07:16
69.jpg F:\TRABAJOS\Colegios\Alcantara-Alicante\Alcantaras\alcantara la florida\
2008\anuario 2008\montaje 2008 montaje\interior 2009\02 1,33 MB 06-11-2008 19:07
:16
69.jpg F:\TRABAJOS\Colegios\Alcantara-Alicante\Ambos\anuario\Interior\Hoja 60-6
9\60-69\60-69 1,33 MB 06-11-2008 19:07:16
----------------------------------------------------------------------------------------------------------------------------------------------------80-1.jpg
F:\TRABAJOS\Colegios\Alcantara-Alicante\Alcantaras\alcantara la
florida\2008\anuario 2008\anuario 2008\80-88
1,13 MB 29-09-2008 15:58:06
80-1.jpg
F:\TRABAJOS\Colegios\Alcantara-Alicante\Alcantaras\alcantara la
florida\2008\anuario 2008\montaje 2008 montaje\interior 2009\01 1,13 MB 29-09-20
08 15:58:06
----------------------------------------------------------------------------------------------------------------------------------------------------87-1.jpg
F:\TRABAJOS\Colegios\Alcantara-Alicante\Alcantaras\alcantara la
florida\2008\anuario 2008\anuario 2008\80-88
1,02 MB 29-09-2008 16:22:56
87-1.jpg
F:\TRABAJOS\Colegios\Alcantara-Alicante\Alcantaras\alcantara la
florida\2008\anuario 2008\montaje 2008 montaje\interior 2009\02 1,02 MB 29-09-20
08 16:22:56
----------------------------------------------------------------------------------------------------------------------------------------------------88.jpg F:\TRABAJOS\Colegios\Alcantara-Alicante\Alcantaras\alcantara la florida\
2008\anuario 2008\anuario 2008\80-88
1,07 MB 29-09-2008 16:25:46
88.jpg F:\TRABAJOS\Colegios\Alcantara-Alicante\Alcantaras\alcantara la florida\
2008\anuario 2008\montaje 2008 montaje\interior 2009\02 1,07 MB 29-09-2008 16:25
:46
--------------------------------------------------------------------------------

---------------------------------------------------------------------80-1.jpg
F:\TRABAJOS\Colegios\Alcantara-Alicante\Alcantaras\alcantara la
florida\2008\anuario 2008\anuario 2008\80-88Revisado
1,13 MB 29-09-2008 15:58
:04
80-1.jpg
F:\TRABAJOS\Colegios\Alcantara-Alicante\Ambos\anuario\fotos anua
rio\80 1,13 MB 29-09-2008 15:58:04
80-1.jpg
F:\TRABAJOS\Colegios\Alcantara-Alicante\Ambos\anuario\Interior\H
oja 80-86\Hojas Nueva 1,13 MB 29-09-2008 15:58:04
----------------------------------------------------------------------------------------------------------------------------------------------------87-1.jpg
F:\TRABAJOS\Colegios\Alcantara-Alicante\Alcantaras\alcantara la
florida\2008\anuario 2008\anuario 2008\80-88Revisado
1,02 MB 29-09-2008 16:22
:55
87-1.jpg
F:\TRABAJOS\Colegios\Alcantara-Alicante\Ambos\anuario\fotos anua
rio\87 1,02 MB 29-09-2008 16:22:55
87-1.jpg
F:\TRABAJOS\Colegios\Alcantara-Alicante\Ambos\anuario\Interior\H
oja 80-86\Hojas Nueva 1,02 MB 29-09-2008 16:22:55
----------------------------------------------------------------------------------------------------------------------------------------------------88.jpg F:\TRABAJOS\Colegios\Alcantara-Alicante\Alcantaras\alcantara la florida\
2008\anuario 2008\anuario 2008\80-88Revisado
1,07 MB 29-09-2008 16:25:45
88.jpg F:\TRABAJOS\Colegios\Alcantara-Alicante\Ambos\anuario\fotos anuario
1,07 MB 29-09-2008 16:25:45
88.jpg F:\TRABAJOS\Colegios\Alcantara-Alicante\Ambos\anuario\Interior\Hoja 80-8
6\Hojas Nueva 1,07 MB 29-09-2008 16:25:45
----------------------------------------------------------------------------------------------------------------------------------------------------calendario julio - dic trazo.FH10
F:\TRABAJOS\Colegios\Alcantara-Alicante\
Alicantes\Agenda alicante2004 2,08 MB 27-01-2004 20:45:30
calendario julio - dic trazo.FH10
F:\TRABAJOS\Colegios\Alcantara-Alicante\
Ambos\Agenda alicante alcantara2004
2,08 MB 27-01-2004 20:45:30
----------------------------------------------------------------------------------------------------------------------------------------------------calendario marzo julio.FH10
F:\TRABAJOS\Colegios\Alcantara-Alicante\Alicante
s\Agenda alicante2004 1,03 MB 28-01-2004 23:54:38
calendario marzo julio.FH10
F:\TRABAJOS\Colegios\Alcantara-Alicante\Ambos\Ag
enda alicante alcantara2004
1,03 MB 28-01-2004 23:54:38
----------------------------------------------------------------------------------------------------------------------------------------------------02.jpg F:\TRABAJOS\Colegios\Alcantara-Alicante\Alicantes\Alicante del rosal\200
4\boletines 2004\boletin 02
1,31 MB 10-09-2004 18:47:06
02.jpg F:\TRABAJOS\Colegios\Alcantara-Alicante\Alicantes\Alicante del rosal\200
4\Informativo sep 2004 1,31 MB 10-09-2004 18:47:06
----------------------------------------------------------------------------------------------------------------------------------------------------fachada gris.jpg
F:\TRABAJOS\Colegios\Alcantara-Alicante\Alicantes\Alican
te del rosal\2005\Informativo 10 2005\Fotos\Fotos Gris 1,08 MB 08-07-2003 8:38:
06
fachada gris.jpg
F:\TRABAJOS\Colegios\Alcantara-Alicante\Alicantes\Alican
te del rosal\2005\Informe de Gestin 2005\Fotos\fotos grises
1,08 MB 08-07-20
03 8:38:06
----------------------------------------------------------------------------------------------------------------------------------------------------boletin alicante del rosal 01 2006 Trazado.FH10 F:\TRABAJOS\Colegios\Alcantara-A
licante\Alicantes\Alicante del rosal\2006\Boletin 01 2006
4,79 MB 13-03-20
06 9:45:58
boletin alicante del rosal 01 2006 Trazado.FH10 F:\TRABAJOS\Colegios\Alcantara-A
licante\Alicantes\Alicante del rosal\2006\Boletin 01 2006\Boletn FH y Fotos
4,79 MB 13-03-2006 9:45:58
--------------------------------------------------------------------------------

---------------------------------------------------------------------Licenciatura 2007-Media Rosal.FH10


F:\TRABAJOS\Colegios\Alcantara-Alicante\
Alicantes\Alicante del rosal\2007\Licenciatura 2007
4,03 MB 04-12-2007 20:36
:04
Licenciatura 2007-Media Rosal.FH10
F:\TRABAJOS\Colegios\Alcantara-Alicante\
Alicantes\Alicante del rosal\2008\Licenciatura 2008
4,03 MB 04-12-2007 20:36
:04
----------------------------------------------------------------------------------------------------------------------------------------------------fondo parvulario.psd
F:\TRABAJOS\Colegios\Alcantara-Alicante\Alicantes\Alican
te del rosal\2008\diplomas
7,58 MB 01-08-2008 20:03:04
fondo parvulario.psd
F:\TRABAJOS\Colegios\Alcantara-Alicante\Alicantes\Alican
te del rosal\2008\diplomas2008 7,58 MB 01-08-2008 20:03:04
----------------------------------------------------------------------------------------------------------------------------------------------------fondo parvulario.tif
F:\TRABAJOS\Colegios\Alcantara-Alicante\Alicantes\Alican
te del rosal\2008\diplomas
35,1 MB 01-08-2008 20:02:48
fondo parvulario.tif
F:\TRABAJOS\Colegios\Alcantara-Alicante\Alicantes\Alican
te del rosal\2008\diplomas2008 35,1 MB 01-08-2008 20:02:48
----------------------------------------------------------------------------------------------------------------------------------------------------fondo parvulario.tif
F:\TRABAJOS\Colegios\Alcantara-Alicante\Alicantes\Alican
te del rosal\2008\diplomas\tiberiades 15-07-08 15,9 MB 17-07-2008 15:26:24
fondo parvulario.tif
F:\TRABAJOS\Colegios\Alcantara-Alicante\Alicantes\Alican
te del rosal\2008\diplomas2008\tiberiades 15-07-08
15,9 MB 17-07-2008 15:26
:24
----------------------------------------------------------------------------------------------------------------------------------------------------IMG_9777.JPG
F:\TRABAJOS\Colegios\Alcantara-Alicante\Alicantes\Alicante del r
osal\2012\Fotos 5,23 MB 15-05-2012 14:37:58
IMG_9777.JPG
F:\TRABAJOS\Colegios\Alcantara-Alicante\Alicantes\Alicante del r
osal\2012\Invitacion 10 aos
5,23 MB 15-05-2012 14:37:58
----------------------------------------------------------------------------------------------------------------------------------------------------Medio Mayor=Salida pelicula.FH10
F:\TRABAJOS\Colegios\Alcantara-Alicante\
Alicantes\alicante del sol\Informe E. 2005\Alicante del Sol
1,10 MB 23-06-20
05 11:27:14
Medio Mayor=Salida pelicula.FH10
F:\TRABAJOS\Colegios\Alcantara-Alicante\
Alicantes\alicante del sol\Informe E. 2005
1,10 MB 23-06-2005 11:27:14
----------------------------------------------------------------------------------------------------------------------------------------------------Alicante Flo. (P-K).FH10
F:\TRABAJOS\Colegios\Alcantara-Alicante\Alicante
s\Alicante la Florida\Informe E. 2005 1,32 MB 23-06-2005 10:02:26
Alicante Flo. (P-K).FH10
F:\TRABAJOS\Colegios\Alcantara-Alicante\Alicante
s\Informe E. Colegio Alicante (08 Junio 2005)\Ms\Alicante Pre-Kinder 1,32 MB
23-06-2005 10:02:26
----------------------------------------------------------------------------------------------------------------------------------------------------Alicante Flor. (M-M).FH10
F:\TRABAJOS\Colegios\Alcantara-Alicante\Alicante
s\Alicante la Florida\Informe E. 2005 1,27 MB 23-06-2005 10:58:50
Alicante Flor. (M-M).FH10
F:\TRABAJOS\Colegios\Alcantara-Alicante\Alicante
s\Informe E. Colegio Alicante (08 Junio 2005)\Ms\Alicante Medio Mayor 1,27 MB
23-06-2005 10:58:50
----------------------------------------------------------------------------------------------------------------------------------------------------fachada.psd
F:\TRABAJOS\Colegios\Alcantara-Alicante\Alicantes\Alicante Maipu
\2004\Informe de gestin educativa ao 2004\Informe de gestin educativa ao 2004 (traza
do)\Fotos Alicante Gris 4,38 MB 05-09-2005 9:12:18
fachada.psd
F:\TRABAJOS\Colegios\Alcantara-Alicante\Alicantes\Alicante Maipu
\2004\Informe de gestin educativa ao 2004\informe gestion 2004\fotos\fotos alicant

e
4,38 MB 05-09-2005 9:12:18
----------------------------------------------------------------------------------------------------------------------------------------------------Diploma3.jpg
F:\TRABAJOS\Colegios\Alcantara-Alicante\Alicantes\Alicante Maipu
\2005\Pelicula Alicante 1,64 MB 17-11-2005 12:08:00
Diploma3.jpg
F:\TRABAJOS\Colegios\Alcantara-Alicante\Alicantes\alicante vario
s\Diplomas Alicantes\Alicante S.A
1,64 MB 17-11-2005 12:08:00
----------------------------------------------------------------------------------------------------------------------------------------------------Gestin 2005-pelicula.FH11
F:\TRABAJOS\Colegios\Alcantara-Alicante\Alicante
s\Alicante Maipu\2006\gestin2006
15,1 MB 04-08-2006 2:13:22
Gestin 2005-pelicula.FH11
F:\TRABAJOS\Colegios\Alcantara-Alicante\Alicante
s\Alicante Maipu\2006\gestin2006\Pelicula
15,1 MB 04-08-2006 2:13:22
----------------------------------------------------------------------------------------------------------------------------------------------------prueba(vellum).FH11
F:\TRABAJOS\Colegios\Alcantara-Alicante\Alicantes\Alican
te Maipu\2008\Alicante Vespucio 2008
3,86 MB 14-11-2008 16:12:08
prueba(vellum).FH11
F:\TRABAJOS\Colegios\Alcantara-Alicante\Alicantes\Alican
te Maipu\2008\invitacion 2008 3,86 MB 14-11-2008 16:12:08
----------------------------------------------------------------------------------------------------------------------------------------------------Diploma2.jpg
F:\TRABAJOS\Colegios\Alcantara-Alicante\Alicantes\alicante vario
s\Diplomas Alicantes\Alicante S.A
2,18 MB 17-11-2005 10:35:14
Diploma2.jpg
F:\TRABAJOS\Colegios\Liceo Ruiz Tagle\2008\Modelo a seguir
2,18 MB 17-11-2005 10:35:14
----------------------------------------------------------------------------------------------------------------------------------------------------DSCN0091.jpg
F:\TRABAJOS\Colegios\Alcantara-Alicante\Alicantes\Fotos Alcantar
a-Alicante
3,83 MB 24-02-2006 8:03:24
DSCN0091.jpg
F:\TRABAJOS\Colegios\Alcantara-Alicante\Alicantes\Tapa Pre y Kin
der AA\Fotos
3,83 MB 24-02-2006 8:03:24
DSCN0091.jpg
F:\TRABAJOS\Colegios\Alcantara-Alicante\Ambos\Fotos Alcantara-Al
icante 3,83 MB 24-02-2006 8:03:24
----------------------------------------------------------------------------------------------------------------------------------------------------DSCN0092.jpg
F:\TRABAJOS\Colegios\Alcantara-Alicante\Alicantes\Fotos Alcantar
a-Alicante
3,88 MB 25-02-2006 7:16:04
DSCN0092.jpg
F:\TRABAJOS\Colegios\Alcantara-Alicante\Alicantes\Tapa Kinder AA
3,88 MB 25-02-2006 7:16:04
DSCN0092.jpg
F:\TRABAJOS\Colegios\Alcantara-Alicante\Alicantes\Tapa Pre y Kin
der AA\Fotos
3,88 MB 25-02-2006 7:16:04
DSCN0092.jpg
F:\TRABAJOS\Colegios\Alcantara-Alicante\Ambos\Fotos Alcantara-Al
icante 3,88 MB 25-02-2006 7:16:04
DSCN0092.jpg
F:\TRABAJOS\Colegios\Alcantara-Alicante\Ambos\Tapa Kinder AA
3,88 MB 25-02-2006 7:16:04
----------------------------------------------------------------------------------------------------------------------------------------------------DSCN0098.jpg
F:\TRABAJOS\Colegios\Alcantara-Alicante\Alicantes\Fotos Alcantar
a-Alicante
2,77 MB 24-02-2006 7:54:10
DSCN0098.jpg
F:\TRABAJOS\Colegios\Alcantara-Alicante\Alicantes\Tapa Kinder AA
2,77 MB 24-02-2006 7:54:10
DSCN0098.jpg
F:\TRABAJOS\Colegios\Alcantara-Alicante\Alicantes\Tapa Pre y Kin
der AA\Fotos
2,77 MB 24-02-2006 7:54:10
DSCN0098.jpg
F:\TRABAJOS\Colegios\Alcantara-Alicante\Ambos\Fotos Alcantara-Al
icante 2,77 MB 24-02-2006 7:54:10
DSCN0098.jpg
F:\TRABAJOS\Colegios\Alcantara-Alicante\Ambos\Tapa Kinder AA
2,77 MB 24-02-2006 7:54:10
----------------------------------------------------------------------------------------------------------------------------------------------------DSCN0196.jpg
F:\TRABAJOS\Colegios\Alcantara-Alicante\Alicantes\Fotos Alcantar

a-Alicante
4,19 MB 25-02-2006 7:48:44
DSCN0196.jpg
F:\TRABAJOS\Colegios\Alcantara-Alicante\Alicantes\Tapa Pre y Kin
der AA\Fotos
4,19 MB 25-02-2006 7:48:44
DSCN0196.jpg
F:\TRABAJOS\Colegios\Alcantara-Alicante\Ambos\Fotos Alcantara-Al
icante 4,19 MB 25-02-2006 7:48:44
----------------------------------------------------------------------------------------------------------------------------------------------------DSCN0223.jpg
F:\TRABAJOS\Colegios\Alcantara-Alicante\Alicantes\Fotos Alcantar
a-Alicante
3,86 MB 25-02-2006 7:29:48
DSCN0223.jpg
F:\TRABAJOS\Colegios\Alcantara-Alicante\Alicantes\Tapa Pre y Kin
der AA\Fotos
3,86 MB 25-02-2006 7:29:48
DSCN0223.jpg
F:\TRABAJOS\Colegios\Alcantara-Alicante\Ambos\Fotos Alcantara-Al
icante 3,86 MB 25-02-2006 7:29:48
DSCN0223.jpg
F:\TRABAJOS\Colegios\Leonardo Da Vinci\Pelicula Da Vinci-AA\Foto
s AA
3,86 MB 25-02-2006 7:29:48
----------------------------------------------------------------------------------------------------------------------------------------------------fotos.zip
F:\TRABAJOS\Colegios\Alcantara-Alicante\Alicantes\Fotos Alcantar
a-Alicante
7,93 MB 24-02-2006 6:42:16
fotos.zip
F:\TRABAJOS\Colegios\Alcantara-Alicante\Alicantes\Tapa Pre y Kin
der AA\Fotos
7,93 MB 24-02-2006 6:42:16
fotos.zip
F:\TRABAJOS\Colegios\Alcantara-Alicante\Ambos\Fotos Alcantara-Al
icante 7,93 MB 24-02-2006 6:42:16
----------------------------------------------------------------------------------------------------------------------------------------------------derechos del nio 014 (nias).jpg
F:\TRABAJOS\Colegios\Alcantara-Alicante\Alicante
s\Tapa Kinder AA
1,36 MB 01-03-2006 10:19:22
derechos del nio 014 (nias).jpg
F:\TRABAJOS\Colegios\Alcantara-Alicante\Alicante
s\Tapa Pre y Kinder AA\Fotos2 1,36 MB 01-03-2006 10:19:22
derechos del nio 014 (nias).jpg
F:\TRABAJOS\Colegios\Alcantara-Alicante\Ambos\Ta
pa Kinder AA
1,36 MB 01-03-2006 10:19:22
----------------------------------------------------------------------------------------------------------------------------------------------------DSCN0090.jpg
F:\TRABAJOS\Colegios\Alcantara-Alicante\Alicantes\Tapa Pre y Kin
der AA\Fotos
3,41 MB 01-03-2006 10:08:28
DSCN0090.jpg
F:\TRABAJOS\Colegios\Leonardo Da Vinci\Pelicula Da Vinci-AA\Foto
s AA
3,41 MB 01-03-2006 10:08:28
----------------------------------------------------------------------------------------------------------------------------------------------------arbol prebasica 037.jpg F:\TRABAJOS\Colegios\Alcantara-Alicante\Alicantes\Tapa P
re y Kinder AA\Fotos2 1,53 MB 01-03-2006 10:17:28
arbol prebasica 037.jpg F:\TRABAJOS\Colegios\Leonardo Da Vinci\Pelicula Da Vinci
-AA\Fotos AA
1,53 MB 01-03-2006 10:17:28
----------------------------------------------------------------------------------------------------------------------------------------------------67-1.jpg
F:\TRABAJOS\Colegios\Alcantara-Alicante\Ambos\anuario\fotos anua
rio\67 2,66 MB 29-09-2008 15:00:15
67-1.jpg
F:\TRABAJOS\Colegios\Alcantara-Alicante\Ambos\anuario\Interior\H
oja 60-69
2,66 MB 29-09-2008 15:00:15
----------------------------------------------------------------------------------------------------------------------------------------------------67-2.jpg
F:\TRABAJOS\Colegios\Alcantara-Alicante\Ambos\anuario\fotos anua
rio\67 2,92 MB 29-09-2008 15:00:58
67-2.jpg
F:\TRABAJOS\Colegios\Alcantara-Alicante\Ambos\anuario\Interior\H
oja 60-69
2,92 MB 29-09-2008 15:00:58
----------------------------------------------------------------------------------------------------------------------------------------------------67-3.jpg
F:\TRABAJOS\Colegios\Alcantara-Alicante\Ambos\anuario\fotos anua
rio\67 2,64 MB 29-09-2008 15:01:48
67-3.jpg
F:\TRABAJOS\Colegios\Alcantara-Alicante\Ambos\anuario\Interior\H

oja 60-69
2,64 MB 29-09-2008 15:01:48
----------------------------------------------------------------------------------------------------------------------------------------------------HojaGrande.jpg F:\TRABAJOS\Colegios\Alcantara-Alicante\Ambos\anuario\Interior\H
oja 00-09
1,76 MB 31-07-2007 21:05:44
HojaGrande.jpg F:\TRABAJOS\Colegios\Alcantara-Alicante\Ambos\anuario\Interior\H
oja 10-19
1,76 MB 31-07-2007 21:05:44
HojaGrande.jpg F:\TRABAJOS\Colegios\Alcantara-Alicante\Ambos\anuario\Interior\H
oja 20-29
1,76 MB 31-07-2007 21:05:44
HojaGrande.jpg F:\TRABAJOS\Colegios\Alcantara-Alicante\Ambos\anuario\Interior\H
oja 30-39
1,76 MB 31-07-2007 21:05:44
HojaGrande.jpg F:\TRABAJOS\Colegios\Alcantara-Alicante\Ambos\anuario\Interior\H
oja 40-49
1,76 MB 31-07-2007 21:05:44
HojaGrande.jpg F:\TRABAJOS\Colegios\Alcantara-Alicante\Ambos\anuario\Interior\H
oja 50-59
1,76 MB 31-07-2007 21:05:44
HojaGrande.jpg F:\TRABAJOS\Colegios\Alcantara-Alicante\Ambos\anuario\Interior\H
oja 60-69
1,76 MB 31-07-2007 21:05:44
HojaGrande.jpg F:\TRABAJOS\Colegios\Alcantara-Alicante\Ambos\anuario\Interior\H
oja 70-79
1,76 MB 31-07-2007 21:05:44
HojaGrande.jpg F:\TRABAJOS\Colegios\Alcantara-Alicante\Ambos\anuario\Interior\H
oja 80-86
1,76 MB 31-07-2007 21:05:44
----------------------------------------------------------------------------------------------------------------------------------------------------Kinder-habilidadesgrafomot.FH11 F:\TRABAJOS\Colegios\Alcantara-Alicante\Ambos\Li
bros alcantara alicante\Libros-kinder\Kinder-hablidades grafomotoras
4,75 MB
22-01-2007 13:27:42
Kinder-habilidadesgrafomot.FH11 F:\TRABAJOS\Colegios\Alcantara-Alicante\Ambos\Mo
ntaje Libros Alcantara Alicante\Kinder 4,75 MB 22-01-2007 13:27:42
----------------------------------------------------------------------------------------------------------------------------------------------------abejaspollosardillas.tif
F:\TRABAJOS\Colegios\Alcantara-Alicante\Ambos\Li
bros alcantara alicante\Libros-kinder\kinder-Matematica\imagenes matematica
6,15 MB 16-01-2007 17:04:30
abejaspollosardillas.tif
F:\TRABAJOS\Colegios\Alcantara-Alicante\Ambos\Mo
ntaje Libros Alcantara Alicante\CD2\Matematica kinder\imagenes matematica
6,15 MB 16-01-2007 17:04:30
----------------------------------------------------------------------------------------------------------------------------------------------------alimales.tif
F:\TRABAJOS\Colegios\Alcantara-Alicante\Ambos\Libros alcantara a
licante\Libros-kinder\kinder-Matematica\imagenes matematica
4,21 MB 16-01-20
07 15:42:54
alimales.tif
F:\TRABAJOS\Colegios\Alcantara-Alicante\Ambos\Montaje Libros Alc
antara Alicante\CD2\Matematica kinder\imagenes matematica
4,21 MB 16-01-20
07 15:42:54
----------------------------------------------------------------------------------------------------------------------------------------------------arbolcasa.tif F:\TRABAJOS\Colegios\Alcantara-Alicante\Ambos\Libros alcantara a
licante\Libros-kinder\kinder-Matematica\imagenes matematica
4,27 MB 15-01-20
07 10:08:06
arbolcasa.tif F:\TRABAJOS\Colegios\Alcantara-Alicante\Ambos\Montaje Libros Alc
antara Alicante\CD2\Matematica kinder\imagenes matematica
4,27 MB 15-01-20
07 10:08:06
----------------------------------------------------------------------------------------------------------------------------------------------------ardillas.tif
F:\TRABAJOS\Colegios\Alcantara-Alicante\Ambos\Libros alcantara a
licante\Libros-kinder\kinder-Matematica\imagenes matematica
5,00 MB 16-01-20
07 15:56:42
ardillas.tif
F:\TRABAJOS\Colegios\Alcantara-Alicante\Ambos\Montaje Libros Alc
antara Alicante\CD2\Matematica kinder\imagenes matematica
5,00 MB 16-01-20
07 15:56:42

----------------------------------------------------------------------------------------------------------------------------------------------------autosomuneca.tif
F:\TRABAJOS\Colegios\Alcantara-Alicante\Ambos\Libros alc
antara alicante\Libros-kinder\kinder-Matematica\imagenes matematica
5,23 MB
16-01-2007 9:13:14
autosomuneca.tif
F:\TRABAJOS\Colegios\Alcantara-Alicante\Ambos\Montaje Li
bros Alcantara Alicante\CD2\Matematica kinder\imagenes matematica
5,23 MB
16-01-2007 9:13:14
----------------------------------------------------------------------------------------------------------------------------------------------------avionbus.tif
F:\TRABAJOS\Colegios\Alcantara-Alicante\Ambos\Libros alcantara a
licante\Libros-kinder\kinder-Matematica\imagenes matematica
5,18 MB 16-01-20
07 15:12:02
avionbus.tif
F:\TRABAJOS\Colegios\Alcantara-Alicante\Ambos\Montaje Libros Alc
antara Alicante\CD2\Matematica kinder\imagenes matematica
5,18 MB 16-01-20
07 15:12:02
----------------------------------------------------------------------------------------------------------------------------------------------------aviones.tif
F:\TRABAJOS\Colegios\Alcantara-Alicante\Ambos\Libros alcantara a
licante\Libros-kinder\kinder-Matematica\imagenes matematica
3,59 MB 16-01-20
07 16:55:38
aviones.tif
F:\TRABAJOS\Colegios\Alcantara-Alicante\Ambos\Montaje Libros Alc
antara Alicante\CD2\Matematica kinder\imagenes matematica
3,59 MB 16-01-20
07 16:55:38
----------------------------------------------------------------------------------------------------------------------------------------------------balnazas.tif
F:\TRABAJOS\Colegios\Alcantara-Alicante\Ambos\Libros alcantara a
licante\Libros-kinder\kinder-Matematica\imagenes matematica
5,43 MB 15-01-20
07 11:37:02
balnazas.tif
F:\TRABAJOS\Colegios\Alcantara-Alicante\Ambos\Montaje Libros Alc
antara Alicante\CD2\Matematica kinder\imagenes matematica
5,43 MB 15-01-20
07 11:37:02
----------------------------------------------------------------------------------------------------------------------------------------------------banderas.tif
F:\TRABAJOS\Colegios\Alcantara-Alicante\Ambos\Libros alcantara a
licante\Libros-kinder\kinder-Matematica\imagenes matematica
7,30 MB 16-01-20
07 14:55:26
banderas.tif
F:\TRABAJOS\Colegios\Alcantara-Alicante\Ambos\Montaje Libros Alc
antara Alicante\CD2\Matematica kinder\imagenes matematica
7,30 MB 16-01-20
07 14:55:26
----------------------------------------------------------------------------------------------------------------------------------------------------bichos.tif
F:\TRABAJOS\Colegios\Alcantara-Alicante\Ambos\Libros alcantara a
licante\Libros-kinder\kinder-Matematica\imagenes matematica
3,16 MB 16-01-20
07 15:37:22
bichos.tif
F:\TRABAJOS\Colegios\Alcantara-Alicante\Ambos\Montaje Libros Alc
antara Alicante\CD2\Matematica kinder\imagenes matematica
3,16 MB 16-01-20
07 15:37:22
----------------------------------------------------------------------------------------------------------------------------------------------------busesbicicletas.tif
F:\TRABAJOS\Colegios\Alcantara-Alicante\Ambos\Libros alc
antara alicante\Libros-kinder\kinder-Matematica\imagenes matematica
3,62 MB
16-01-2007 16:59:46
busesbicicletas.tif
F:\TRABAJOS\Colegios\Alcantara-Alicante\Ambos\Montaje Li
bros Alcantara Alicante\CD2\Matematica kinder\imagenes matematica
3,62 MB
16-01-2007 16:59:46
----------------------------------------------------------------------------------------------------------------------------------------------------cajon.tif
F:\TRABAJOS\Colegios\Alcantara-Alicante\Ambos\Libros alcantara a
licante\Libros-kinder\kinder-Matematica\imagenes matematica
4,96 MB 12-01-20

07 14:47:40
cajon.tif
F:\TRABAJOS\Colegios\Alcantara-Alicante\Ambos\Montaje Libros Alc
antara Alicante\CD2\Matematica kinder\imagenes matematica
4,96 MB 12-01-20
07 14:47:40
----------------------------------------------------------------------------------------------------------------------------------------------------camelos.tif
F:\TRABAJOS\Colegios\Alcantara-Alicante\Ambos\Libros alcantara a
licante\Libros-kinder\kinder-Matematica\imagenes matematica
5,32 MB 16-01-20
07 15:07:58
camelos.tif
F:\TRABAJOS\Colegios\Alcantara-Alicante\Ambos\Montaje Libros Alc
antara Alicante\CD2\Matematica kinder\imagenes matematica
5,32 MB 16-01-20
07 15:07:58
----------------------------------------------------------------------------------------------------------------------------------------------------carabinero.tif F:\TRABAJOS\Colegios\Alcantara-Alicante\Ambos\Libros alcantara a
licante\Libros-kinder\kinder-Matematica\imagenes matematica
4,78 MB 12-01-20
07 14:36:48
carabinero.tif F:\TRABAJOS\Colegios\Alcantara-Alicante\Ambos\Montaje Libros Alc
antara Alicante\CD2\Matematica kinder\imagenes matematica
4,78 MB 12-01-20
07 14:36:48
----------------------------------------------------------------------------------------------------------------------------------------------------carreras.tif
F:\TRABAJOS\Colegios\Alcantara-Alicante\Ambos\Libros alcantara a
licante\Libros-kinder\kinder-Matematica\imagenes matematica
6,13 MB 16-01-20
07 15:00:04
carreras.tif
F:\TRABAJOS\Colegios\Alcantara-Alicante\Ambos\Montaje Libros Alc
antara Alicante\CD2\Matematica kinder\imagenes matematica
6,13 MB 16-01-20
07 15:00:04
----------------------------------------------------------------------------------------------------------------------------------------------------cero.tif
F:\TRABAJOS\Colegios\Alcantara-Alicante\Ambos\Libros alcantara a
licante\Libros-kinder\kinder-Matematica\imagenes matematica
19,0 MB 16-01-20
07 9:36:46
cero.tif
F:\TRABAJOS\Colegios\Alcantara-Alicante\Ambos\Montaje Libros Alc
antara Alicante\CD2\Matematica kinder\imagenes matematica
19,0 MB 16-01-20
07 9:36:46
----------------------------------------------------------------------------------------------------------------------------------------------------cierres.tif
F:\TRABAJOS\Colegios\Alcantara-Alicante\Ambos\Libros alcantara a
licante\Libros-kinder\kinder-Matematica\imagenes matematica
5,23 MB 15-01-20
07 11:09:36
cierres.tif
F:\TRABAJOS\Colegios\Alcantara-Alicante\Ambos\Montaje Libros Alc
antara Alicante\CD2\Matematica kinder\imagenes matematica
5,23 MB 15-01-20
07 11:09:36
----------------------------------------------------------------------------------------------------------------------------------------------------circo.tif
F:\TRABAJOS\Colegios\Alcantara-Alicante\Ambos\Libros alcantara a
licante\Libros-kinder\kinder-Matematica\imagenes matematica
5,23 MB 12-01-20
07 14:54:40
circo.tif
F:\TRABAJOS\Colegios\Alcantara-Alicante\Ambos\Montaje Libros Alc
antara Alicante\CD2\Matematica kinder\imagenes matematica
5,23 MB 12-01-20
07 14:54:40
----------------------------------------------------------------------------------------------------------------------------------------------------cocinarcomer.tif
F:\TRABAJOS\Colegios\Alcantara-Alicante\Ambos\Libros alc
antara alicante\Libros-kinder\kinder-Matematica\imagenes matematica
4,34 MB
12-01-2007 15:00:34
cocinarcomer.tif
F:\TRABAJOS\Colegios\Alcantara-Alicante\Ambos\Montaje Li
bros Alcantara Alicante\CD2\Matematica kinder\imagenes matematica
4,34 MB
12-01-2007 15:00:34

----------------------------------------------------------------------------------------------------------------------------------------------------comida.tif
F:\TRABAJOS\Colegios\Alcantara-Alicante\Ambos\Libros alcantara a
licante\Libros-kinder\kinder-Matematica\imagenes matematica
5,47 MB 15-01-20
07 16:58:24
comida.tif
F:\TRABAJOS\Colegios\Alcantara-Alicante\Ambos\Montaje Libros Alc
antara Alicante\CD2\Matematica kinder\imagenes matematica
5,47 MB 15-01-20
07 16:58:24
----------------------------------------------------------------------------------------------------------------------------------------------------comparalascosas.tif
F:\TRABAJOS\Colegios\Alcantara-Alicante\Ambos\Libros alc
antara alicante\Libros-kinder\kinder-Matematica\imagenes matematica
7,17 MB
16-01-2007 8:22:46
comparalascosas.tif
F:\TRABAJOS\Colegios\Alcantara-Alicante\Ambos\Montaje Li
bros Alcantara Alicante\CD2\Matematica kinder\imagenes matematica
7,17 MB
16-01-2007 8:22:46
----------------------------------------------------------------------------------------------------------------------------------------------------copihues.tif
F:\TRABAJOS\Colegios\Alcantara-Alicante\Ambos\Libros alcantara a
licante\Libros-kinder\kinder-Matematica\imagenes matematica
2,43 MB 17-01-20
07 8:28:04
copihues.tif
F:\TRABAJOS\Colegios\Alcantara-Alicante\Ambos\Montaje Libros Alc
antara Alicante\CD2\Matematica kinder\imagenes matematica
2,43 MB 17-01-20
07 8:28:04
----------------------------------------------------------------------------------------------------------------------------------------------------cosas.tif
F:\TRABAJOS\Colegios\Alcantara-Alicante\Ambos\Libros alcantara a
licante\Libros-kinder\kinder-Matematica\imagenes matematica
5,06 MB 15-01-20
07 12:11:10
cosas.tif
F:\TRABAJOS\Colegios\Alcantara-Alicante\Ambos\Montaje Libros Alc
antara Alicante\CD2\Matematica kinder\imagenes matematica
5,06 MB 15-01-20
07 12:11:10
----------------------------------------------------------------------------------------------------------------------------------------------------cosasdecasa.tif F:\TRABAJOS\Colegios\Alcantara-Alicante\Ambos\Libros alcantara a
licante\Libros-kinder\kinder-Matematica\imagenes matematica
5,00 MB 16-01-20
07 9:26:24
cosasdecasa.tif F:\TRABAJOS\Colegios\Alcantara-Alicante\Ambos\Montaje Libros Alc
antara Alicante\CD2\Matematica kinder\imagenes matematica
5,00 MB 16-01-20
07 9:26:24
----------------------------------------------------------------------------------------------------------------------------------------------------cuncunas.tif
F:\TRABAJOS\Colegios\Alcantara-Alicante\Ambos\Libros alcantara a
licante\Libros-kinder\kinder-Matematica\imagenes matematica
4,03 MB 15-01-20
07 11:25:00
cuncunas.tif
F:\TRABAJOS\Colegios\Alcantara-Alicante\Ambos\Montaje Libros Alc
antara Alicante\CD2\Matematica kinder\imagenes matematica
4,03 MB 15-01-20
07 11:25:00
----------------------------------------------------------------------------------------------------------------------------------------------------desayunar.tif F:\TRABAJOS\Colegios\Alcantara-Alicante\Ambos\Libros alcantara a
licante\Libros-kinder\kinder-Matematica\imagenes matematica
1,15 MB 12-01-20
07 14:50:52
desayunar.tif F:\TRABAJOS\Colegios\Alcantara-Alicante\Ambos\Montaje Libros Alc
antara Alicante\CD2\Matematica kinder\imagenes matematica
1,15 MB 12-01-20
07 14:50:52
----------------------------------------------------------------------------------------------------------------------------------------------------domino.tif
F:\TRABAJOS\Colegios\Alcantara-Alicante\Ambos\Libros alcantara a
licante\Libros-kinder\kinder-Matematica\imagenes matematica
4,70 MB 15-01-20

07 9:06:22
domino.tif
F:\TRABAJOS\Colegios\Alcantara-Alicante\Ambos\Montaje Libros Alc
antara Alicante\CD2\Matematica kinder\imagenes matematica
4,70 MB 15-01-20
07 9:06:22
----------------------------------------------------------------------------------------------------------------------------------------------------dominos.tif
F:\TRABAJOS\Colegios\Alcantara-Alicante\Ambos\Libros alcantara a
licante\Libros-kinder\kinder-Matematica\imagenes matematica
6,13 MB 16-01-20
07 16:27:16
dominos.tif
F:\TRABAJOS\Colegios\Alcantara-Alicante\Ambos\Montaje Libros Alc
antara Alicante\CD2\Matematica kinder\imagenes matematica
6,13 MB 16-01-20
07 16:27:16
----------------------------------------------------------------------------------------------------------------------------------------------------edfc.tif
F:\TRABAJOS\Colegios\Alcantara-Alicante\Ambos\Libros alcantara a
licante\Libros-kinder\kinder-Matematica\imagenes matematica
3,58 MB 15-01-20
07 8:59:34
edfc.tif
F:\TRABAJOS\Colegios\Alcantara-Alicante\Ambos\Montaje Libros Alc
antara Alicante\CD2\Matematica kinder\imagenes matematica
3,58 MB 15-01-20
07 8:59:34
----------------------------------------------------------------------------------------------------------------------------------------------------ege.tif F:\TRABAJOS\Colegios\Alcantara-Alicante\Ambos\Libros alcantara alicante\
Libros-kinder\kinder-Matematica\imagenes matematica
3,58 MB 15-01-2007 9:00:
36
ege.tif F:\TRABAJOS\Colegios\Alcantara-Alicante\Ambos\Montaje Libros Alcantara A
licante\CD2\Matematica kinder\imagenes matematica
3,58 MB 15-01-2007 9:00:
36
----------------------------------------------------------------------------------------------------------------------------------------------------ELEFANTES.tif F:\TRABAJOS\Colegios\Alcantara-Alicante\Ambos\Libros alcantara a
licante\Libros-kinder\kinder-Matematica\imagenes matematica
4,63 MB 16-01-20
07 15:15:26
ELEFANTES.tif F:\TRABAJOS\Colegios\Alcantara-Alicante\Ambos\Montaje Libros Alc
antara Alicante\CD2\Matematica kinder\imagenes matematica
4,63 MB 16-01-20
07 15:15:26
----------------------------------------------------------------------------------------------------------------------------------------------------figarassuma.tif F:\TRABAJOS\Colegios\Alcantara-Alicante\Ambos\Libros alcantara a
licante\Libros-kinder\kinder-Matematica\imagenes matematica
4,80 MB 16-01-20
07 16:33:28
figarassuma.tif F:\TRABAJOS\Colegios\Alcantara-Alicante\Ambos\Montaje Libros Alc
antara Alicante\CD2\Matematica kinder\imagenes matematica
4,80 MB 16-01-20
07 16:33:28
----------------------------------------------------------------------------------------------------------------------------------------------------figuirasgeometricas.tif F:\TRABAJOS\Colegios\Alcantara-Alicante\Ambos\Libros alc
antara alicante\Libros-kinder\kinder-Matematica\imagenes matematica
5,90 MB
16-01-2007 8:38:04
figuirasgeometricas.tif F:\TRABAJOS\Colegios\Alcantara-Alicante\Ambos\Montaje Li
bros Alcantara Alicante\CD2\Matematica kinder\imagenes matematica
5,90 MB
16-01-2007 8:38:04
----------------------------------------------------------------------------------------------------------------------------------------------------frutaas.tif
F:\TRABAJOS\Colegios\Alcantara-Alicante\Ambos\Libros alcantara a
licante\Libros-kinder\kinder-Matematica\imagenes matematica
1,03 MB 15-01-20
07 8:45:22
frutaas.tif
F:\TRABAJOS\Colegios\Alcantara-Alicante\Ambos\Montaje Libros Alc
antara Alicante\CD2\Matematica kinder\imagenes matematica
1,03 MB 15-01-20
07 8:45:22

----------------------------------------------------------------------------------------------------------------------------------------------------gat.tif F:\TRABAJOS\Colegios\Alcantara-Alicante\Ambos\Libros alcantara alicante\


Libros-kinder\kinder-Matematica\imagenes matematica
1,17 MB 15-01-2007 8:28:
44
gat.tif F:\TRABAJOS\Colegios\Alcantara-Alicante\Ambos\Montaje Libros Alcantara A
licante\CD2\Matematica kinder\imagenes matematica
1,17 MB 15-01-2007 8:28:
44
----------------------------------------------------------------------------------------------------------------------------------------------------gatos.tif
F:\TRABAJOS\Colegios\Alcantara-Alicante\Ambos\Libros alcantara a
licante\Libros-kinder\kinder-Matematica\imagenes matematica
3,24 MB 15-01-20
07 10:02:36
gatos.tif
F:\TRABAJOS\Colegios\Alcantara-Alicante\Ambos\Montaje Libros Alc
antara Alicante\CD2\Matematica kinder\imagenes matematica
3,24 MB 15-01-20
07 10:02:36
----------------------------------------------------------------------------------------------------------------------------------------------------globoslibros.tif
F:\TRABAJOS\Colegios\Alcantara-Alicante\Ambos\Libros alc
antara alicante\Libros-kinder\kinder-Matematica\imagenes matematica
4,60 MB
16-01-2007 8:46:58
globoslibros.tif
F:\TRABAJOS\Colegios\Alcantara-Alicante\Ambos\Montaje Li
bros Alcantara Alicante\CD2\Matematica kinder\imagenes matematica
4,60 MB
16-01-2007 8:46:58
----------------------------------------------------------------------------------------------------------------------------------------------------gorromartilloapizesponge.tif F:\TRABAJOS\Colegios\Alcantara-Alicante\Ambos\Li
bros alcantara alicante\Libros-kinder\kinder-Matematica\imagenes matematica
5,25 MB 16-01-2007 9:18:52
gorromartilloapizesponge.tif F:\TRABAJOS\Colegios\Alcantara-Alicante\Ambos\Mo
ntaje Libros Alcantara Alicante\CD2\Matematica kinder\imagenes matematica
5,25 MB 16-01-2007 9:18:52
----------------------------------------------------------------------------------------------------------------------------------------------------granjero.tif
F:\TRABAJOS\Colegios\Alcantara-Alicante\Ambos\Libros alcantara a
licante\Libros-kinder\kinder-Matematica\imagenes matematica
5,95 MB 15-01-20
07 16:47:10
granjero.tif
F:\TRABAJOS\Colegios\Alcantara-Alicante\Ambos\Montaje Libros Alc
antara Alicante\CD2\Matematica kinder\imagenes matematica
5,95 MB 15-01-20
07 16:47:10
----------------------------------------------------------------------------------------------------------------------------------------------------lapices.tif
F:\TRABAJOS\Colegios\Alcantara-Alicante\Ambos\Libros alcantara a
licante\Libros-kinder\kinder-Matematica\imagenes matematica
2,15 MB 17-01-20
07 8:24:32
lapices.tif
F:\TRABAJOS\Colegios\Alcantara-Alicante\Ambos\Montaje Libros Alc
antara Alicante\CD2\Matematica kinder\imagenes matematica
2,15 MB 17-01-20
07 8:24:32
----------------------------------------------------------------------------------------------------------------------------------------------------living.tif
F:\TRABAJOS\Colegios\Alcantara-Alicante\Ambos\Libros alcantara a
licante\Libros-kinder\kinder-Matematica\imagenes matematica
4,75 MB 15-01-20
07 17:23:22
living.tif
F:\TRABAJOS\Colegios\Alcantara-Alicante\Ambos\Montaje Libros Alc
antara Alicante\CD2\Matematica kinder\imagenes matematica
4,75 MB 15-01-20
07 17:23:22
----------------------------------------------------------------------------------------------------------------------------------------------------manos.tif
F:\TRABAJOS\Colegios\Alcantara-Alicante\Ambos\Libros alcantara a
licante\Libros-kinder\kinder-Matematica\imagenes matematica
4,58 MB 12-01-20

07 14:21:30
manos.tif
F:\TRABAJOS\Colegios\Alcantara-Alicante\Ambos\Montaje Libros Alc
antara Alicante\CD2\Matematica kinder\imagenes matematica
4,58 MB 12-01-20
07 14:21:30
----------------------------------------------------------------------------------------------------------------------------------------------------masfroghorsesrabits.tif F:\TRABAJOS\Colegios\Alcantara-Alicante\Ambos\Libros alc
antara alicante\Libros-kinder\kinder-Matematica\imagenes matematica
7,03 MB
16-01-2007 16:46:48
masfroghorsesrabits.tif F:\TRABAJOS\Colegios\Alcantara-Alicante\Ambos\Montaje Li
bros Alcantara Alicante\CD2\Matematica kinder\imagenes matematica
7,03 MB
16-01-2007 16:46:48
----------------------------------------------------------------------------------------------------------------------------------------------------ninacamino.tif F:\TRABAJOS\Colegios\Alcantara-Alicante\Ambos\Libros alcantara a
licante\Libros-kinder\kinder-Matematica\imagenes matematica
4,64 MB 15-01-20
07 11:02:00
ninacamino.tif F:\TRABAJOS\Colegios\Alcantara-Alicante\Ambos\Montaje Libros Alc
antara Alicante\CD2\Matematica kinder\imagenes matematica
4,64 MB 15-01-20
07 11:02:00
----------------------------------------------------------------------------------------------------------------------------------------------------ninos.tif
F:\TRABAJOS\Colegios\Alcantara-Alicante\Ambos\Libros alcantara a
licante\Libros-kinder\kinder-Matematica\imagenes matematica
4,93 MB 12-01-20
07 15:13:42
ninos.tif
F:\TRABAJOS\Colegios\Alcantara-Alicante\Ambos\Montaje Libros Alc
antara Alicante\CD2\Matematica kinder\imagenes matematica
4,93 MB 12-01-20
07 15:13:42
----------------------------------------------------------------------------------------------------------------------------------------------------ninosbandera.tif
F:\TRABAJOS\Colegios\Alcantara-Alicante\Ambos\Libros alc
antara alicante\Libros-kinder\kinder-Matematica\imagenes matematica
5,53 MB
16-01-2007 15:20:56
ninosbandera.tif
F:\TRABAJOS\Colegios\Alcantara-Alicante\Ambos\Montaje Li
bros Alcantara Alicante\CD2\Matematica kinder\imagenes matematica
5,53 MB
16-01-2007 15:20:56
----------------------------------------------------------------------------------------------------------------------------------------------------nubes.tif
F:\TRABAJOS\Colegios\Alcantara-Alicante\Ambos\Libros alcantara a
licante\Libros-kinder\kinder-Matematica\imagenes matematica
4,90 MB 15-01-20
07 16:14:12
nubes.tif
F:\TRABAJOS\Colegios\Alcantara-Alicante\Ambos\Montaje Libros Alc
antara Alicante\CD2\Matematica kinder\imagenes matematica
4,90 MB 15-01-20
07 16:14:12
----------------------------------------------------------------------------------------------------------------------------------------------------osos.tif
F:\TRABAJOS\Colegios\Alcantara-Alicante\Ambos\Libros alcantara a
licante\Libros-kinder\kinder-Matematica\imagenes matematica
5,98 MB 15-01-20
07 14:07:46
osos.tif
F:\TRABAJOS\Colegios\Alcantara-Alicante\Ambos\Montaje Libros Alc
antara Alicante\CD2\Matematica kinder\imagenes matematica
5,98 MB 15-01-20
07 14:07:46
----------------------------------------------------------------------------------------------------------------------------------------------------ososblancos.tif F:\TRABAJOS\Colegios\Alcantara-Alicante\Ambos\Libros alcantara a
licante\Libros-kinder\kinder-Matematica\imagenes matematica
5,44 MB 16-01-20
07 16:03:10
ososblancos.tif F:\TRABAJOS\Colegios\Alcantara-Alicante\Ambos\Montaje Libros Alc
antara Alicante\CD2\Matematica kinder\imagenes matematica
5,44 MB 16-01-20
07 16:03:10

----------------------------------------------------------------------------------------------------------------------------------------------------parque.tif
F:\TRABAJOS\Colegios\Alcantara-Alicante\Ambos\Libros alcantara a
licante\Libros-kinder\kinder-Matematica\imagenes matematica
5,33 MB 12-01-20
07 14:25:40
parque.tif
F:\TRABAJOS\Colegios\Alcantara-Alicante\Ambos\Montaje Libros Alc
antara Alicante\CD2\Matematica kinder\imagenes matematica
5,33 MB 12-01-20
07 14:25:40
----------------------------------------------------------------------------------------------------------------------------------------------------patos.tif
F:\TRABAJOS\Colegios\Alcantara-Alicante\Ambos\Libros alcantara a
licante\Libros-kinder\kinder-Matematica\imagenes matematica
5,33 MB 16-01-20
07 15:49:46
patos.tif
F:\TRABAJOS\Colegios\Alcantara-Alicante\Ambos\Montaje Libros Alc
antara Alicante\CD2\Matematica kinder\imagenes matematica
5,33 MB 16-01-20
07 15:49:46
----------------------------------------------------------------------------------------------------------------------------------------------------pauelos.tif
F:\TRABAJOS\Colegios\Alcantara-Alicante\Ambos\Libros alcantara a
licante\Libros-kinder\kinder-Matematica\imagenes matematica
5,05 MB 16-01-20
07 9:32:46
pauelos.tif
F:\TRABAJOS\Colegios\Alcantara-Alicante\Ambos\Montaje Libros Alc
antara Alicante\CD2\Matematica kinder\imagenes matematica
5,05 MB 16-01-20
07 9:32:46
----------------------------------------------------------------------------------------------------------------------------------------------------pecesras.tif
F:\TRABAJOS\Colegios\Alcantara-Alicante\Ambos\Libros alcantara a
licante\Libros-kinder\kinder-Matematica\imagenes matematica
1,17 MB 16-01-20
07 16:14:38
pecesras.tif
F:\TRABAJOS\Colegios\Alcantara-Alicante\Ambos\Montaje Libros Alc
antara Alicante\CD2\Matematica kinder\imagenes matematica
1,17 MB 16-01-20
07 16:14:38
----------------------------------------------------------------------------------------------------------------------------------------------------pescaos.tif
F:\TRABAJOS\Colegios\Alcantara-Alicante\Ambos\Libros alcantara a
licante\Libros-kinder\kinder-Matematica\imagenes matematica
4,99 MB 15-01-20
07 16:25:34
pescaos.tif
F:\TRABAJOS\Colegios\Alcantara-Alicante\Ambos\Montaje Libros Alc
antara Alicante\CD2\Matematica kinder\imagenes matematica
4,99 MB 15-01-20
07 16:25:34
----------------------------------------------------------------------------------------------------------------------------------------------------pizzas.tif
F:\TRABAJOS\Colegios\Alcantara-Alicante\Ambos\Libros alcantara a
licante\Libros-kinder\kinder-Matematica\imagenes matematica
5,54 MB 15-01-20
07 17:03:28
pizzas.tif
F:\TRABAJOS\Colegios\Alcantara-Alicante\Ambos\Montaje Libros Alc
antara Alicante\CD2\Matematica kinder\imagenes matematica
5,54 MB 15-01-20
07 17:03:28
----------------------------------------------------------------------------------------------------------------------------------------------------primercubo.tif F:\TRABAJOS\Colegios\Alcantara-Alicante\Ambos\Libros alcantara a
licante\Libros-kinder\kinder-Matematica\imagenes matematica
1,16 MB 12-01-20
07 15:22:00
primercubo.tif F:\TRABAJOS\Colegios\Alcantara-Alicante\Ambos\Montaje Libros Alc
antara Alicante\CD2\Matematica kinder\imagenes matematica
1,16 MB 12-01-20
07 15:22:00
----------------------------------------------------------------------------------------------------------------------------------------------------puedeslevantar.tif
F:\TRABAJOS\Colegios\Alcantara-Alicante\Ambos\Libros alc
antara alicante\Libros-kinder\kinder-Matematica\imagenes matematica
5,06 MB

15-01-2007 11:33:24
puedeslevantar.tif
F:\TRABAJOS\Colegios\Alcantara-Alicante\Ambos\Montaje Li
bros Alcantara Alicante\CD2\Matematica kinder\imagenes matematica
5,06 MB
15-01-2007 11:33:24
----------------------------------------------------------------------------------------------------------------------------------------------------rabitsgroghorses.tif
F:\TRABAJOS\Colegios\Alcantara-Alicante\Ambos\Libros alc
antara alicante\Libros-kinder\kinder-Matematica\imagenes matematica
7,68 MB
16-01-2007 16:50:54
rabitsgroghorses.tif
F:\TRABAJOS\Colegios\Alcantara-Alicante\Ambos\Montaje Li
bros Alcantara Alicante\CD2\Matematica kinder\imagenes matematica
7,68 MB
16-01-2007 16:50:54
----------------------------------------------------------------------------------------------------------------------------------------------------recorteninos.tif
F:\TRABAJOS\Colegios\Alcantara-Alicante\Ambos\Libros alc
antara alicante\Libros-kinder\kinder-Matematica\imagenes matematica
2,55 MB
16-01-2007 15:28:28
recorteninos.tif
F:\TRABAJOS\Colegios\Alcantara-Alicante\Ambos\Montaje Li
bros Alcantara Alicante\CD2\Matematica kinder\imagenes matematica
2,55 MB
16-01-2007 15:28:28
----------------------------------------------------------------------------------------------------------------------------------------------------recortesuno.tif F:\TRABAJOS\Colegios\Alcantara-Alicante\Ambos\Libros alcantara a
licante\Libros-kinder\kinder-Matematica\imagenes matematica
15,1 MB 16-01-20
07 17:16:02
recortesuno.tif F:\TRABAJOS\Colegios\Alcantara-Alicante\Ambos\Montaje Libros Alc
antara Alicante\CD2\Matematica kinder\imagenes matematica
15,1 MB 16-01-20
07 17:16:02
----------------------------------------------------------------------------------------------------------------------------------------------------roapcolgada.tif F:\TRABAJOS\Colegios\Alcantara-Alicante\Ambos\Libros alcantara a
licante\Libros-kinder\kinder-Matematica\imagenes matematica
4,92 MB 15-01-20
07 10:38:42
roapcolgada.tif F:\TRABAJOS\Colegios\Alcantara-Alicante\Ambos\Montaje Libros Alc
antara Alicante\CD2\Matematica kinder\imagenes matematica
4,92 MB 15-01-20
07 10:38:42
----------------------------------------------------------------------------------------------------------------------------------------------------seales.tif
F:\TRABAJOS\Colegios\Alcantara-Alicante\Ambos\Libros alcantara a
licante\Libros-kinder\kinder-Matematica\imagenes matematica
1,43 MB 15-01-20
07 9:36:48
seales.tif
F:\TRABAJOS\Colegios\Alcantara-Alicante\Ambos\Montaje Libros Alc
antara Alicante\CD2\Matematica kinder\imagenes matematica
1,43 MB 15-01-20
07 9:36:48
----------------------------------------------------------------------------------------------------------------------------------------------------temadejardin.tif
F:\TRABAJOS\Colegios\Alcantara-Alicante\Ambos\Libros alc
antara alicante\Libros-kinder\kinder-Matematica\imagenes matematica
6,87 MB
16-01-2007 17:08:46
temadejardin.tif
F:\TRABAJOS\Colegios\Alcantara-Alicante\Ambos\Montaje Li
bros Alcantara Alicante\CD2\Matematica kinder\imagenes matematica
6,87 MB
16-01-2007 17:08:46
----------------------------------------------------------------------------------------------------------------------------------------------------tias.tif
F:\TRABAJOS\Colegios\Alcantara-Alicante\Ambos\Libros alcantara a
licante\Libros-kinder\kinder-Matematica\imagenes matematica
4,19 MB 15-01-20
07 14:16:30
tias.tif
F:\TRABAJOS\Colegios\Alcantara-Alicante\Ambos\Montaje Libros Alc
antara Alicante\CD2\Matematica kinder\imagenes matematica
4,19 MB 15-01-20
07 14:16:30

----------------------------------------------------------------------------------------------------------------------------------------------------tias2.tif
F:\TRABAJOS\Colegios\Alcantara-Alicante\Ambos\Libros alcantara a
licante\Libros-kinder\kinder-Matematica\imagenes matematica
2,34 MB 15-01-20
07 15:50:26
tias2.tif
F:\TRABAJOS\Colegios\Alcantara-Alicante\Ambos\Montaje Libros Alc
antara Alicante\CD2\Matematica kinder\imagenes matematica
2,34 MB 15-01-20
07 15:50:26
----------------------------------------------------------------------------------------------------------------------------------------------------trenesconcha.tif
F:\TRABAJOS\Colegios\Alcantara-Alicante\Ambos\Libros alc
antara alicante\Libros-kinder\kinder-Matematica\imagenes matematica
4,04 MB
16-01-2007 9:22:58
trenesconcha.tif
F:\TRABAJOS\Colegios\Alcantara-Alicante\Ambos\Montaje Li
bros Alcantara Alicante\CD2\Matematica kinder\imagenes matematica
4,04 MB
16-01-2007 9:22:58
----------------------------------------------------------------------------------------------------------------------------------------------------vasos.tif
F:\TRABAJOS\Colegios\Alcantara-Alicante\Ambos\Libros alcantara a
licante\Libros-kinder\kinder-Matematica\imagenes matematica
4,57 MB 15-01-20
07 12:37:58
vasos.tif
F:\TRABAJOS\Colegios\Alcantara-Alicante\Ambos\Montaje Libros Alc
antara Alicante\CD2\Matematica kinder\imagenes matematica
4,57 MB 15-01-20
07 12:37:58
----------------------------------------------------------------------------------------------------------------------------------------------------velaato.tif
F:\TRABAJOS\Colegios\Alcantara-Alicante\Ambos\Libros alcantara a
licante\Libros-kinder\kinder-Matematica\imagenes matematica
3,13 MB 15-01-20
07 10:49:34
velaato.tif
F:\TRABAJOS\Colegios\Alcantara-Alicante\Ambos\Montaje Libros Alc
antara Alicante\CD2\Matematica kinder\imagenes matematica
3,13 MB 15-01-20
07 10:49:34
----------------------------------------------------------------------------------------------------------------------------------------------------volantines.tif F:\TRABAJOS\Colegios\Alcantara-Alicante\Ambos\Libros alcantara a
licante\Libros-kinder\kinder-Matematica\imagenes matematica
4,98 MB 12-01-20
07 15:35:58
volantines.tif F:\TRABAJOS\Colegios\Alcantara-Alicante\Ambos\Montaje Libros Alc
antara Alicante\CD2\Matematica kinder\imagenes matematica
4,98 MB 12-01-20
07 15:35:58
----------------------------------------------------------------------------------------------------------------------------------------------------pollocondoro.tif
F:\TRABAJOS\Colegios\Alcantara-Alicante\Ambos\Libros alc
antara alicante\Libros-PreKinder\PreKinder-Habilidades pal lenguaje oral escrito
\fotoslibros
4,63 MB 08-01-2007 16:18:32
pollocondoro.tif
F:\TRABAJOS\Colegios\Alcantara-Alicante\Ambos\Montaje Li
bros Alcantara Alicante\PreKinder\PreKinder-Habilidades pal lenguaje oral escrit
o\fotoslibros 4,63 MB 08-01-2007 16:18:32
----------------------------------------------------------------------------------------------------------------------------------------------------recortes.tif
F:\TRABAJOS\Colegios\Alcantara-Alicante\Ambos\Libros alcantara a
licante\Libros-PreKinder\PreKinder-Habilidades pal lenguaje oral escrito\fotosli
bros
5,54 MB 04-01-2007 15:35:14
recortes.tif
F:\TRABAJOS\Colegios\Alcantara-Alicante\Ambos\Montaje Libros Alc
antara Alicante\PreKinder\PreKinder-Habilidades pal lenguaje oral escrito\fotosl
ibros 5,54 MB 04-01-2007 15:35:14
----------------------------------------------------------------------------------------------------------------------------------------------------recorts.tif
F:\TRABAJOS\Colegios\Alcantara-Alicante\Ambos\Libros alcantara a
licante\Libros-PreKinder\PreKinder-Habilidades pal lenguaje oral escrito\fotosli

bros
5,18 MB 04-01-2007 15:28:52
recorts.tif
F:\TRABAJOS\Colegios\Alcantara-Alicante\Ambos\Montaje Libros Alc
antara Alicante\PreKinder\PreKinder-Habilidades pal lenguaje oral escrito\fotosl
ibros 5,18 MB 04-01-2007 15:28:52
----------------------------------------------------------------------------------------------------------------------------------------------------animales.tif
F:\TRABAJOS\Colegios\Alcantara-Alicante\Ambos\Libros alcantara a
licante\Libros-PreKinder\PreKinder-matematicas\imagenes matematicas
6,31 MB
09-01-2007 11:15:56
animales.tif
F:\TRABAJOS\Colegios\Alcantara-Alicante\Ambos\Montaje Libros Alc
antara Alicante\CD1\imagenes matematicas
6,31 MB 09-01-2007 11:15:56
----------------------------------------------------------------------------------------------------------------------------------------------------animales2.tif F:\TRABAJOS\Colegios\Alcantara-Alicante\Ambos\Libros alcantara a
licante\Libros-PreKinder\PreKinder-matematicas\imagenes matematicas
2,50 MB
09-01-2007 13:23:04
animales2.tif F:\TRABAJOS\Colegios\Alcantara-Alicante\Ambos\Montaje Libros Alc
antara Alicante\CD1\imagenes matematicas
2,50 MB 09-01-2007 13:23:04
----------------------------------------------------------------------------------------------------------------------------------------------------animalesnumeros.tif
F:\TRABAJOS\Colegios\Alcantara-Alicante\Ambos\Libros alc
antara alicante\Libros-PreKinder\PreKinder-matematicas\imagenes matematicas
14,4 MB 11-01-2007 10:47:04
animalesnumeros.tif
F:\TRABAJOS\Colegios\Alcantara-Alicante\Ambos\Montaje Li
bros Alcantara Alicante\CD1\imagenes matematicas
14,4 MB 11-01-2007 10:47
:04
----------------------------------------------------------------------------------------------------------------------------------------------------animalespecesperroetc.tif
F:\TRABAJOS\Colegios\Alcantara-Alicante\Ambos\Li
bros alcantara alicante\Libros-PreKinder\PreKinder-matematicas\imagenes matemat
icas
15,5 MB 11-01-2007 8:43:06
animalespecesperroetc.tif
F:\TRABAJOS\Colegios\Alcantara-Alicante\Ambos\Mo
ntaje Libros Alcantara Alicante\CD1\imagenes matematicas
15,5 MB 11-01-20
07 8:43:06
----------------------------------------------------------------------------------------------------------------------------------------------------animalesplato.tif
F:\TRABAJOS\Colegios\Alcantara-Alicante\Ambos\Libros alc
antara alicante\Libros-PreKinder\PreKinder-matematicas\imagenes matematicas
5,29 MB 11-01-2007 17:27:14
animalesplato.tif
F:\TRABAJOS\Colegios\Alcantara-Alicante\Ambos\Montaje Li
bros Alcantara Alicante\CD1\imagenes matematicas
5,29 MB 11-01-2007 17:27
:14
----------------------------------------------------------------------------------------------------------------------------------------------------animalesvarios.tif
F:\TRABAJOS\Colegios\Alcantara-Alicante\Ambos\Libros alc
antara alicante\Libros-PreKinder\PreKinder-matematicas\imagenes matematicas
2,11 MB 09-01-2007 14:07:22
animalesvarios.tif
F:\TRABAJOS\Colegios\Alcantara-Alicante\Ambos\Montaje Li
bros Alcantara Alicante\CD1\imagenes matematicas
2,11 MB 09-01-2007 14:07
:22
----------------------------------------------------------------------------------------------------------------------------------------------------arbolhabitado.tif
F:\TRABAJOS\Colegios\Alcantara-Alicante\Ambos\Libros alc
antara alicante\Libros-PreKinder\PreKinder-matematicas\imagenes matematicas
5,47 MB 11-01-2007 16:31:38
arbolhabitado.tif
F:\TRABAJOS\Colegios\Alcantara-Alicante\Ambos\Montaje Li
bros Alcantara Alicante\CD1\imagenes matematicas
5,47 MB 11-01-2007 16:31
:38
-----------------------------------------------------------------------------------------------------------------------------------------------------

autos.tif
F:\TRABAJOS\Colegios\Alcantara-Alicante\Ambos\Libros alcantara a
licante\Libros-PreKinder\PreKinder-matematicas\imagenes matematicas
2,42 MB
11-01-2007 17:18:12
autos.tif
F:\TRABAJOS\Colegios\Alcantara-Alicante\Ambos\Montaje Libros Alc
antara Alicante\CD1\imagenes matematicas
2,42 MB 11-01-2007 17:18:12
----------------------------------------------------------------------------------------------------------------------------------------------------botes.tif
F:\TRABAJOS\Colegios\Alcantara-Alicante\Ambos\Libros alcantara a
licante\Libros-PreKinder\PreKinder-matematicas\imagenes matematicas
4,29 MB
11-01-2007 17:12:20
botes.tif
F:\TRABAJOS\Colegios\Alcantara-Alicante\Ambos\Montaje Libros Alc
antara Alicante\CD1\imagenes matematicas
4,29 MB 11-01-2007 17:12:20
----------------------------------------------------------------------------------------------------------------------------------------------------canastas.tif
F:\TRABAJOS\Colegios\Alcantara-Alicante\Ambos\Libros alcantara a
licante\Libros-PreKinder\PreKinder-matematicas\imagenes matematicas
5,25 MB
11-01-2007 10:26:02
canastas.tif
F:\TRABAJOS\Colegios\Alcantara-Alicante\Ambos\Montaje Libros Alc
antara Alicante\CD1\imagenes matematicas
5,25 MB 11-01-2007 10:26:02
----------------------------------------------------------------------------------------------------------------------------------------------------cangrejo.tif
F:\TRABAJOS\Colegios\Alcantara-Alicante\Ambos\Libros alcantara a
licante\Libros-PreKinder\PreKinder-matematicas\imagenes matematicas
2,64 MB
11-01-2007 16:01:34
cangrejo.tif
F:\TRABAJOS\Colegios\Alcantara-Alicante\Ambos\Montaje Libros Alc
antara Alicante\CD1\imagenes matematicas
2,64 MB 11-01-2007 16:01:34
----------------------------------------------------------------------------------------------------------------------------------------------------CATDOG.tif
F:\TRABAJOS\Colegios\Alcantara-Alicante\Ambos\Libros alcantara a
licante\Libros-PreKinder\PreKinder-matematicas\imagenes matematicas
2,16 MB
08-01-2007 15:05:10
CATDOG.tif
F:\TRABAJOS\Colegios\Alcantara-Alicante\Ambos\Montaje Libros Alc
antara Alicante\CD1\imagenes matematicas
2,16 MB 08-01-2007 15:05:10
----------------------------------------------------------------------------------------------------------------------------------------------------chanchoperrogato.tif
F:\TRABAJOS\Colegios\Alcantara-Alicante\Ambos\Libros alc
antara alicante\Libros-PreKinder\PreKinder-matematicas\imagenes matematicas
4,69 MB 11-01-2007 17:36:22
chanchoperrogato.tif
F:\TRABAJOS\Colegios\Alcantara-Alicante\Ambos\Montaje Li
bros Alcantara Alicante\CD1\imagenes matematicas
4,69 MB 11-01-2007 17:36
:22
----------------------------------------------------------------------------------------------------------------------------------------------------comida.tif
F:\TRABAJOS\Colegios\Alcantara-Alicante\Ambos\Libros alcantara a
licante\Libros-PreKinder\PreKinder-matematicas\imagenes matematicas
4,77 MB
11-01-2007 9:44:46
comida.tif
F:\TRABAJOS\Colegios\Alcantara-Alicante\Ambos\Montaje Libros Alc
antara Alicante\CD1\imagenes matematicas
4,77 MB 11-01-2007 9:44:46
----------------------------------------------------------------------------------------------------------------------------------------------------conchas.tif
F:\TRABAJOS\Colegios\Alcantara-Alicante\Ambos\Libros alcantara a
licante\Libros-PreKinder\PreKinder-matematicas\imagenes matematicas
2,10 MB
11-01-2007 13:14:16
conchas.tif
F:\TRABAJOS\Colegios\Alcantara-Alicante\Ambos\Montaje Libros Alc
antara Alicante\CD1\imagenes matematicas
2,10 MB 11-01-2007 13:14:16
----------------------------------------------------------------------------------------------------------------------------------------------------condores.tif
F:\TRABAJOS\Colegios\Alcantara-Alicante\Ambos\Libros alcantara a
licante\Libros-PreKinder\PreKinder-matematicas\imagenes matematicas
1,15 MB
12-01-2007 10:14:18

condores.tif
F:\TRABAJOS\Colegios\Alcantara-Alicante\Ambos\Montaje Libros Alc
antara Alicante\CD1\imagenes matematicas
1,15 MB 12-01-2007 10:14:18
----------------------------------------------------------------------------------------------------------------------------------------------------cosasyjuguetes.tif
F:\TRABAJOS\Colegios\Alcantara-Alicante\Ambos\Libros alc
antara alicante\Libros-PreKinder\PreKinder-matematicas\imagenes matematicas
12,0 MB 10-01-2007 9:48:42
cosasyjuguetes.tif
F:\TRABAJOS\Colegios\Alcantara-Alicante\Ambos\Montaje Li
bros Alcantara Alicante\CD1\imagenes matematicas
12,0 MB 10-01-2007 9:48:
42
----------------------------------------------------------------------------------------------------------------------------------------------------cubosconcosas.tif
F:\TRABAJOS\Colegios\Alcantara-Alicante\Ambos\Libros alc
antara alicante\Libros-PreKinder\PreKinder-matematicas\imagenes matematicas
14,7 MB 11-01-2007 9:00:44
cubosconcosas.tif
F:\TRABAJOS\Colegios\Alcantara-Alicante\Ambos\Montaje Li
bros Alcantara Alicante\CD1\imagenes matematicas
14,7 MB 11-01-2007 9:00:
44
----------------------------------------------------------------------------------------------------------------------------------------------------dinosaurio.tif F:\TRABAJOS\Colegios\Alcantara-Alicante\Ambos\Libros alcantara a
licante\Libros-PreKinder\PreKinder-matematicas\imagenes matematicas
1,06 MB
12-01-2007 10:17:22
dinosaurio.tif F:\TRABAJOS\Colegios\Alcantara-Alicante\Ambos\Montaje Libros Alc
antara Alicante\CD1\imagenes matematicas
1,06 MB 12-01-2007 10:17:22
----------------------------------------------------------------------------------------------------------------------------------------------------elefanteleonymas.tif
F:\TRABAJOS\Colegios\Alcantara-Alicante\Ambos\Libros alc
antara alicante\Libros-PreKinder\PreKinder-matematicas\imagenes matematicas
4,89 MB 10-01-2007 9:36:22
elefanteleonymas.tif
F:\TRABAJOS\Colegios\Alcantara-Alicante\Ambos\Montaje Li
bros Alcantara Alicante\CD1\imagenes matematicas
4,89 MB 10-01-2007 9:36:
22
----------------------------------------------------------------------------------------------------------------------------------------------------equipodeporte.tif
F:\TRABAJOS\Colegios\Alcantara-Alicante\Ambos\Libros alc
antara alicante\Libros-PreKinder\PreKinder-matematicas\imagenes matematicas
4,21 MB 11-01-2007 17:44:10
equipodeporte.tif
F:\TRABAJOS\Colegios\Alcantara-Alicante\Ambos\Montaje Li
bros Alcantara Alicante\CD1\imagenes matematicas
4,21 MB 11-01-2007 17:44
:10
----------------------------------------------------------------------------------------------------------------------------------------------------escena.tif
F:\TRABAJOS\Colegios\Alcantara-Alicante\Ambos\Libros alcantara a
licante\Libros-PreKinder\PreKinder-matematicas\imagenes matematicas
6,25 MB
08-01-2007 12:41:32
escena.tif
F:\TRABAJOS\Colegios\Alcantara-Alicante\Ambos\Montaje Libros Alc
antara Alicante\CD1\imagenes matematicas
6,25 MB 08-01-2007 12:41:32
----------------------------------------------------------------------------------------------------------------------------------------------------esferacilindrocono.tif F:\TRABAJOS\Colegios\Alcantara-Alicante\Ambos\Libros alc
antara alicante\Libros-PreKinder\PreKinder-matematicas\imagenes matematicas
4,34 MB 11-01-2007 10:01:58
esferacilindrocono.tif F:\TRABAJOS\Colegios\Alcantara-Alicante\Ambos\Montaje Li
bros Alcantara Alicante\CD1\imagenes matematicas
4,34 MB 11-01-2007 10:01
:58
----------------------------------------------------------------------------------------------------------------------------------------------------estanque.tif
F:\TRABAJOS\Colegios\Alcantara-Alicante\Ambos\Libros alcantara a
licante\Libros-PreKinder\PreKinder-matematicas\imagenes matematicas
5,40 MB

11-01-2007 15:54:16
estanque.tif
F:\TRABAJOS\Colegios\Alcantara-Alicante\Ambos\Montaje Libros Alc
antara Alicante\CD1\imagenes matematicas
5,40 MB 11-01-2007 15:54:16
----------------------------------------------------------------------------------------------------------------------------------------------------frutas.tif
F:\TRABAJOS\Colegios\Alcantara-Alicante\Ambos\Libros alcantara a
licante\Libros-PreKinder\PreKinder-matematicas\imagenes matematicas
5,75 MB
08-01-2007 12:01:24
frutas.tif
F:\TRABAJOS\Colegios\Alcantara-Alicante\Ambos\Montaje Libros Alc
antara Alicante\CD1\imagenes matematicas
5,75 MB 08-01-2007 12:01:24
----------------------------------------------------------------------------------------------------------------------------------------------------frutas2.tif
F:\TRABAJOS\Colegios\Alcantara-Alicante\Ambos\Libros alcantara a
licante\Libros-PreKinder\PreKinder-matematicas\imagenes matematicas
3,16 MB
11-01-2007 11:37:46
frutas2.tif
F:\TRABAJOS\Colegios\Alcantara-Alicante\Ambos\Montaje Libros Alc
antara Alicante\CD1\imagenes matematicas
3,16 MB 11-01-2007 11:37:46
----------------------------------------------------------------------------------------------------------------------------------------------------gente.tif
F:\TRABAJOS\Colegios\Alcantara-Alicante\Ambos\Libros alcantara a
licante\Libros-PreKinder\PreKinder-matematicas\imagenes matematicas
6,94 MB
08-01-2007 11:30:10
gente.tif
F:\TRABAJOS\Colegios\Alcantara-Alicante\Ambos\Montaje Libros Alc
antara Alicante\CD1\imagenes matematicas
6,94 MB 08-01-2007 11:30:10
----------------------------------------------------------------------------------------------------------------------------------------------------gimnasia.tif
F:\TRABAJOS\Colegios\Alcantara-Alicante\Ambos\Libros alcantara a
licante\Libros-PreKinder\PreKinder-matematicas\imagenes matematicas
4,42 MB
08-01-2007 14:44:12
gimnasia.tif
F:\TRABAJOS\Colegios\Alcantara-Alicante\Ambos\Montaje Libros Alc
antara Alicante\CD1\imagenes matematicas
4,42 MB 08-01-2007 14:44:12
----------------------------------------------------------------------------------------------------------------------------------------------------globos.tif
F:\TRABAJOS\Colegios\Alcantara-Alicante\Ambos\Libros alcantara a
licante\Libros-PreKinder\PreKinder-matematicas\imagenes matematicas
5,27 MB
11-01-2007 11:18:56
globos.tif
F:\TRABAJOS\Colegios\Alcantara-Alicante\Ambos\Montaje Libros Alc
antara Alicante\CD1\imagenes matematicas
5,27 MB 11-01-2007 11:18:56
----------------------------------------------------------------------------------------------------------------------------------------------------glotonapiscina.tif
F:\TRABAJOS\Colegios\Alcantara-Alicante\Ambos\Libros alc
antara alicante\Libros-PreKinder\PreKinder-matematicas\imagenes matematicas
6,95 MB 08-01-2007 12:33:56
glotonapiscina.tif
F:\TRABAJOS\Colegios\Alcantara-Alicante\Ambos\Montaje Li
bros Alcantara Alicante\CD1\imagenes matematicas
6,95 MB 08-01-2007 12:33
:56
----------------------------------------------------------------------------------------------------------------------------------------------------gnomo.tif
F:\TRABAJOS\Colegios\Alcantara-Alicante\Ambos\Libros alcantara a
licante\Libros-PreKinder\PreKinder-matematicas\imagenes matematicas
1,96 MB
10-01-2007 8:56:52
gnomo.tif
F:\TRABAJOS\Colegios\Alcantara-Alicante\Ambos\Montaje Libros Alc
antara Alicante\CD1\imagenes matematicas
1,96 MB 10-01-2007 8:56:52
----------------------------------------------------------------------------------------------------------------------------------------------------herraminetas.tif
F:\TRABAJOS\Colegios\Alcantara-Alicante\Ambos\Libros alc
antara alicante\Libros-PreKinder\PreKinder-matematicas\imagenes matematicas
5,31 MB 11-01-2007 17:30:44
herraminetas.tif
F:\TRABAJOS\Colegios\Alcantara-Alicante\Ambos\Montaje Li
bros Alcantara Alicante\CD1\imagenes matematicas
5,31 MB 11-01-2007 17:30

:44
----------------------------------------------------------------------------------------------------------------------------------------------------hojas.tif
F:\TRABAJOS\Colegios\Alcantara-Alicante\Ambos\Libros alcantara a
licante\Libros-PreKinder\PreKinder-matematicas\imagenes matematicas
2,65 MB
11-01-2007 16:59:12
hojas.tif
F:\TRABAJOS\Colegios\Alcantara-Alicante\Ambos\Montaje Libros Alc
antara Alicante\CD1\imagenes matematicas
2,65 MB 11-01-2007 16:59:12
----------------------------------------------------------------------------------------------------------------------------------------------------identificar.tif F:\TRABAJOS\Colegios\Alcantara-Alicante\Ambos\Libros alcantara a
licante\Libros-PreKinder\PreKinder-matematicas\imagenes matematicas
5,26 MB
11-01-2007 11:23:26
identificar.tif F:\TRABAJOS\Colegios\Alcantara-Alicante\Ambos\Montaje Libros Alc
antara Alicante\CD1\imagenes matematicas
5,26 MB 11-01-2007 11:23:26
----------------------------------------------------------------------------------------------------------------------------------------------------juguetes.tif
F:\TRABAJOS\Colegios\Alcantara-Alicante\Ambos\Libros alcantara a
licante\Libros-PreKinder\PreKinder-matematicas\imagenes matematicas
5,97 MB
09-01-2007 9:58:02
juguetes.tif
F:\TRABAJOS\Colegios\Alcantara-Alicante\Ambos\Montaje Libros Alc
antara Alicante\CD1\imagenes matematicas
5,97 MB 09-01-2007 9:58:02
----------------------------------------------------------------------------------------------------------------------------------------------------lapicesbrochaetc.tif
F:\TRABAJOS\Colegios\Alcantara-Alicante\Ambos\Libros alc
antara alicante\Libros-PreKinder\PreKinder-matematicas\imagenes matematicas
6,53 MB 08-01-2007 14:40:16
lapicesbrochaetc.tif
F:\TRABAJOS\Colegios\Alcantara-Alicante\Ambos\Montaje Li
bros Alcantara Alicante\CD1\imagenes matematicas
6,53 MB 08-01-2007 14:40
:16
----------------------------------------------------------------------------------------------------------------------------------------------------leonelfenteosohipo.tif F:\TRABAJOS\Colegios\Alcantara-Alicante\Ambos\Libros alc
antara alicante\Libros-PreKinder\PreKinder-matematicas\imagenes matematicas
1,23 MB 12-01-2007 9:34:50
leonelfenteosohipo.tif F:\TRABAJOS\Colegios\Alcantara-Alicante\Ambos\Montaje Li
bros Alcantara Alicante\CD1\imagenes matematicas
1,23 MB 12-01-2007 9:34:
50
----------------------------------------------------------------------------------------------------------------------------------------------------llaveslechejugo.tif
F:\TRABAJOS\Colegios\Alcantara-Alicante\Ambos\Libros alc
antara alicante\Libros-PreKinder\PreKinder-matematicas\imagenes matematicas
4,34 MB 11-01-2007 8:48:20
llaveslechejugo.tif
F:\TRABAJOS\Colegios\Alcantara-Alicante\Ambos\Montaje Li
bros Alcantara Alicante\CD1\imagenes matematicas
4,34 MB 11-01-2007 8:48:
20
----------------------------------------------------------------------------------------------------------------------------------------------------loros.tif
F:\TRABAJOS\Colegios\Alcantara-Alicante\Ambos\Libros alcantara a
licante\Libros-PreKinder\PreKinder-matematicas\imagenes matematicas
16,8 MB
11-01-2007 13:57:46
loros.tif
F:\TRABAJOS\Colegios\Alcantara-Alicante\Ambos\Montaje Libros Alc
antara Alicante\CD1\imagenes matematicas
16,8 MB 11-01-2007 13:57:46
----------------------------------------------------------------------------------------------------------------------------------------------------loza.tif
F:\TRABAJOS\Colegios\Alcantara-Alicante\Ambos\Libros alcantara a
licante\Libros-PreKinder\PreKinder-matematicas\imagenes matematicas
5,45 MB
09-01-2007 11:28:02
loza.tif
F:\TRABAJOS\Colegios\Alcantara-Alicante\Ambos\Montaje Libros Alc
antara Alicante\CD1\imagenes matematicas
5,45 MB 09-01-2007 11:28:02

----------------------------------------------------------------------------------------------------------------------------------------------------macetascnflores.tif
F:\TRABAJOS\Colegios\Alcantara-Alicante\Ambos\Libros alc
antara alicante\Libros-PreKinder\PreKinder-matematicas\imagenes matematicas
5,59 MB 11-01-2007 15:47:06
macetascnflores.tif
F:\TRABAJOS\Colegios\Alcantara-Alicante\Ambos\Montaje Li
bros Alcantara Alicante\CD1\imagenes matematicas
5,59 MB 11-01-2007 15:47
:06
----------------------------------------------------------------------------------------------------------------------------------------------------malla.tif
F:\TRABAJOS\Colegios\Alcantara-Alicante\Ambos\Libros alcantara a
licante\Libros-PreKinder\PreKinder-matematicas\imagenes matematicas
14,3 MB
10-01-2007 10:14:56
malla.tif
F:\TRABAJOS\Colegios\Alcantara-Alicante\Ambos\Montaje Libros Alc
antara Alicante\CD1\imagenes matematicas
14,3 MB 10-01-2007 10:14:56
----------------------------------------------------------------------------------------------------------------------------------------------------marisopas.tif F:\TRABAJOS\Colegios\Alcantara-Alicante\Ambos\Libros alcantara a
licante\Libros-PreKinder\PreKinder-matematicas\imagenes matematicas
1,24 MB
08-01-2007 15:01:02
marisopas.tif F:\TRABAJOS\Colegios\Alcantara-Alicante\Ambos\Montaje Libros Alc
antara Alicante\CD1\imagenes matematicas
1,24 MB 08-01-2007 15:01:02
----------------------------------------------------------------------------------------------------------------------------------------------------masaimales.tif F:\TRABAJOS\Colegios\Alcantara-Alicante\Ambos\Libros alcantara a
licante\Libros-PreKinder\PreKinder-matematicas\imagenes matematicas
5,81 MB
11-01-2007 13:06:30
masaimales.tif F:\TRABAJOS\Colegios\Alcantara-Alicante\Ambos\Montaje Libros Alc
antara Alicante\CD1\imagenes matematicas
5,81 MB 11-01-2007 13:06:30
----------------------------------------------------------------------------------------------------------------------------------------------------nianjugando.tif F:\TRABAJOS\Colegios\Alcantara-Alicante\Ambos\Libros alcantara a
licante\Libros-PreKinder\PreKinder-matematicas\imagenes matematicas
15,6 MB
09-01-2007 11:52:26
nianjugando.tif F:\TRABAJOS\Colegios\Alcantara-Alicante\Ambos\Montaje Libros Alc
antara Alicante\CD1\imagenes matematicas
15,6 MB 09-01-2007 11:52:26
----------------------------------------------------------------------------------------------------------------------------------------------------ninaglobo.tif F:\TRABAJOS\Colegios\Alcantara-Alicante\Ambos\Libros alcantara a
licante\Libros-PreKinder\PreKinder-matematicas\imagenes matematicas
2,83 MB
11-01-2007 15:36:24
ninaglobo.tif F:\TRABAJOS\Colegios\Alcantara-Alicante\Ambos\Montaje Libros Alc
antara Alicante\CD1\imagenes matematicas
2,83 MB 11-01-2007 15:36:24
----------------------------------------------------------------------------------------------------------------------------------------------------ninoscotona.tif F:\TRABAJOS\Colegios\Alcantara-Alicante\Ambos\Libros alcantara a
licante\Libros-PreKinder\PreKinder-matematicas\imagenes matematicas
3,02 MB
09-01-2007 10:43:40
ninoscotona.tif F:\TRABAJOS\Colegios\Alcantara-Alicante\Ambos\Montaje Libros Alc
antara Alicante\CD1\imagenes matematicas
3,02 MB 09-01-2007 10:43:40
----------------------------------------------------------------------------------------------------------------------------------------------------ninosninas.tif F:\TRABAJOS\Colegios\Alcantara-Alicante\Ambos\Libros alcantara a
licante\Libros-PreKinder\PreKinder-matematicas\imagenes matematicas
2,21 MB
09-01-2007 13:40:04
ninosninas.tif F:\TRABAJOS\Colegios\Alcantara-Alicante\Ambos\Montaje Libros Alc
antara Alicante\CD1\imagenes matematicas
2,21 MB 09-01-2007 13:40:04
----------------------------------------------------------------------------------------------------------------------------------------------------niostrabajhando.tif
F:\TRABAJOS\Colegios\Alcantara-Alicante\Ambos\Libros alc

antara alicante\Libros-PreKinder\PreKinder-matematicas\imagenes matematicas


7,14 MB 08-01-2007 11:34:12
niostrabajhando.tif
F:\TRABAJOS\Colegios\Alcantara-Alicante\Ambos\Montaje Li
bros Alcantara Alicante\CD1\imagenes matematicas
7,14 MB 08-01-2007 11:34
:12
----------------------------------------------------------------------------------------------------------------------------------------------------ollas.tif
F:\TRABAJOS\Colegios\Alcantara-Alicante\Ambos\Libros alcantara a
licante\Libros-PreKinder\PreKinder-matematicas\imagenes matematicas
5,08 MB
09-01-2007 11:19:54
ollas.tif
F:\TRABAJOS\Colegios\Alcantara-Alicante\Ambos\Montaje Libros Alc
antara Alicante\CD1\imagenes matematicas
5,08 MB 09-01-2007 11:19:54
----------------------------------------------------------------------------------------------------------------------------------------------------osoelefcab.tif F:\TRABAJOS\Colegios\Alcantara-Alicante\Ambos\Libros alcantara a
licante\Libros-PreKinder\PreKinder-matematicas\imagenes matematicas
4,73 MB
08-01-2007 11:22:52
osoelefcab.tif F:\TRABAJOS\Colegios\Alcantara-Alicante\Ambos\Montaje Libros Alc
antara Alicante\CD1\imagenes matematicas
4,73 MB 08-01-2007 11:22:52
----------------------------------------------------------------------------------------------------------------------------------------------------paisajegeometrico.tif F:\TRABAJOS\Colegios\Alcantara-Alicante\Ambos\Libros alc
antara alicante\Libros-PreKinder\PreKinder-matematicas\imagenes matematicas
4,91 MB 11-01-2007 9:26:16
paisajegeometrico.tif F:\TRABAJOS\Colegios\Alcantara-Alicante\Ambos\Montaje Li
bros Alcantara Alicante\CD1\imagenes matematicas
4,91 MB 11-01-2007 9:26:
16
----------------------------------------------------------------------------------------------------------------------------------------------------Pares.tif
F:\TRABAJOS\Colegios\Alcantara-Alicante\Ambos\Libros alcantara a
licante\Libros-PreKinder\PreKinder-matematicas\imagenes matematicas
5,78 MB
08-01-2007 11:50:34
Pares.tif
F:\TRABAJOS\Colegios\Alcantara-Alicante\Ambos\Montaje Libros Alc
antara Alicante\CD1\imagenes matematicas
5,78 MB 08-01-2007 11:50:34
----------------------------------------------------------------------------------------------------------------------------------------------------parque.tif
F:\TRABAJOS\Colegios\Alcantara-Alicante\Ambos\Libros alcantara a
licante\Libros-PreKinder\PreKinder-matematicas\imagenes matematicas
4,17 MB
11-01-2007 13:53:02
parque.tif
F:\TRABAJOS\Colegios\Alcantara-Alicante\Ambos\Montaje Libros Alc
antara Alicante\CD1\imagenes matematicas
4,17 MB 11-01-2007 13:53:02
----------------------------------------------------------------------------------------------------------------------------------------------------payasoninoperro.tif
F:\TRABAJOS\Colegios\Alcantara-Alicante\Ambos\Libros alc
antara alicante\Libros-PreKinder\PreKinder-matematicas\imagenes matematicas
4,55 MB 11-01-2007 9:11:54
payasoninoperro.tif
F:\TRABAJOS\Colegios\Alcantara-Alicante\Ambos\Montaje Li
bros Alcantara Alicante\CD1\imagenes matematicas
4,55 MB 11-01-2007 9:11:
54
----------------------------------------------------------------------------------------------------------------------------------------------------payasos.tif
F:\TRABAJOS\Colegios\Alcantara-Alicante\Ambos\Libros alcantara a
licante\Libros-PreKinder\PreKinder-matematicas\imagenes matematicas
5,09 MB
11-01-2007 10:43:34
payasos.tif
F:\TRABAJOS\Colegios\Alcantara-Alicante\Ambos\Montaje Libros Alc
antara Alicante\CD1\imagenes matematicas
5,09 MB 11-01-2007 10:43:34
----------------------------------------------------------------------------------------------------------------------------------------------------peceras.tif
F:\TRABAJOS\Colegios\Alcantara-Alicante\Ambos\Libros alcantara a
licante\Libros-PreKinder\PreKinder-matematicas\imagenes matematicas
9,60 MB

11-01-2007 10:34:38
peceras.tif
F:\TRABAJOS\Colegios\Alcantara-Alicante\Ambos\Montaje Libros Alc
antara Alicante\CD1\imagenes matematicas
9,60 MB 11-01-2007 10:34:38
----------------------------------------------------------------------------------------------------------------------------------------------------pintar.tif
F:\TRABAJOS\Colegios\Alcantara-Alicante\Ambos\Libros alcantara a
licante\Libros-PreKinder\PreKinder-matematicas\imagenes matematicas
4,69 MB
10-01-2007 10:05:44
pintar.tif
F:\TRABAJOS\Colegios\Alcantara-Alicante\Ambos\Montaje Libros Alc
antara Alicante\CD1\imagenes matematicas
4,69 MB 10-01-2007 10:05:44
----------------------------------------------------------------------------------------------------------------------------------------------------platocanasta.tif
F:\TRABAJOS\Colegios\Alcantara-Alicante\Ambos\Libros alc
antara alicante\Libros-PreKinder\PreKinder-matematicas\imagenes matematicas
5,24 MB 11-01-2007 14:03:40
platocanasta.tif
F:\TRABAJOS\Colegios\Alcantara-Alicante\Ambos\Montaje Li
bros Alcantara Alicante\CD1\imagenes matematicas
5,24 MB 11-01-2007 14:03
:40
----------------------------------------------------------------------------------------------------------------------------------------------------pollos.tif
F:\TRABAJOS\Colegios\Alcantara-Alicante\Ambos\Libros alcantara a
licante\Libros-PreKinder\PreKinder-matematicas\imagenes matematicas
1,70 MB
08-01-2007 15:01:22
pollos.tif
F:\TRABAJOS\Colegios\Alcantara-Alicante\Ambos\Montaje Libros Alc
antara Alicante\CD1\imagenes matematicas
1,70 MB 08-01-2007 15:01:22
----------------------------------------------------------------------------------------------------------------------------------------------------pollosymarisopas.tif
F:\TRABAJOS\Colegios\Alcantara-Alicante\Ambos\Libros alc
antara alicante\Libros-PreKinder\PreKinder-matematicas\imagenes matematicas
5,66 MB 08-01-2007 14:59:46
pollosymarisopas.tif
F:\TRABAJOS\Colegios\Alcantara-Alicante\Ambos\Montaje Li
bros Alcantara Alicante\CD1\imagenes matematicas
5,66 MB 08-01-2007 14:59
:46
----------------------------------------------------------------------------------------------------------------------------------------------------porotos.tif
F:\TRABAJOS\Colegios\Alcantara-Alicante\Ambos\Libros alcantara a
licante\Libros-PreKinder\PreKinder-matematicas\imagenes matematicas
4,56 MB
11-01-2007 15:25:00
porotos.tif
F:\TRABAJOS\Colegios\Alcantara-Alicante\Ambos\Montaje Libros Alc
antara Alicante\CD1\imagenes matematicas
4,56 MB 11-01-2007 15:25:00
----------------------------------------------------------------------------------------------------------------------------------------------------queusarias.tif F:\TRABAJOS\Colegios\Alcantara-Alicante\Ambos\Libros alcantara a
licante\Libros-PreKinder\PreKinder-matematicas\imagenes matematicas
6,62 MB
08-01-2007 11:37:28
queusarias.tif F:\TRABAJOS\Colegios\Alcantara-Alicante\Ambos\Montaje Libros Alc
antara Alicante\CD1\imagenes matematicas
6,62 MB 08-01-2007 11:37:28
----------------------------------------------------------------------------------------------------------------------------------------------------racoles.tif
F:\TRABAJOS\Colegios\Alcantara-Alicante\Ambos\Libros alcantara a
licante\Libros-PreKinder\PreKinder-matematicas\imagenes matematicas
1,64 MB
08-01-2007 15:07:06
racoles.tif
F:\TRABAJOS\Colegios\Alcantara-Alicante\Ambos\Montaje Libros Alc
antara Alicante\CD1\imagenes matematicas
1,64 MB 08-01-2007 15:07:06
----------------------------------------------------------------------------------------------------------------------------------------------------recortes.tif
F:\TRABAJOS\Colegios\Alcantara-Alicante\Ambos\Libros alcantara a
licante\Libros-PreKinder\PreKinder-matematicas\imagenes matematicas
6,53 MB
12-01-2007 10:27:10
recortes.tif
F:\TRABAJOS\Colegios\Alcantara-Alicante\Ambos\Montaje Libros Alc

antara Alicante\CD1\imagenes matematicas


6,53 MB 12-01-2007 10:27:10
----------------------------------------------------------------------------------------------------------------------------------------------------recortes2.tif F:\TRABAJOS\Colegios\Alcantara-Alicante\Ambos\Libros alcantara a
licante\Libros-PreKinder\PreKinder-matematicas\imagenes matematicas
4,80 MB
12-01-2007 10:42:42
recortes2.tif F:\TRABAJOS\Colegios\Alcantara-Alicante\Ambos\Montaje Libros Alc
antara Alicante\CD1\imagenes matematicas
4,80 MB 12-01-2007 10:42:42
----------------------------------------------------------------------------------------------------------------------------------------------------resbalin.tif
F:\TRABAJOS\Colegios\Alcantara-Alicante\Ambos\Libros alcantara a
licante\Libros-PreKinder\PreKinder-matematicas\imagenes matematicas
2,06 MB
09-01-2007 14:29:52
resbalin.tif
F:\TRABAJOS\Colegios\Alcantara-Alicante\Ambos\Montaje Libros Alc
antara Alicante\CD1\imagenes matematicas
2,06 MB 09-01-2007 14:29:52
----------------------------------------------------------------------------------------------------------------------------------------------------ropa.tif
F:\TRABAJOS\Colegios\Alcantara-Alicante\Ambos\Libros alcantara a
licante\Libros-PreKinder\PreKinder-matematicas\imagenes matematicas
7,82 MB
08-01-2007 16:59:42
ropa.tif
F:\TRABAJOS\Colegios\Alcantara-Alicante\Ambos\Montaje Libros Alc
antara Alicante\CD1\imagenes matematicas
7,82 MB 08-01-2007 16:59:42
----------------------------------------------------------------------------------------------------------------------------------------------------ropadeinvierno.tif
F:\TRABAJOS\Colegios\Alcantara-Alicante\Ambos\Libros alc
antara alicante\Libros-PreKinder\PreKinder-matematicas\imagenes matematicas
4,91 MB 11-01-2007 16:07:12
ropadeinvierno.tif
F:\TRABAJOS\Colegios\Alcantara-Alicante\Ambos\Montaje Li
bros Alcantara Alicante\CD1\imagenes matematicas
4,91 MB 11-01-2007 16:07
:12
----------------------------------------------------------------------------------------------------------------------------------------------------ropas.tif
F:\TRABAJOS\Colegios\Alcantara-Alicante\Ambos\Libros alcantara a
licante\Libros-PreKinder\PreKinder-matematicas\imagenes matematicas
4,92 MB
10-01-2007 9:52:46
ropas.tif
F:\TRABAJOS\Colegios\Alcantara-Alicante\Ambos\Montaje Libros Alc
antara Alicante\CD1\imagenes matematicas
4,92 MB 10-01-2007 9:52:46
----------------------------------------------------------------------------------------------------------------------------------------------------ruedasono.tif F:\TRABAJOS\Colegios\Alcantara-Alicante\Ambos\Libros alcantara a
licante\Libros-PreKinder\PreKinder-matematicas\imagenes matematicas
16,0 MB
10-01-2007 10:41:18
ruedasono.tif F:\TRABAJOS\Colegios\Alcantara-Alicante\Ambos\Montaje Libros Alc
antara Alicante\CD1\imagenes matematicas
16,0 MB 10-01-2007 10:41:18
----------------------------------------------------------------------------------------------------------------------------------------------------sombreros.tif F:\TRABAJOS\Colegios\Alcantara-Alicante\Ambos\Libros alcantara a
licante\Libros-PreKinder\PreKinder-matematicas\imagenes matematicas
4,56 MB
11-01-2007 17:09:06
sombreros.tif F:\TRABAJOS\Colegios\Alcantara-Alicante\Ambos\Montaje Libros Alc
antara Alicante\CD1\imagenes matematicas
4,56 MB 11-01-2007 17:09:06
----------------------------------------------------------------------------------------------------------------------------------------------------super.tif
F:\TRABAJOS\Colegios\Alcantara-Alicante\Ambos\Libros alcantara a
licante\Libros-PreKinder\PreKinder-matematicas\imagenes matematicas
4,26 MB
11-01-2007 17:58:04
super.tif
F:\TRABAJOS\Colegios\Alcantara-Alicante\Ambos\Montaje Libros Alc
antara Alicante\CD1\imagenes matematicas
4,26 MB 11-01-2007 17:58:04
-----------------------------------------------------------------------------------------------------------------------------------------------------

transportes.tif F:\TRABAJOS\Colegios\Alcantara-Alicante\Ambos\Libros alcantara a


licante\Libros-PreKinder\PreKinder-matematicas\imagenes matematicas
4,75 MB
11-01-2007 11:13:02
transportes.tif F:\TRABAJOS\Colegios\Alcantara-Alicante\Ambos\Montaje Libros Alc
antara Alicante\CD1\imagenes matematicas
4,75 MB 11-01-2007 11:13:02
----------------------------------------------------------------------------------------------------------------------------------------------------trenfrutas.tif F:\TRABAJOS\Colegios\Alcantara-Alicante\Ambos\Libros alcantara a
licante\Libros-PreKinder\PreKinder-matematicas\imagenes matematicas
2,25 MB
09-01-2007 14:50:14
trenfrutas.tif F:\TRABAJOS\Colegios\Alcantara-Alicante\Ambos\Montaje Libros Alc
antara Alicante\CD1\imagenes matematicas
2,25 MB 09-01-2007 14:50:14
----------------------------------------------------------------------------------------------------------------------------------------------------utilesescolares.tif
F:\TRABAJOS\Colegios\Alcantara-Alicante\Ambos\Libros alc
antara alicante\Libros-PreKinder\PreKinder-matematicas\imagenes matematicas
6,29 MB 09-01-2007 11:09:56
utilesescolares.tif
F:\TRABAJOS\Colegios\Alcantara-Alicante\Ambos\Montaje Li
bros Alcantara Alicante\CD1\imagenes matematicas
6,29 MB 09-01-2007 11:09
:56
----------------------------------------------------------------------------------------------------------------------------------------------------vagones.tif
F:\TRABAJOS\Colegios\Alcantara-Alicante\Ambos\Libros alcantara a
licante\Libros-PreKinder\PreKinder-matematicas\imagenes matematicas
3,39 MB
11-01-2007 11:43:34
vagones.tif
F:\TRABAJOS\Colegios\Alcantara-Alicante\Ambos\Montaje Libros Alc
antara Alicante\CD1\imagenes matematicas
3,39 MB 11-01-2007 11:43:34
----------------------------------------------------------------------------------------------------------------------------------------------------velas.tif
F:\TRABAJOS\Colegios\Alcantara-Alicante\Ambos\Libros alcantara a
licante\Libros-PreKinder\PreKinder-matematicas\imagenes matematicas
3,08 MB
09-01-2007 10:06:26
velas.tif
F:\TRABAJOS\Colegios\Alcantara-Alicante\Ambos\Montaje Libros Alc
antara Alicante\CD1\imagenes matematicas
3,08 MB 09-01-2007 10:06:26
----------------------------------------------------------------------------------------------------------------------------------------------------vrduras.tif
F:\TRABAJOS\Colegios\Alcantara-Alicante\Ambos\Libros alcantara a
licante\Libros-PreKinder\PreKinder-matematicas\imagenes matematicas
5,48 MB
09-01-2007 9:32:44
vrduras.tif
F:\TRABAJOS\Colegios\Alcantara-Alicante\Ambos\Montaje Libros Alc
antara Alicante\CD1\imagenes matematicas
5,48 MB 09-01-2007 9:32:44
----------------------------------------------------------------------------------------------------------------------------------------------------zapallozanachoclo.tif F:\TRABAJOS\Colegios\Alcantara-Alicante\Ambos\Libros alc
antara alicante\Libros-PreKinder\PreKinder-matematicas\imagenes matematicas
5,83 MB 09-01-2007 14:00:00
zapallozanachoclo.tif F:\TRABAJOS\Colegios\Alcantara-Alicante\Ambos\Montaje Li
bros Alcantara Alicante\CD1\imagenes matematicas
5,83 MB 09-01-2007 14:00
:00
----------------------------------------------------------------------------------------------------------------------------------------------------Fonodo Agenda Diaria.psd
F:\TRABAJOS\Colegios\Arzobispo Crescente Errazur
iz\2007\Agenda 2007\Agenda2007-MontajeHojas\Fotos
15,3 MB 09-01-2007 16:28
:22
Fonodo Agenda Diaria.psd
F:\TRABAJOS\Colegios\Arzobispo Crescente Errazur
iz\2007\Agenda 2007\Fotos\Fotos Grises 15,3 MB 09-01-2007 16:28:22
----------------------------------------------------------------------------------------------------------------------------------------------------tablaperiodica.tif
F:\TRABAJOS\Colegios\Arzobispo Crescente Errazuriz\2007\
Agenda 2007\Agenda2007-MontajeHojas\Fotos
1,75 MB 04-01-2007 10:47:50

tablaperiodica.tif
F:\TRABAJOS\Colegios\Arzobispo Crescente Errazuriz\2007\
Agenda 2007\Fotos\Fotos Grises 1,75 MB 04-01-2007 10:47:50
tablaperiodica.tif
F:\TRABAJOS\Colegios\Arzobispo Crescente Errazuriz\2008\
Agenda 2008\Fotos Grises
1,75 MB 04-01-2007 10:47:50
----------------------------------------------------------------------------------------------------------------------------------------------------tablaperiodica2.tif
F:\TRABAJOS\Colegios\Arzobispo Crescente Errazuriz\2007\
Agenda 2007\Agenda2007-MontajeHojas\Fotos
1,53 MB 04-01-2007 10:54:46
tablaperiodica2.tif
F:\TRABAJOS\Colegios\Arzobispo Crescente Errazuriz\2007\
Agenda 2007\Fotos\Fotos Grises 1,53 MB 04-01-2007 10:54:46
tablaperiodica2.tif
F:\TRABAJOS\Colegios\Arzobispo Crescente Errazuriz\2008\
Agenda 2008\Agenda 1 a 6
1,53 MB 04-01-2007 10:54:46
tablaperiodica2.tif
F:\TRABAJOS\Colegios\Arzobispo Crescente Errazuriz\2008\
Agenda 2008\Agenda 7 a IV
1,53 MB 04-01-2007 10:54:46
tablaperiodica2.tif
F:\TRABAJOS\Colegios\Arzobispo Crescente Errazuriz\2008\
Agenda 2008\Fotos Grises
1,53 MB 04-01-2007 10:54:46
tablaperiodica2.tif
F:\TRABAJOS\Colegios\Leonardo Da Vinci\Agenda Da Vinci-2
007\da vinci 2007\2007 1,53 MB 04-01-2007 10:54:46
tablaperiodica2.tif
F:\TRABAJOS\Colegios\Leonardo Da Vinci\Agenda Da Vinci-2
007\da vinci 2007\Fotos2007-Da Vinci\fotos
1,53 MB 04-01-2007 10:54:46
tablaperiodica2.tif
F:\TRABAJOS\Colegios\San Bernardo Abad\2012\agenda
1,53 MB 04-01-2007 10:54:46
----------------------------------------------------------------------------------------------------------------------------------------------------tapa-chiquichichos.tif F:\TRABAJOS\Colegios\Arzobispo Crescente Errazuriz\2007\
Agenda 2007\Pelicula Errazuriz 41,4 MB 20-02-2007 20:35:20
tapa-chiquichichos.tif F:\TRABAJOS\Colegios\Arzobispo Crescente Errazuriz\2007\
Agenda 2007\Tapas\cmyk 41,4 MB 20-02-2007 20:35:20
----------------------------------------------------------------------------------------------------------------------------------------------------tapa-mayores.tif
F:\TRABAJOS\Colegios\Arzobispo Crescente Errazuriz\2007\
Agenda 2007\Pelicula Errazuriz 41,4 MB 20-02-2007 20:21:30
tapa-mayores.tif
F:\TRABAJOS\Colegios\Arzobispo Crescente Errazuriz\2007\
Agenda 2007\Tapas\cmyk 41,4 MB 20-02-2007 20:21:30
----------------------------------------------------------------------------------------------------------------------------------------------------tapa-mediana.tif
F:\TRABAJOS\Colegios\Arzobispo Crescente Errazuriz\2007\
Agenda 2007\Pelicula Errazuriz 41,4 MB 20-02-2007 20:14:48
tapa-mediana.tif
F:\TRABAJOS\Colegios\Arzobispo Crescente Errazuriz\2007\
Agenda 2007\Tapas\cmyk 41,4 MB 20-02-2007 20:14:48
----------------------------------------------------------------------------------------------------------------------------------------------------PA180012.JPG
F:\TRABAJOS\Colegios\Arzobispo Crescente Errazuriz\2008\Agenda 2
008\Fotos Retiro
3,68 MB 18-10-2007 12:52:28
PA180012.JPG
F:\TRABAJOS\Colegios\Arzobispo Crescente Errazuriz\2008\Agenda 2
008\Fotos2007- Crescente Errazuriz
3,68 MB 18-10-2007 12:52:28
----------------------------------------------------------------------------------------------------------------------------------------------------PA180014.JPG
F:\TRABAJOS\Colegios\Arzobispo Crescente Errazuriz\2008\Agenda 2
008\Fotos Retiro
3,92 MB 18-10-2007 12:53:28
PA180014.JPG
F:\TRABAJOS\Colegios\Arzobispo Crescente Errazuriz\2008\Agenda 2
008\Fotos2007- Crescente Errazuriz
3,92 MB 18-10-2007 12:53:28
----------------------------------------------------------------------------------------------------------------------------------------------------PA180017.JPG
F:\TRABAJOS\Colegios\Arzobispo Crescente Errazuriz\2008\Agenda 2
008\Fotos Retiro
3,61 MB 18-10-2007 12:54:12
PA180017.JPG
F:\TRABAJOS\Colegios\Arzobispo Crescente Errazuriz\2008\Agenda 2
008\Fotos2007- Crescente Errazuriz
3,61 MB 18-10-2007 12:54:12
-----------------------------------------------------------------------------------------------------------------------------------------------------

PA180022.JPG
F:\TRABAJOS\Colegios\Arzobispo Crescente Errazuriz\2008\Agenda 2
008\Fotos Retiro
4,51 MB 18-10-2007 12:57:12
PA180022.JPG
F:\TRABAJOS\Colegios\Arzobispo Crescente Errazuriz\2008\Agenda 2
008\Fotos2007- Crescente Errazuriz
4,51 MB 18-10-2007 12:57:12
----------------------------------------------------------------------------------------------------------------------------------------------------PA180026.JPG
F:\TRABAJOS\Colegios\Arzobispo Crescente Errazuriz\2008\Agenda 2
008\Fotos Retiro
4,96 MB 18-10-2007 13:00:52
PA180026.JPG
F:\TRABAJOS\Colegios\Arzobispo Crescente Errazuriz\2008\Agenda 2
008\Fotos2007- Crescente Errazuriz
4,96 MB 18-10-2007 13:00:52
----------------------------------------------------------------------------------------------------------------------------------------------------PA180031.JPG
F:\TRABAJOS\Colegios\Arzobispo Crescente Errazuriz\2008\Agenda 2
008\Fotos Retiro
3,74 MB 18-10-2007 13:02:00
PA180031.JPG
F:\TRABAJOS\Colegios\Arzobispo Crescente Errazuriz\2008\Agenda 2
008\Fotos2007- Crescente Errazuriz
3,74 MB 18-10-2007 13:02:00
----------------------------------------------------------------------------------------------------------------------------------------------------PA180035.JPG
F:\TRABAJOS\Colegios\Arzobispo Crescente Errazuriz\2008\Agenda 2
008\Fotos Retiro
4,51 MB 18-10-2007 13:04:14
PA180035.JPG
F:\TRABAJOS\Colegios\Arzobispo Crescente Errazuriz\2008\Agenda 2
008\Fotos2007- Crescente Errazuriz
4,51 MB 18-10-2007 13:04:14
----------------------------------------------------------------------------------------------------------------------------------------------------PA180046.JPG
F:\TRABAJOS\Colegios\Arzobispo Crescente Errazuriz\2008\Agenda 2
008\Fotos Retiro
3,60 MB 18-10-2007 13:09:46
PA180046.JPG
F:\TRABAJOS\Colegios\Arzobispo Crescente Errazuriz\2008\Agenda 2
008\Fotos2007- Crescente Errazuriz
3,60 MB 18-10-2007 13:09:46
----------------------------------------------------------------------------------------------------------------------------------------------------PA180053.JPG
F:\TRABAJOS\Colegios\Arzobispo Crescente Errazuriz\2008\Agenda 2
008\Fotos Retiro
3,89 MB 18-10-2007 13:14:18
PA180053.JPG
F:\TRABAJOS\Colegios\Arzobispo Crescente Errazuriz\2008\Agenda 2
008\Fotos2007- Crescente Errazuriz
3,89 MB 18-10-2007 13:14:18
----------------------------------------------------------------------------------------------------------------------------------------------------PA180063.JPG
F:\TRABAJOS\Colegios\Arzobispo Crescente Errazuriz\2008\Agenda 2
008\Fotos Retiro
3,50 MB 18-10-2007 13:19:12
PA180063.JPG
F:\TRABAJOS\Colegios\Arzobispo Crescente Errazuriz\2008\Agenda 2
008\Fotos2007- Crescente Errazuriz
3,50 MB 18-10-2007 13:19:12
----------------------------------------------------------------------------------------------------------------------------------------------------PA180071.JPG
F:\TRABAJOS\Colegios\Arzobispo Crescente Errazuriz\2008\Agenda 2
008\Fotos Retiro
4,64 MB 18-10-2007 13:22:20
PA180071.JPG
F:\TRABAJOS\Colegios\Arzobispo Crescente Errazuriz\2008\Agenda 2
008\Fotos2007- Crescente Errazuriz
4,64 MB 18-10-2007 13:22:20
----------------------------------------------------------------------------------------------------------------------------------------------------ayudas.JPG
F:\TRABAJOS\Colegios\Arzobispo Crescente Errazuriz\2009\Agenda 2
009\agenda comun
1,04 MB 16-01-2009 21:30:24
ayudas.JPG
F:\TRABAJOS\Colegios\Arzobispo Crescente Errazuriz\2010\agenda 2
010\Agenda 2009\agenda comun
1,04 MB 16-01-2009 21:30:24
----------------------------------------------------------------------------------------------------------------------------------------------------Copia de horario2.jpg F:\TRABAJOS\Colegios\Arzobispo Crescente Errazuriz\2009\
Agenda 2009\agenda comun
2,87 MB 14-01-2009 18:20:28
Copia de horario2.jpg F:\TRABAJOS\Colegios\Arzobispo Crescente Errazuriz\2010\
agenda 2010\Agenda 2009\agenda comun
2,87 MB 14-01-2009 18:20:28
-----------------------------------------------------------------------------------------------------------------------------------------------------

DSC02163.JPG
F:\TRABAJOS\Colegios\Arzobispo Crescente Errazuriz\2009\Agenda 2
009\agenda comun
3,35 MB 19-10-2008 1:47:00
DSC02163.JPG
F:\TRABAJOS\Colegios\Arzobispo Crescente Errazuriz\2009\Agenda 2
009\agenda comun\errazur\Caminata Los Andes 2008
3,35 MB 19-10-2008 1:47:
00
DSC02163.JPG
F:\TRABAJOS\Colegios\Arzobispo Crescente Errazuriz\2009\Agenda 2
009\agenda comun\errazur\Caminata Los Andes 2008\Seleccin FBE 3,35 MB 19-10-20
08 1:47:00
DSC02163.JPG
F:\TRABAJOS\Colegios\Arzobispo Crescente Errazuriz\2010\agenda 2
010\Agenda 2009\agenda comun
3,35 MB 19-10-2008 1:47:00
DSC02163.JPG
F:\TRABAJOS\Colegios\Arzobispo Crescente Errazuriz\2010\agenda 2
010\Agenda 2009\agenda comun\errazur\Caminata Los Andes 2008
3,35 MB 19-10-20
08 1:47:00
DSC02163.JPG
F:\TRABAJOS\Colegios\Arzobispo Crescente Errazuriz\2010\agenda 2
010\Agenda 2009\agenda comun\errazur\Caminata Los Andes 2008\Seleccin FBE
3,35 MB 19-10-2008 1:47:00
----------------------------------------------------------------------------------------------------------------------------------------------------S6302515.JPG
F:\TRABAJOS\Colegios\Arzobispo Crescente Errazuriz\2009\Agenda 2
009\agenda comun\errazur\abuelitos sept 2008
1,49 MB 16-09-2018 13:34:38
S6302515.JPG
F:\TRABAJOS\Colegios\Arzobispo Crescente Errazuriz\2010\agenda 2
010\Agenda 2009\agenda comun\errazur\abuelitos sept 2008
1,49 MB 16-09-20
18 13:34:38
----------------------------------------------------------------------------------------------------------------------------------------------------S6302516.JPG
F:\TRABAJOS\Colegios\Arzobispo Crescente Errazuriz\2009\Agenda 2
009\agenda comun\errazur\abuelitos sept 2008
1,48 MB 16-09-2018 13:34:48
S6302516.JPG
F:\TRABAJOS\Colegios\Arzobispo Crescente Errazuriz\2010\agenda 2
010\Agenda 2009\agenda comun\errazur\abuelitos sept 2008
1,48 MB 16-09-20
18 13:34:48
----------------------------------------------------------------------------------------------------------------------------------------------------S6302517.JPG
F:\TRABAJOS\Colegios\Arzobispo Crescente Errazuriz\2009\Agenda 2
009\agenda comun\errazur\abuelitos sept 2008
1,51 MB 16-09-2018 13:34:58
S6302517.JPG
F:\TRABAJOS\Colegios\Arzobispo Crescente Errazuriz\2010\agenda 2
010\Agenda 2009\agenda comun\errazur\abuelitos sept 2008
1,51 MB 16-09-20
18 13:34:58
----------------------------------------------------------------------------------------------------------------------------------------------------S6302518.JPG
F:\TRABAJOS\Colegios\Arzobispo Crescente Errazuriz\2009\Agenda 2
009\agenda comun\errazur\abuelitos sept 2008
1,50 MB 16-09-2018 13:35:16
S6302518.JPG
F:\TRABAJOS\Colegios\Arzobispo Crescente Errazuriz\2010\agenda 2
010\Agenda 2009\agenda comun\errazur\abuelitos sept 2008
1,50 MB 16-09-20
18 13:35:16
----------------------------------------------------------------------------------------------------------------------------------------------------S6302519.JPG
F:\TRABAJOS\Colegios\Arzobispo Crescente Errazuriz\2009\Agenda 2
009\agenda comun\errazur\abuelitos sept 2008
1,50 MB 16-09-2018 13:38:10
S6302519.JPG
F:\TRABAJOS\Colegios\Arzobispo Crescente Errazuriz\2010\agenda 2
010\Agenda 2009\agenda comun\errazur\abuelitos sept 2008
1,50 MB 16-09-20
18 13:38:10
----------------------------------------------------------------------------------------------------------------------------------------------------S6302520.JPG
F:\TRABAJOS\Colegios\Arzobispo Crescente Errazuriz\2009\Agenda 2
009\agenda comun\errazur\abuelitos sept 2008
1,51 MB 16-09-2018 13:38:34
S6302520.JPG
F:\TRABAJOS\Colegios\Arzobispo Crescente Errazuriz\2010\agenda 2
010\Agenda 2009\agenda comun\errazur\abuelitos sept 2008
1,51 MB 16-09-20
18 13:38:34
-----------------------------------------------------------------------------------------------------------------------------------------------------

S6302521.JPG
F:\TRABAJOS\Colegios\Arzobispo Crescente Errazuriz\2009\Agenda 2
009\agenda comun\errazur\abuelitos sept 2008
1,51 MB 16-09-2018 13:38:46
S6302521.JPG
F:\TRABAJOS\Colegios\Arzobispo Crescente Errazuriz\2010\agenda 2
010\Agenda 2009\agenda comun\errazur\abuelitos sept 2008
1,51 MB 16-09-20
18 13:38:46
----------------------------------------------------------------------------------------------------------------------------------------------------S6302522.JPG
F:\TRABAJOS\Colegios\Arzobispo Crescente Errazuriz\2009\Agenda 2
009\agenda comun\errazur\abuelitos sept 2008
1,50 MB 16-09-2018 13:40:38
S6302522.JPG
F:\TRABAJOS\Colegios\Arzobispo Crescente Errazuriz\2010\agenda 2
010\Agenda 2009\agenda comun\errazur\abuelitos sept 2008
1,50 MB 16-09-20
18 13:40:38
----------------------------------------------------------------------------------------------------------------------------------------------------S6302523.JPG
F:\TRABAJOS\Colegios\Arzobispo Crescente Errazuriz\2009\Agenda 2
009\agenda comun\errazur\abuelitos sept 2008
1,50 MB 16-09-2018 13:40:48
S6302523.JPG
F:\TRABAJOS\Colegios\Arzobispo Crescente Errazuriz\2010\agenda 2
010\Agenda 2009\agenda comun\errazur\abuelitos sept 2008
1,50 MB 16-09-20
18 13:40:48
----------------------------------------------------------------------------------------------------------------------------------------------------S6302524.JPG
F:\TRABAJOS\Colegios\Arzobispo Crescente Errazuriz\2009\Agenda 2
009\agenda comun\errazur\abuelitos sept 2008
1,50 MB 16-09-2018 13:40:56
S6302524.JPG
F:\TRABAJOS\Colegios\Arzobispo Crescente Errazuriz\2010\agenda 2
010\Agenda 2009\agenda comun\errazur\abuelitos sept 2008
1,50 MB 16-09-20
18 13:40:56
----------------------------------------------------------------------------------------------------------------------------------------------------S6302525.JPG
F:\TRABAJOS\Colegios\Arzobispo Crescente Errazuriz\2009\Agenda 2
009\agenda comun\errazur\abuelitos sept 2008
1,44 MB 30-09-2008 0:55:04
S6302525.JPG
F:\TRABAJOS\Colegios\Arzobispo Crescente Errazuriz\2010\agenda 2
010\Agenda 2009\agenda comun\errazur\abuelitos sept 2008
1,44 MB 30-09-20
08 0:55:04
----------------------------------------------------------------------------------------------------------------------------------------------------S6302526.JPG
F:\TRABAJOS\Colegios\Arzobispo Crescente Errazuriz\2009\Agenda 2
009\agenda comun\errazur\abuelitos sept 2008
1,49 MB 16-09-2018 13:42:40
S6302526.JPG
F:\TRABAJOS\Colegios\Arzobispo Crescente Errazuriz\2010\agenda 2
010\Agenda 2009\agenda comun\errazur\abuelitos sept 2008
1,49 MB 16-09-20
18 13:42:40
----------------------------------------------------------------------------------------------------------------------------------------------------S6302527.JPG
F:\TRABAJOS\Colegios\Arzobispo Crescente Errazuriz\2009\Agenda 2
009\agenda comun\errazur\abuelitos sept 2008
1,46 MB 16-09-2018 13:42:54
S6302527.JPG
F:\TRABAJOS\Colegios\Arzobispo Crescente Errazuriz\2010\agenda 2
010\Agenda 2009\agenda comun\errazur\abuelitos sept 2008
1,46 MB 16-09-20
18 13:42:54
----------------------------------------------------------------------------------------------------------------------------------------------------S6302528.JPG
F:\TRABAJOS\Colegios\Arzobispo Crescente Errazuriz\2009\Agenda 2
009\agenda comun\errazur\abuelitos sept 2008
1,51 MB 16-09-2018 13:43:14
S6302528.JPG
F:\TRABAJOS\Colegios\Arzobispo Crescente Errazuriz\2010\agenda 2
010\Agenda 2009\agenda comun\errazur\abuelitos sept 2008
1,51 MB 16-09-20
18 13:43:14
----------------------------------------------------------------------------------------------------------------------------------------------------S6302529.JPG
F:\TRABAJOS\Colegios\Arzobispo Crescente Errazuriz\2009\Agenda 2
009\agenda comun\errazur\abuelitos sept 2008
1,48 MB 16-09-2018 13:45:08
S6302529.JPG
F:\TRABAJOS\Colegios\Arzobispo Crescente Errazuriz\2010\agenda 2
010\Agenda 2009\agenda comun\errazur\abuelitos sept 2008
1,48 MB 16-09-20

18 13:45:08
----------------------------------------------------------------------------------------------------------------------------------------------------S6302530.JPG
F:\TRABAJOS\Colegios\Arzobispo Crescente Errazuriz\2009\Agenda 2
009\agenda comun\errazur\abuelitos sept 2008
1,45 MB 30-09-2008 0:55:10
S6302530.JPG
F:\TRABAJOS\Colegios\Arzobispo Crescente Errazuriz\2010\agenda 2
010\Agenda 2009\agenda comun\errazur\abuelitos sept 2008
1,45 MB 30-09-20
08 0:55:10
----------------------------------------------------------------------------------------------------------------------------------------------------S6302531.JPG
F:\TRABAJOS\Colegios\Arzobispo Crescente Errazuriz\2009\Agenda 2
009\agenda comun\errazur\abuelitos sept 2008
1,43 MB 16-09-2018 13:45:36
S6302531.JPG
F:\TRABAJOS\Colegios\Arzobispo Crescente Errazuriz\2010\agenda 2
010\Agenda 2009\agenda comun\errazur\abuelitos sept 2008
1,43 MB 16-09-20
18 13:45:36
----------------------------------------------------------------------------------------------------------------------------------------------------S6302532.JPG
F:\TRABAJOS\Colegios\Arzobispo Crescente Errazuriz\2009\Agenda 2
009\agenda comun\errazur\abuelitos sept 2008
1,50 MB 16-09-2018 13:47:22
S6302532.JPG
F:\TRABAJOS\Colegios\Arzobispo Crescente Errazuriz\2010\agenda 2
010\Agenda 2009\agenda comun\errazur\abuelitos sept 2008
1,50 MB 16-09-20
18 13:47:22
----------------------------------------------------------------------------------------------------------------------------------------------------S6302533.JPG
F:\TRABAJOS\Colegios\Arzobispo Crescente Errazuriz\2009\Agenda 2
009\agenda comun\errazur\abuelitos sept 2008
1,49 MB 16-09-2018 13:47:30
S6302533.JPG
F:\TRABAJOS\Colegios\Arzobispo Crescente Errazuriz\2010\agenda 2
010\Agenda 2009\agenda comun\errazur\abuelitos sept 2008
1,49 MB 16-09-20
18 13:47:30
----------------------------------------------------------------------------------------------------------------------------------------------------S6302534.JPG
F:\TRABAJOS\Colegios\Arzobispo Crescente Errazuriz\2009\Agenda 2
009\agenda comun\errazur\abuelitos sept 2008
1,52 MB 16-09-2018 13:47:36
S6302534.JPG
F:\TRABAJOS\Colegios\Arzobispo Crescente Errazuriz\2010\agenda 2
010\Agenda 2009\agenda comun\errazur\abuelitos sept 2008
1,52 MB 16-09-20
18 13:47:36
----------------------------------------------------------------------------------------------------------------------------------------------------S6302535.JPG
F:\TRABAJOS\Colegios\Arzobispo Crescente Errazuriz\2009\Agenda 2
009\agenda comun\errazur\abuelitos sept 2008
1,50 MB 16-09-2018 13:47:44
S6302535.JPG
F:\TRABAJOS\Colegios\Arzobispo Crescente Errazuriz\2010\agenda 2
010\Agenda 2009\agenda comun\errazur\abuelitos sept 2008
1,50 MB 16-09-20
18 13:47:44
----------------------------------------------------------------------------------------------------------------------------------------------------S6302536.JPG
F:\TRABAJOS\Colegios\Arzobispo Crescente Errazuriz\2009\Agenda 2
009\agenda comun\errazur\abuelitos sept 2008
1,50 MB 16-09-2018 13:48:04
S6302536.JPG
F:\TRABAJOS\Colegios\Arzobispo Crescente Errazuriz\2010\agenda 2
010\Agenda 2009\agenda comun\errazur\abuelitos sept 2008
1,50 MB 16-09-20
18 13:48:04
----------------------------------------------------------------------------------------------------------------------------------------------------S6302537.JPG
F:\TRABAJOS\Colegios\Arzobispo Crescente Errazuriz\2009\Agenda 2
009\agenda comun\errazur\abuelitos sept 2008
1,52 MB 16-09-2018 13:48:14
S6302537.JPG
F:\TRABAJOS\Colegios\Arzobispo Crescente Errazuriz\2010\agenda 2
010\Agenda 2009\agenda comun\errazur\abuelitos sept 2008
1,52 MB 16-09-20
18 13:48:14
----------------------------------------------------------------------------------------------------------------------------------------------------S6302538.JPG
F:\TRABAJOS\Colegios\Arzobispo Crescente Errazuriz\2009\Agenda 2

009\agenda comun\errazur\abuelitos sept 2008


1,48 MB 16-09-2018 13:48:24
S6302538.JPG
F:\TRABAJOS\Colegios\Arzobispo Crescente Errazuriz\2010\agenda 2
010\Agenda 2009\agenda comun\errazur\abuelitos sept 2008
1,48 MB 16-09-20
18 13:48:24
----------------------------------------------------------------------------------------------------------------------------------------------------S6302539.JPG
F:\TRABAJOS\Colegios\Arzobispo Crescente Errazuriz\2009\Agenda 2
009\agenda comun\errazur\abuelitos sept 2008
1,52 MB 16-09-2018 13:48:58
S6302539.JPG
F:\TRABAJOS\Colegios\Arzobispo Crescente Errazuriz\2010\agenda 2
010\Agenda 2009\agenda comun\errazur\abuelitos sept 2008
1,52 MB 16-09-20
18 13:48:58
----------------------------------------------------------------------------------------------------------------------------------------------------S6302540.JPG
F:\TRABAJOS\Colegios\Arzobispo Crescente Errazuriz\2009\Agenda 2
009\agenda comun\errazur\abuelitos sept 2008
1,50 MB 16-09-2018 13:49:42
S6302540.JPG
F:\TRABAJOS\Colegios\Arzobispo Crescente Errazuriz\2010\agenda 2
010\Agenda 2009\agenda comun\errazur\abuelitos sept 2008
1,50 MB 16-09-20
18 13:49:42
----------------------------------------------------------------------------------------------------------------------------------------------------S6302541.JPG
F:\TRABAJOS\Colegios\Arzobispo Crescente Errazuriz\2009\Agenda 2
009\agenda comun\errazur\abuelitos sept 2008
1,50 MB 16-09-2018 13:49:50
S6302541.JPG
F:\TRABAJOS\Colegios\Arzobispo Crescente Errazuriz\2010\agenda 2
010\Agenda 2009\agenda comun\errazur\abuelitos sept 2008
1,50 MB 16-09-20
18 13:49:50
----------------------------------------------------------------------------------------------------------------------------------------------------S6302542.JPG
F:\TRABAJOS\Colegios\Arzobispo Crescente Errazuriz\2009\Agenda 2
009\agenda comun\errazur\abuelitos sept 2008
1,50 MB 16-09-2018 13:49:54
S6302542.JPG
F:\TRABAJOS\Colegios\Arzobispo Crescente Errazuriz\2010\agenda 2
010\Agenda 2009\agenda comun\errazur\abuelitos sept 2008
1,50 MB 16-09-20
18 13:49:54
----------------------------------------------------------------------------------------------------------------------------------------------------S6302543.JPG
F:\TRABAJOS\Colegios\Arzobispo Crescente Errazuriz\2009\Agenda 2
009\agenda comun\errazur\abuelitos sept 2008
1,50 MB 16-09-2018 13:50:04
S6302543.JPG
F:\TRABAJOS\Colegios\Arzobispo Crescente Errazuriz\2010\agenda 2
010\Agenda 2009\agenda comun\errazur\abuelitos sept 2008
1,50 MB 16-09-20
18 13:50:04
----------------------------------------------------------------------------------------------------------------------------------------------------S6302544.JPG
F:\TRABAJOS\Colegios\Arzobispo Crescente Errazuriz\2009\Agenda 2
009\agenda comun\errazur\abuelitos sept 2008
1,51 MB 16-09-2018 13:50:14
S6302544.JPG
F:\TRABAJOS\Colegios\Arzobispo Crescente Errazuriz\2010\agenda 2
010\Agenda 2009\agenda comun\errazur\abuelitos sept 2008
1,51 MB 16-09-20
18 13:50:14
----------------------------------------------------------------------------------------------------------------------------------------------------S6302545.JPG
F:\TRABAJOS\Colegios\Arzobispo Crescente Errazuriz\2009\Agenda 2
009\agenda comun\errazur\abuelitos sept 2008
1,51 MB 16-09-2018 13:50:24
S6302545.JPG
F:\TRABAJOS\Colegios\Arzobispo Crescente Errazuriz\2010\agenda 2
010\Agenda 2009\agenda comun\errazur\abuelitos sept 2008
1,51 MB 16-09-20
18 13:50:24
----------------------------------------------------------------------------------------------------------------------------------------------------S6302546.JPG
F:\TRABAJOS\Colegios\Arzobispo Crescente Errazuriz\2009\Agenda 2
009\agenda comun\errazur\abuelitos sept 2008
1,50 MB 16-09-2018 13:50:36
S6302546.JPG
F:\TRABAJOS\Colegios\Arzobispo Crescente Errazuriz\2010\agenda 2
010\Agenda 2009\agenda comun\errazur\abuelitos sept 2008
1,50 MB 16-09-20
18 13:50:36

----------------------------------------------------------------------------------------------------------------------------------------------------S6302547.JPG
F:\TRABAJOS\Colegios\Arzobispo Crescente Errazuriz\2009\Agenda 2
009\agenda comun\errazur\abuelitos sept 2008
1,50 MB 16-09-2018 13:52:10
S6302547.JPG
F:\TRABAJOS\Colegios\Arzobispo Crescente Errazuriz\2010\agenda 2
010\Agenda 2009\agenda comun\errazur\abuelitos sept 2008
1,50 MB 16-09-20
18 13:52:10
----------------------------------------------------------------------------------------------------------------------------------------------------S6302548.JPG
F:\TRABAJOS\Colegios\Arzobispo Crescente Errazuriz\2009\Agenda 2
009\agenda comun\errazur\abuelitos sept 2008
1,50 MB 16-09-2018 13:52:16
S6302548.JPG
F:\TRABAJOS\Colegios\Arzobispo Crescente Errazuriz\2010\agenda 2
010\Agenda 2009\agenda comun\errazur\abuelitos sept 2008
1,50 MB 16-09-20
18 13:52:16
----------------------------------------------------------------------------------------------------------------------------------------------------S6302549.JPG
F:\TRABAJOS\Colegios\Arzobispo Crescente Errazuriz\2009\Agenda 2
009\agenda comun\errazur\abuelitos sept 2008
1,51 MB 16-09-2018 13:52:34
S6302549.JPG
F:\TRABAJOS\Colegios\Arzobispo Crescente Errazuriz\2010\agenda 2
010\Agenda 2009\agenda comun\errazur\abuelitos sept 2008
1,51 MB 16-09-20
18 13:52:34
----------------------------------------------------------------------------------------------------------------------------------------------------S6302550.JPG
F:\TRABAJOS\Colegios\Arzobispo Crescente Errazuriz\2009\Agenda 2
009\agenda comun\errazur\abuelitos sept 2008
1,51 MB 16-09-2018 13:52:42
S6302550.JPG
F:\TRABAJOS\Colegios\Arzobispo Crescente Errazuriz\2010\agenda 2
010\Agenda 2009\agenda comun\errazur\abuelitos sept 2008
1,51 MB 16-09-20
18 13:52:42
----------------------------------------------------------------------------------------------------------------------------------------------------S6302551.JPG
F:\TRABAJOS\Colegios\Arzobispo Crescente Errazuriz\2009\Agenda 2
009\agenda comun\errazur\abuelitos sept 2008
1,49 MB 16-09-2018 13:52:50
S6302551.JPG
F:\TRABAJOS\Colegios\Arzobispo Crescente Errazuriz\2010\agenda 2
010\Agenda 2009\agenda comun\errazur\abuelitos sept 2008
1,49 MB 16-09-20
18 13:52:50
----------------------------------------------------------------------------------------------------------------------------------------------------S6302552.JPG
F:\TRABAJOS\Colegios\Arzobispo Crescente Errazuriz\2009\Agenda 2
009\agenda comun\errazur\abuelitos sept 2008
1,51 MB 16-09-2018 13:52:56
S6302552.JPG
F:\TRABAJOS\Colegios\Arzobispo Crescente Errazuriz\2010\agenda 2
010\Agenda 2009\agenda comun\errazur\abuelitos sept 2008
1,51 MB 16-09-20
18 13:52:56
----------------------------------------------------------------------------------------------------------------------------------------------------S6302553.JPG
F:\TRABAJOS\Colegios\Arzobispo Crescente Errazuriz\2009\Agenda 2
009\agenda comun\errazur\abuelitos sept 2008
1,51 MB 16-09-2018 13:53:16
S6302553.JPG
F:\TRABAJOS\Colegios\Arzobispo Crescente Errazuriz\2010\agenda 2
010\Agenda 2009\agenda comun\errazur\abuelitos sept 2008
1,51 MB 16-09-20
18 13:53:16
----------------------------------------------------------------------------------------------------------------------------------------------------S6302554.JPG
F:\TRABAJOS\Colegios\Arzobispo Crescente Errazuriz\2009\Agenda 2
009\agenda comun\errazur\abuelitos sept 2008
1,51 MB 16-09-2018 13:53:22
S6302554.JPG
F:\TRABAJOS\Colegios\Arzobispo Crescente Errazuriz\2010\agenda 2
010\Agenda 2009\agenda comun\errazur\abuelitos sept 2008
1,51 MB 16-09-20
18 13:53:22
----------------------------------------------------------------------------------------------------------------------------------------------------S6302555.JPG
F:\TRABAJOS\Colegios\Arzobispo Crescente Errazuriz\2009\Agenda 2
009\agenda comun\errazur\abuelitos sept 2008
1,48 MB 16-09-2018 13:53:30

S6302555.JPG
F:\TRABAJOS\Colegios\Arzobispo Crescente Errazuriz\2010\agenda 2
010\Agenda 2009\agenda comun\errazur\abuelitos sept 2008
1,48 MB 16-09-20
18 13:53:30
----------------------------------------------------------------------------------------------------------------------------------------------------S6302556.JPG
F:\TRABAJOS\Colegios\Arzobispo Crescente Errazuriz\2009\Agenda 2
009\agenda comun\errazur\abuelitos sept 2008
1,49 MB 16-09-2018 13:54:56
S6302556.JPG
F:\TRABAJOS\Colegios\Arzobispo Crescente Errazuriz\2010\agenda 2
010\Agenda 2009\agenda comun\errazur\abuelitos sept 2008
1,49 MB 16-09-20
18 13:54:56
----------------------------------------------------------------------------------------------------------------------------------------------------S6302557.JPG
F:\TRABAJOS\Colegios\Arzobispo Crescente Errazuriz\2009\Agenda 2
009\agenda comun\errazur\abuelitos sept 2008
1,50 MB 16-09-2018 13:55:00
S6302557.JPG
F:\TRABAJOS\Colegios\Arzobispo Crescente Errazuriz\2010\agenda 2
010\Agenda 2009\agenda comun\errazur\abuelitos sept 2008
1,50 MB 16-09-20
18 13:55:00
----------------------------------------------------------------------------------------------------------------------------------------------------S6302558.JPG
F:\TRABAJOS\Colegios\Arzobispo Crescente Errazuriz\2009\Agenda 2
009\agenda comun\errazur\abuelitos sept 2008
1,50 MB 16-09-2018 13:55:06
S6302558.JPG
F:\TRABAJOS\Colegios\Arzobispo Crescente Errazuriz\2010\agenda 2
010\Agenda 2009\agenda comun\errazur\abuelitos sept 2008
1,50 MB 16-09-20
18 13:55:06
----------------------------------------------------------------------------------------------------------------------------------------------------S6302560.JPG
F:\TRABAJOS\Colegios\Arzobispo Crescente Errazuriz\2009\Agenda 2
009\agenda comun\errazur\abuelitos sept 2008
1,49 MB 16-09-2018 13:57:30
S6302560.JPG
F:\TRABAJOS\Colegios\Arzobispo Crescente Errazuriz\2010\agenda 2
010\Agenda 2009\agenda comun\errazur\abuelitos sept 2008
1,49 MB 16-09-20
18 13:57:30
----------------------------------------------------------------------------------------------------------------------------------------------------S6302561.JPG
F:\TRABAJOS\Colegios\Arzobispo Crescente Errazuriz\2009\Agenda 2
009\agenda comun\errazur\abuelitos sept 2008
1,51 MB 16-09-2018 13:57:34
S6302561.JPG
F:\TRABAJOS\Colegios\Arzobispo Crescente Errazuriz\2010\agenda 2
010\Agenda 2009\agenda comun\errazur\abuelitos sept 2008
1,51 MB 16-09-20
18 13:57:34
----------------------------------------------------------------------------------------------------------------------------------------------------S6302562.JPG
F:\TRABAJOS\Colegios\Arzobispo Crescente Errazuriz\2009\Agenda 2
009\agenda comun\errazur\abuelitos sept 2008
1,51 MB 16-09-2018 13:57:46
S6302562.JPG
F:\TRABAJOS\Colegios\Arzobispo Crescente Errazuriz\2010\agenda 2
010\Agenda 2009\agenda comun\errazur\abuelitos sept 2008
1,51 MB 16-09-20
18 13:57:46
----------------------------------------------------------------------------------------------------------------------------------------------------S6302563.JPG
F:\TRABAJOS\Colegios\Arzobispo Crescente Errazuriz\2009\Agenda 2
009\agenda comun\errazur\abuelitos sept 2008
1,50 MB 16-09-2018 13:57:58
S6302563.JPG
F:\TRABAJOS\Colegios\Arzobispo Crescente Errazuriz\2010\agenda 2
010\Agenda 2009\agenda comun\errazur\abuelitos sept 2008
1,50 MB 16-09-20
18 13:57:58
----------------------------------------------------------------------------------------------------------------------------------------------------S6302565.JPG
F:\TRABAJOS\Colegios\Arzobispo Crescente Errazuriz\2009\Agenda 2
009\agenda comun\errazur\abuelitos sept 2008
1,44 MB 30-09-2008 0:58:26
S6302565.JPG
F:\TRABAJOS\Colegios\Arzobispo Crescente Errazuriz\2010\agenda 2
010\Agenda 2009\agenda comun\errazur\abuelitos sept 2008
1,44 MB 30-09-20
08 0:58:26
--------------------------------------------------------------------------------

---------------------------------------------------------------------S6302566.JPG
F:\TRABAJOS\Colegios\Arzobispo Crescente Errazuriz\2009\Agenda 2
009\agenda comun\errazur\abuelitos sept 2008
1,52 MB 16-09-2018 14:12:34
S6302566.JPG
F:\TRABAJOS\Colegios\Arzobispo Crescente Errazuriz\2010\agenda 2
010\Agenda 2009\agenda comun\errazur\abuelitos sept 2008
1,52 MB 16-09-20
18 14:12:34
----------------------------------------------------------------------------------------------------------------------------------------------------S6302567.JPG
F:\TRABAJOS\Colegios\Arzobispo Crescente Errazuriz\2009\Agenda 2
009\agenda comun\errazur\abuelitos sept 2008
1,51 MB 16-09-2018 14:13:50
S6302567.JPG
F:\TRABAJOS\Colegios\Arzobispo Crescente Errazuriz\2010\agenda 2
010\Agenda 2009\agenda comun\errazur\abuelitos sept 2008
1,51 MB 16-09-20
18 14:13:50
----------------------------------------------------------------------------------------------------------------------------------------------------S6302568.JPG
F:\TRABAJOS\Colegios\Arzobispo Crescente Errazuriz\2009\Agenda 2
009\agenda comun\errazur\abuelitos sept 2008
1,50 MB 16-09-2018 14:14:04
S6302568.JPG
F:\TRABAJOS\Colegios\Arzobispo Crescente Errazuriz\2010\agenda 2
010\Agenda 2009\agenda comun\errazur\abuelitos sept 2008
1,50 MB 16-09-20
18 14:14:04
----------------------------------------------------------------------------------------------------------------------------------------------------S6302569.JPG
F:\TRABAJOS\Colegios\Arzobispo Crescente Errazuriz\2009\Agenda 2
009\agenda comun\errazur\abuelitos sept 2008
1,49 MB 16-09-2018 14:14:14
S6302569.JPG
F:\TRABAJOS\Colegios\Arzobispo Crescente Errazuriz\2010\agenda 2
010\Agenda 2009\agenda comun\errazur\abuelitos sept 2008
1,49 MB 16-09-20
18 14:14:14
----------------------------------------------------------------------------------------------------------------------------------------------------S6302570.JPG
F:\TRABAJOS\Colegios\Arzobispo Crescente Errazuriz\2009\Agenda 2
009\agenda comun\errazur\abuelitos sept 2008
1,51 MB 16-09-2018 14:14:30
S6302570.JPG
F:\TRABAJOS\Colegios\Arzobispo Crescente Errazuriz\2010\agenda 2
010\Agenda 2009\agenda comun\errazur\abuelitos sept 2008
1,51 MB 16-09-20
18 14:14:30
----------------------------------------------------------------------------------------------------------------------------------------------------S6302571.JPG
F:\TRABAJOS\Colegios\Arzobispo Crescente Errazuriz\2009\Agenda 2
009\agenda comun\errazur\abuelitos sept 2008
1,53 MB 16-09-2018 14:14:48
S6302571.JPG
F:\TRABAJOS\Colegios\Arzobispo Crescente Errazuriz\2010\agenda 2
010\Agenda 2009\agenda comun\errazur\abuelitos sept 2008
1,53 MB 16-09-20
18 14:14:48
----------------------------------------------------------------------------------------------------------------------------------------------------S6302572.JPG
F:\TRABAJOS\Colegios\Arzobispo Crescente Errazuriz\2009\Agenda 2
009\agenda comun\errazur\abuelitos sept 2008
1,49 MB 16-09-2018 14:14:58
S6302572.JPG
F:\TRABAJOS\Colegios\Arzobispo Crescente Errazuriz\2010\agenda 2
010\Agenda 2009\agenda comun\errazur\abuelitos sept 2008
1,49 MB 16-09-20
18 14:14:58
----------------------------------------------------------------------------------------------------------------------------------------------------S6302573.JPG
F:\TRABAJOS\Colegios\Arzobispo Crescente Errazuriz\2009\Agenda 2
009\agenda comun\errazur\abuelitos sept 2008
1,50 MB 16-09-2018 14:15:12
S6302573.JPG
F:\TRABAJOS\Colegios\Arzobispo Crescente Errazuriz\2010\agenda 2
010\Agenda 2009\agenda comun\errazur\abuelitos sept 2008
1,50 MB 16-09-20
18 14:15:12
----------------------------------------------------------------------------------------------------------------------------------------------------S6302574.JPG
F:\TRABAJOS\Colegios\Arzobispo Crescente Errazuriz\2009\Agenda 2
009\agenda comun\errazur\abuelitos sept 2008
1,49 MB 16-09-2018 14:15:32
S6302574.JPG
F:\TRABAJOS\Colegios\Arzobispo Crescente Errazuriz\2010\agenda 2

010\Agenda 2009\agenda comun\errazur\abuelitos sept 2008


1,49 MB 16-09-20
18 14:15:32
----------------------------------------------------------------------------------------------------------------------------------------------------S6302575.JPG
F:\TRABAJOS\Colegios\Arzobispo Crescente Errazuriz\2009\Agenda 2
009\agenda comun\errazur\abuelitos sept 2008
1,51 MB 16-09-2018 14:17:44
S6302575.JPG
F:\TRABAJOS\Colegios\Arzobispo Crescente Errazuriz\2010\agenda 2
010\Agenda 2009\agenda comun\errazur\abuelitos sept 2008
1,51 MB 16-09-20
18 14:17:44
----------------------------------------------------------------------------------------------------------------------------------------------------S6302577.JPG
F:\TRABAJOS\Colegios\Arzobispo Crescente Errazuriz\2009\Agenda 2
009\agenda comun\errazur\abuelitos sept 2008
1,49 MB 16-09-2018 14:22:24
S6302577.JPG
F:\TRABAJOS\Colegios\Arzobispo Crescente Errazuriz\2010\agenda 2
010\Agenda 2009\agenda comun\errazur\abuelitos sept 2008
1,49 MB 16-09-20
18 14:22:24
----------------------------------------------------------------------------------------------------------------------------------------------------S6302578.JPG
F:\TRABAJOS\Colegios\Arzobispo Crescente Errazuriz\2009\Agenda 2
009\agenda comun\errazur\abuelitos sept 2008
1,48 MB 16-09-2018 14:23:14
S6302578.JPG
F:\TRABAJOS\Colegios\Arzobispo Crescente Errazuriz\2010\agenda 2
010\Agenda 2009\agenda comun\errazur\abuelitos sept 2008
1,48 MB 16-09-20
18 14:23:14
----------------------------------------------------------------------------------------------------------------------------------------------------S6302579.JPG
F:\TRABAJOS\Colegios\Arzobispo Crescente Errazuriz\2009\Agenda 2
009\agenda comun\errazur\abuelitos sept 2008
1,52 MB 16-09-2018 14:23:22
S6302579.JPG
F:\TRABAJOS\Colegios\Arzobispo Crescente Errazuriz\2010\agenda 2
010\Agenda 2009\agenda comun\errazur\abuelitos sept 2008
1,52 MB 16-09-20
18 14:23:22
----------------------------------------------------------------------------------------------------------------------------------------------------S6302580.JPG
F:\TRABAJOS\Colegios\Arzobispo Crescente Errazuriz\2009\Agenda 2
009\agenda comun\errazur\abuelitos sept 2008
1,51 MB 16-09-2018 14:23:30
S6302580.JPG
F:\TRABAJOS\Colegios\Arzobispo Crescente Errazuriz\2010\agenda 2
010\Agenda 2009\agenda comun\errazur\abuelitos sept 2008
1,51 MB 16-09-20
18 14:23:30
----------------------------------------------------------------------------------------------------------------------------------------------------S6302581.JPG
F:\TRABAJOS\Colegios\Arzobispo Crescente Errazuriz\2009\Agenda 2
009\agenda comun\errazur\abuelitos sept 2008
1,51 MB 16-09-2018 14:23:46
S6302581.JPG
F:\TRABAJOS\Colegios\Arzobispo Crescente Errazuriz\2010\agenda 2
010\Agenda 2009\agenda comun\errazur\abuelitos sept 2008
1,51 MB 16-09-20
18 14:23:46
----------------------------------------------------------------------------------------------------------------------------------------------------S6302582.JPG
F:\TRABAJOS\Colegios\Arzobispo Crescente Errazuriz\2009\Agenda 2
009\agenda comun\errazur\abuelitos sept 2008
1,51 MB 16-09-2018 14:24:12
S6302582.JPG
F:\TRABAJOS\Colegios\Arzobispo Crescente Errazuriz\2010\agenda 2
010\Agenda 2009\agenda comun\errazur\abuelitos sept 2008
1,51 MB 16-09-20
18 14:24:12
----------------------------------------------------------------------------------------------------------------------------------------------------S6302586.JPG
F:\TRABAJOS\Colegios\Arzobispo Crescente Errazuriz\2009\Agenda 2
009\agenda comun\errazur\abuelitos sept 2008
1,48 MB 16-09-2018 14:33:34
S6302586.JPG
F:\TRABAJOS\Colegios\Arzobispo Crescente Errazuriz\2010\agenda 2
010\Agenda 2009\agenda comun\errazur\abuelitos sept 2008
1,48 MB 16-09-20
18 14:33:34
-----------------------------------------------------------------------------------------------------------------------------------------------------

S6302587.JPG
F:\TRABAJOS\Colegios\Arzobispo Crescente Errazuriz\2009\Agenda 2
009\agenda comun\errazur\abuelitos sept 2008
1,49 MB 16-09-2018 14:33:48
S6302587.JPG
F:\TRABAJOS\Colegios\Arzobispo Crescente Errazuriz\2010\agenda 2
010\Agenda 2009\agenda comun\errazur\abuelitos sept 2008
1,49 MB 16-09-20
18 14:33:48
----------------------------------------------------------------------------------------------------------------------------------------------------S6302588.JPG
F:\TRABAJOS\Colegios\Arzobispo Crescente Errazuriz\2009\Agenda 2
009\agenda comun\errazur\abuelitos sept 2008
1,51 MB 16-09-2018 14:33:54
S6302588.JPG
F:\TRABAJOS\Colegios\Arzobispo Crescente Errazuriz\2010\agenda 2
010\Agenda 2009\agenda comun\errazur\abuelitos sept 2008
1,51 MB 16-09-20
18 14:33:54
----------------------------------------------------------------------------------------------------------------------------------------------------S6302589.JPG
F:\TRABAJOS\Colegios\Arzobispo Crescente Errazuriz\2009\Agenda 2
009\agenda comun\errazur\abuelitos sept 2008
1,50 MB 16-09-2018 14:34:06
S6302589.JPG
F:\TRABAJOS\Colegios\Arzobispo Crescente Errazuriz\2010\agenda 2
010\Agenda 2009\agenda comun\errazur\abuelitos sept 2008
1,50 MB 16-09-20
18 14:34:06
----------------------------------------------------------------------------------------------------------------------------------------------------S6302590.JPG
F:\TRABAJOS\Colegios\Arzobispo Crescente Errazuriz\2009\Agenda 2
009\agenda comun\errazur\abuelitos sept 2008
1,51 MB 16-09-2018 14:34:44
S6302590.JPG
F:\TRABAJOS\Colegios\Arzobispo Crescente Errazuriz\2010\agenda 2
010\Agenda 2009\agenda comun\errazur\abuelitos sept 2008
1,51 MB 16-09-20
18 14:34:44
----------------------------------------------------------------------------------------------------------------------------------------------------S6302591.JPG
F:\TRABAJOS\Colegios\Arzobispo Crescente Errazuriz\2009\Agenda 2
009\agenda comun\errazur\abuelitos sept 2008
1,52 MB 16-09-2018 14:35:32
S6302591.JPG
F:\TRABAJOS\Colegios\Arzobispo Crescente Errazuriz\2010\agenda 2
010\Agenda 2009\agenda comun\errazur\abuelitos sept 2008
1,52 MB 16-09-20
18 14:35:32
----------------------------------------------------------------------------------------------------------------------------------------------------S6302592.JPG
F:\TRABAJOS\Colegios\Arzobispo Crescente Errazuriz\2009\Agenda 2
009\agenda comun\errazur\abuelitos sept 2008
1,49 MB 16-09-2018 14:37:04
S6302592.JPG
F:\TRABAJOS\Colegios\Arzobispo Crescente Errazuriz\2010\agenda 2
010\Agenda 2009\agenda comun\errazur\abuelitos sept 2008
1,49 MB 16-09-20
18 14:37:04
----------------------------------------------------------------------------------------------------------------------------------------------------S6302593.JPG
F:\TRABAJOS\Colegios\Arzobispo Crescente Errazuriz\2009\Agenda 2
009\agenda comun\errazur\abuelitos sept 2008
1,49 MB 16-09-2018 14:37:16
S6302593.JPG
F:\TRABAJOS\Colegios\Arzobispo Crescente Errazuriz\2010\agenda 2
010\Agenda 2009\agenda comun\errazur\abuelitos sept 2008
1,49 MB 16-09-20
18 14:37:16
----------------------------------------------------------------------------------------------------------------------------------------------------S6302594.JPG
F:\TRABAJOS\Colegios\Arzobispo Crescente Errazuriz\2009\Agenda 2
009\agenda comun\errazur\abuelitos sept 2008
1,49 MB 16-09-2018 14:38:06
S6302594.JPG
F:\TRABAJOS\Colegios\Arzobispo Crescente Errazuriz\2010\agenda 2
010\Agenda 2009\agenda comun\errazur\abuelitos sept 2008
1,49 MB 16-09-20
18 14:38:06
----------------------------------------------------------------------------------------------------------------------------------------------------S6302595.JPG
F:\TRABAJOS\Colegios\Arzobispo Crescente Errazuriz\2009\Agenda 2
009\agenda comun\errazur\abuelitos sept 2008
1,49 MB 16-09-2018 14:38:22
S6302595.JPG
F:\TRABAJOS\Colegios\Arzobispo Crescente Errazuriz\2010\agenda 2
010\Agenda 2009\agenda comun\errazur\abuelitos sept 2008
1,49 MB 16-09-20

18 14:38:22
----------------------------------------------------------------------------------------------------------------------------------------------------S6302596.JPG
F:\TRABAJOS\Colegios\Arzobispo Crescente Errazuriz\2009\Agenda 2
009\agenda comun\errazur\abuelitos sept 2008
1,46 MB 16-09-2018 14:38:36
S6302596.JPG
F:\TRABAJOS\Colegios\Arzobispo Crescente Errazuriz\2010\agenda 2
010\Agenda 2009\agenda comun\errazur\abuelitos sept 2008
1,46 MB 16-09-20
18 14:38:36
----------------------------------------------------------------------------------------------------------------------------------------------------S6302597.JPG
F:\TRABAJOS\Colegios\Arzobispo Crescente Errazuriz\2009\Agenda 2
009\agenda comun\errazur\abuelitos sept 2008
1,45 MB 16-09-2018 14:39:06
S6302597.JPG
F:\TRABAJOS\Colegios\Arzobispo Crescente Errazuriz\2010\agenda 2
010\Agenda 2009\agenda comun\errazur\abuelitos sept 2008
1,45 MB 16-09-20
18 14:39:06
----------------------------------------------------------------------------------------------------------------------------------------------------S6302598.JPG
F:\TRABAJOS\Colegios\Arzobispo Crescente Errazuriz\2009\Agenda 2
009\agenda comun\errazur\abuelitos sept 2008
1,51 MB 16-09-2018 14:39:38
S6302598.JPG
F:\TRABAJOS\Colegios\Arzobispo Crescente Errazuriz\2010\agenda 2
010\Agenda 2009\agenda comun\errazur\abuelitos sept 2008
1,51 MB 16-09-20
18 14:39:38
----------------------------------------------------------------------------------------------------------------------------------------------------S6302599.JPG
F:\TRABAJOS\Colegios\Arzobispo Crescente Errazuriz\2009\Agenda 2
009\agenda comun\errazur\abuelitos sept 2008
1,49 MB 16-09-2018 14:40:08
S6302599.JPG
F:\TRABAJOS\Colegios\Arzobispo Crescente Errazuriz\2010\agenda 2
010\Agenda 2009\agenda comun\errazur\abuelitos sept 2008
1,49 MB 16-09-20
18 14:40:08
----------------------------------------------------------------------------------------------------------------------------------------------------S6302600.JPG
F:\TRABAJOS\Colegios\Arzobispo Crescente Errazuriz\2009\Agenda 2
009\agenda comun\errazur\abuelitos sept 2008
1,52 MB 16-09-2018 14:41:04
S6302600.JPG
F:\TRABAJOS\Colegios\Arzobispo Crescente Errazuriz\2010\agenda 2
010\Agenda 2009\agenda comun\errazur\abuelitos sept 2008
1,52 MB 16-09-20
18 14:41:04
----------------------------------------------------------------------------------------------------------------------------------------------------S6302601.JPG
F:\TRABAJOS\Colegios\Arzobispo Crescente Errazuriz\2009\Agenda 2
009\agenda comun\errazur\abuelitos sept 2008
1,51 MB 16-09-2018 14:41:24
S6302601.JPG
F:\TRABAJOS\Colegios\Arzobispo Crescente Errazuriz\2010\agenda 2
010\Agenda 2009\agenda comun\errazur\abuelitos sept 2008
1,51 MB 16-09-20
18 14:41:24
----------------------------------------------------------------------------------------------------------------------------------------------------S6302602.JPG
F:\TRABAJOS\Colegios\Arzobispo Crescente Errazuriz\2009\Agenda 2
009\agenda comun\errazur\abuelitos sept 2008
1,51 MB 16-09-2018 14:41:50
S6302602.JPG
F:\TRABAJOS\Colegios\Arzobispo Crescente Errazuriz\2010\agenda 2
010\Agenda 2009\agenda comun\errazur\abuelitos sept 2008
1,51 MB 16-09-20
18 14:41:50
----------------------------------------------------------------------------------------------------------------------------------------------------S6302603.JPG
F:\TRABAJOS\Colegios\Arzobispo Crescente Errazuriz\2009\Agenda 2
009\agenda comun\errazur\abuelitos sept 2008
1,50 MB 16-09-2018 14:42:12
S6302603.JPG
F:\TRABAJOS\Colegios\Arzobispo Crescente Errazuriz\2010\agenda 2
010\Agenda 2009\agenda comun\errazur\abuelitos sept 2008
1,50 MB 16-09-20
18 14:42:12
----------------------------------------------------------------------------------------------------------------------------------------------------S6302604.JPG
F:\TRABAJOS\Colegios\Arzobispo Crescente Errazuriz\2009\Agenda 2

009\agenda comun\errazur\abuelitos sept 2008


1,49 MB 16-09-2018 14:42:50
S6302604.JPG
F:\TRABAJOS\Colegios\Arzobispo Crescente Errazuriz\2010\agenda 2
010\Agenda 2009\agenda comun\errazur\abuelitos sept 2008
1,49 MB 16-09-20
18 14:42:50
----------------------------------------------------------------------------------------------------------------------------------------------------S6302605.JPG
F:\TRABAJOS\Colegios\Arzobispo Crescente Errazuriz\2009\Agenda 2
009\agenda comun\errazur\abuelitos sept 2008
1,49 MB 16-09-2018 14:43:00
S6302605.JPG
F:\TRABAJOS\Colegios\Arzobispo Crescente Errazuriz\2010\agenda 2
010\Agenda 2009\agenda comun\errazur\abuelitos sept 2008
1,49 MB 16-09-20
18 14:43:00
----------------------------------------------------------------------------------------------------------------------------------------------------S6302606.JPG
F:\TRABAJOS\Colegios\Arzobispo Crescente Errazuriz\2009\Agenda 2
009\agenda comun\errazur\abuelitos sept 2008
1,51 MB 16-09-2018 14:43:42
S6302606.JPG
F:\TRABAJOS\Colegios\Arzobispo Crescente Errazuriz\2010\agenda 2
010\Agenda 2009\agenda comun\errazur\abuelitos sept 2008
1,51 MB 16-09-20
18 14:43:42
----------------------------------------------------------------------------------------------------------------------------------------------------S6302607.JPG
F:\TRABAJOS\Colegios\Arzobispo Crescente Errazuriz\2009\Agenda 2
009\agenda comun\errazur\abuelitos sept 2008
1,50 MB 16-09-2018 14:43:58
S6302607.JPG
F:\TRABAJOS\Colegios\Arzobispo Crescente Errazuriz\2010\agenda 2
010\Agenda 2009\agenda comun\errazur\abuelitos sept 2008
1,50 MB 16-09-20
18 14:43:58
----------------------------------------------------------------------------------------------------------------------------------------------------S6302608.JPG
F:\TRABAJOS\Colegios\Arzobispo Crescente Errazuriz\2009\Agenda 2
009\agenda comun\errazur\abuelitos sept 2008
1,51 MB 16-09-2018 14:44:18
S6302608.JPG
F:\TRABAJOS\Colegios\Arzobispo Crescente Errazuriz\2010\agenda 2
010\Agenda 2009\agenda comun\errazur\abuelitos sept 2008
1,51 MB 16-09-20
18 14:44:18
----------------------------------------------------------------------------------------------------------------------------------------------------S6302609.JPG
F:\TRABAJOS\Colegios\Arzobispo Crescente Errazuriz\2009\Agenda 2
009\agenda comun\errazur\abuelitos sept 2008
1,49 MB 16-09-2018 14:46:26
S6302609.JPG
F:\TRABAJOS\Colegios\Arzobispo Crescente Errazuriz\2010\agenda 2
010\Agenda 2009\agenda comun\errazur\abuelitos sept 2008
1,49 MB 16-09-20
18 14:46:26
----------------------------------------------------------------------------------------------------------------------------------------------------S6302610.JPG
F:\TRABAJOS\Colegios\Arzobispo Crescente Errazuriz\2009\Agenda 2
009\agenda comun\errazur\abuelitos sept 2008
1,51 MB 16-09-2018 14:47:04
S6302610.JPG
F:\TRABAJOS\Colegios\Arzobispo Crescente Errazuriz\2010\agenda 2
010\Agenda 2009\agenda comun\errazur\abuelitos sept 2008
1,51 MB 16-09-20
18 14:47:04
----------------------------------------------------------------------------------------------------------------------------------------------------S6302611.JPG
F:\TRABAJOS\Colegios\Arzobispo Crescente Errazuriz\2009\Agenda 2
009\agenda comun\errazur\abuelitos sept 2008
1,51 MB 16-09-2018 14:48:00
S6302611.JPG
F:\TRABAJOS\Colegios\Arzobispo Crescente Errazuriz\2010\agenda 2
010\Agenda 2009\agenda comun\errazur\abuelitos sept 2008
1,51 MB 16-09-20
18 14:48:00
----------------------------------------------------------------------------------------------------------------------------------------------------S6302612.JPG
F:\TRABAJOS\Colegios\Arzobispo Crescente Errazuriz\2009\Agenda 2
009\agenda comun\errazur\abuelitos sept 2008
1,51 MB 16-09-2018 14:54:30
S6302612.JPG
F:\TRABAJOS\Colegios\Arzobispo Crescente Errazuriz\2010\agenda 2
010\Agenda 2009\agenda comun\errazur\abuelitos sept 2008
1,51 MB 16-09-20
18 14:54:30

----------------------------------------------------------------------------------------------------------------------------------------------------S6302613.JPG
F:\TRABAJOS\Colegios\Arzobispo Crescente Errazuriz\2009\Agenda 2
009\agenda comun\errazur\abuelitos sept 2008
1,48 MB 16-09-2018 14:54:38
S6302613.JPG
F:\TRABAJOS\Colegios\Arzobispo Crescente Errazuriz\2010\agenda 2
010\Agenda 2009\agenda comun\errazur\abuelitos sept 2008
1,48 MB 16-09-20
18 14:54:38
----------------------------------------------------------------------------------------------------------------------------------------------------S6302614.JPG
F:\TRABAJOS\Colegios\Arzobispo Crescente Errazuriz\2009\Agenda 2
009\agenda comun\errazur\abuelitos sept 2008
1,50 MB 16-09-2018 14:54:50
S6302614.JPG
F:\TRABAJOS\Colegios\Arzobispo Crescente Errazuriz\2010\agenda 2
010\Agenda 2009\agenda comun\errazur\abuelitos sept 2008
1,50 MB 16-09-20
18 14:54:50
----------------------------------------------------------------------------------------------------------------------------------------------------S6302615.JPG
F:\TRABAJOS\Colegios\Arzobispo Crescente Errazuriz\2009\Agenda 2
009\agenda comun\errazur\abuelitos sept 2008
1,50 MB 16-09-2018 14:55:04
S6302615.JPG
F:\TRABAJOS\Colegios\Arzobispo Crescente Errazuriz\2010\agenda 2
010\Agenda 2009\agenda comun\errazur\abuelitos sept 2008
1,50 MB 16-09-20
18 14:55:04
----------------------------------------------------------------------------------------------------------------------------------------------------S6302616.JPG
F:\TRABAJOS\Colegios\Arzobispo Crescente Errazuriz\2009\Agenda 2
009\agenda comun\errazur\abuelitos sept 2008
1,48 MB 16-09-2018 14:58:00
S6302616.JPG
F:\TRABAJOS\Colegios\Arzobispo Crescente Errazuriz\2010\agenda 2
010\Agenda 2009\agenda comun\errazur\abuelitos sept 2008
1,48 MB 16-09-20
18 14:58:00
----------------------------------------------------------------------------------------------------------------------------------------------------S6302617.JPG
F:\TRABAJOS\Colegios\Arzobispo Crescente Errazuriz\2009\Agenda 2
009\agenda comun\errazur\abuelitos sept 2008
1,50 MB 16-09-2018 14:58:18
S6302617.JPG
F:\TRABAJOS\Colegios\Arzobispo Crescente Errazuriz\2010\agenda 2
010\Agenda 2009\agenda comun\errazur\abuelitos sept 2008
1,50 MB 16-09-20
18 14:58:18
----------------------------------------------------------------------------------------------------------------------------------------------------S6302618.JPG
F:\TRABAJOS\Colegios\Arzobispo Crescente Errazuriz\2009\Agenda 2
009\agenda comun\errazur\abuelitos sept 2008
1,51 MB 16-09-2018 15:06:18
S6302618.JPG
F:\TRABAJOS\Colegios\Arzobispo Crescente Errazuriz\2010\agenda 2
010\Agenda 2009\agenda comun\errazur\abuelitos sept 2008
1,51 MB 16-09-20
18 15:06:18
----------------------------------------------------------------------------------------------------------------------------------------------------S6302619.JPG
F:\TRABAJOS\Colegios\Arzobispo Crescente Errazuriz\2009\Agenda 2
009\agenda comun\errazur\abuelitos sept 2008
1,50 MB 16-09-2018 15:06:36
S6302619.JPG
F:\TRABAJOS\Colegios\Arzobispo Crescente Errazuriz\2010\agenda 2
010\Agenda 2009\agenda comun\errazur\abuelitos sept 2008
1,50 MB 16-09-20
18 15:06:36
----------------------------------------------------------------------------------------------------------------------------------------------------Copia de DSC02132.JPG F:\TRABAJOS\Colegios\Arzobispo Crescente Errazuriz\2009\
Agenda 2009\agenda comun\errazur\Caminata Los Andes 2008
3,34 MB 18-10-20
08 23:01:30
Copia de DSC02132.JPG F:\TRABAJOS\Colegios\Arzobispo Crescente Errazuriz\2010\
agenda 2010\Agenda 2009\agenda comun\errazur\Caminata Los Andes 2008
3,34 MB
18-10-2008 23:01:30
----------------------------------------------------------------------------------------------------------------------------------------------------Copia de DSC02135.JPG F:\TRABAJOS\Colegios\Arzobispo Crescente Errazuriz\2009\

Agenda 2009\agenda comun\errazur\Caminata Los Andes 2008


3,33 MB 18-10-20
08 23:02:26
Copia de DSC02135.JPG F:\TRABAJOS\Colegios\Arzobispo Crescente Errazuriz\2010\
agenda 2010\Agenda 2009\agenda comun\errazur\Caminata Los Andes 2008
3,33 MB
18-10-2008 23:02:26
----------------------------------------------------------------------------------------------------------------------------------------------------Copia de DSC02136.JPG F:\TRABAJOS\Colegios\Arzobispo Crescente Errazuriz\2009\
Agenda 2009\agenda comun\errazur\Caminata Los Andes 2008
3,18 MB 18-10-20
08 23:02:32
Copia de DSC02136.JPG F:\TRABAJOS\Colegios\Arzobispo Crescente Errazuriz\2010\
agenda 2010\Agenda 2009\agenda comun\errazur\Caminata Los Andes 2008
3,18 MB
18-10-2008 23:02:32
----------------------------------------------------------------------------------------------------------------------------------------------------DSC02128.JPG
F:\TRABAJOS\Colegios\Arzobispo Crescente Errazuriz\2009\Agenda 2
009\agenda comun\errazur\Caminata Los Andes 2008
3,33 MB 18-10-2008 22:59
:36
DSC02128.JPG
F:\TRABAJOS\Colegios\Arzobispo Crescente Errazuriz\2009\Agenda 2
009\agenda comun\errazur\Caminata Los Andes 2008\Seleccin FBE 3,33 MB 18-10-20
08 22:59:36
DSC02128.JPG
F:\TRABAJOS\Colegios\Arzobispo Crescente Errazuriz\2010\agenda 2
010\Agenda 2009\agenda comun\errazur\Caminata Los Andes 2008
3,33 MB 18-10-20
08 22:59:36
DSC02128.JPG
F:\TRABAJOS\Colegios\Arzobispo Crescente Errazuriz\2010\agenda 2
010\Agenda 2009\agenda comun\errazur\Caminata Los Andes 2008\Seleccin FBE
3,33 MB 18-10-2008 22:59:36
----------------------------------------------------------------------------------------------------------------------------------------------------DSC02129.JPG
F:\TRABAJOS\Colegios\Arzobispo Crescente Errazuriz\2009\Agenda 2
009\agenda comun\errazur\Caminata Los Andes 2008
3,09 MB 19-10-2008 23:23
:32
DSC02129.JPG
F:\TRABAJOS\Colegios\Arzobispo Crescente Errazuriz\2010\agenda 2
010\Agenda 2009\agenda comun\errazur\Caminata Los Andes 2008
3,09 MB 19-10-20
08 23:23:32
----------------------------------------------------------------------------------------------------------------------------------------------------DSC02130.JPG
F:\TRABAJOS\Colegios\Arzobispo Crescente Errazuriz\2009\Agenda 2
009\agenda comun\errazur\Caminata Los Andes 2008
3,35 MB 18-10-2008 23:00
:50
DSC02130.JPG
F:\TRABAJOS\Colegios\Arzobispo Crescente Errazuriz\2010\agenda 2
010\Agenda 2009\agenda comun\errazur\Caminata Los Andes 2008
3,35 MB 18-10-20
08 23:00:50
----------------------------------------------------------------------------------------------------------------------------------------------------DSC02131.JPG
F:\TRABAJOS\Colegios\Arzobispo Crescente Errazuriz\2009\Agenda 2
009\agenda comun\errazur\Caminata Los Andes 2008
3,34 MB 18-10-2008 23:01
:22
DSC02131.JPG
F:\TRABAJOS\Colegios\Arzobispo Crescente Errazuriz\2010\agenda 2
010\Agenda 2009\agenda comun\errazur\Caminata Los Andes 2008
3,34 MB 18-10-20
08 23:01:22
----------------------------------------------------------------------------------------------------------------------------------------------------DSC02132.JPG
F:\TRABAJOS\Colegios\Arzobispo Crescente Errazuriz\2009\Agenda 2
009\agenda comun\errazur\Caminata Los Andes 2008
3,34 MB 18-10-2008 23:01
:30
DSC02132.JPG
F:\TRABAJOS\Colegios\Arzobispo Crescente Errazuriz\2010\agenda 2
010\Agenda 2009\agenda comun\errazur\Caminata Los Andes 2008
3,34 MB 18-10-20
08 23:01:30
--------------------------------------------------------------------------------

---------------------------------------------------------------------DSC02133.JPG
F:\TRABAJOS\Colegios\Arzobispo Crescente Errazuriz\2009\Agenda 2
009\agenda comun\errazur\Caminata Los Andes 2008
3,60 MB 18-10-2008 23:01
:38
DSC02133.JPG
F:\TRABAJOS\Colegios\Arzobispo Crescente Errazuriz\2010\agenda 2
010\Agenda 2009\agenda comun\errazur\Caminata Los Andes 2008
3,60 MB 18-10-20
08 23:01:38
----------------------------------------------------------------------------------------------------------------------------------------------------DSC02134.JPG
F:\TRABAJOS\Colegios\Arzobispo Crescente Errazuriz\2009\Agenda 2
009\agenda comun\errazur\Caminata Los Andes 2008
3,35 MB 18-10-2008 23:02
:14
DSC02134.JPG
F:\TRABAJOS\Colegios\Arzobispo Crescente Errazuriz\2010\agenda 2
010\Agenda 2009\agenda comun\errazur\Caminata Los Andes 2008
3,35 MB 18-10-20
08 23:02:14
----------------------------------------------------------------------------------------------------------------------------------------------------DSC02135.JPG
F:\TRABAJOS\Colegios\Arzobispo Crescente Errazuriz\2009\Agenda 2
009\agenda comun\errazur\Caminata Los Andes 2008
3,33 MB 18-10-2008 23:02
:26
DSC02135.JPG
F:\TRABAJOS\Colegios\Arzobispo Crescente Errazuriz\2010\agenda 2
010\Agenda 2009\agenda comun\errazur\Caminata Los Andes 2008
3,33 MB 18-10-20
08 23:02:26
----------------------------------------------------------------------------------------------------------------------------------------------------DSC02136.JPG
F:\TRABAJOS\Colegios\Arzobispo Crescente Errazuriz\2009\Agenda 2
009\agenda comun\errazur\Caminata Los Andes 2008
3,18 MB 18-10-2008 23:02
:32
DSC02136.JPG
F:\TRABAJOS\Colegios\Arzobispo Crescente Errazuriz\2009\Agenda 2
009\agenda comun\errazur\Caminata Los Andes 2008\Seleccin FBE 3,18 MB 18-10-20
08 23:02:32
DSC02136.JPG
F:\TRABAJOS\Colegios\Arzobispo Crescente Errazuriz\2010\agenda 2
010\Agenda 2009\agenda comun\errazur\Caminata Los Andes 2008
3,18 MB 18-10-20
08 23:02:32
DSC02136.JPG
F:\TRABAJOS\Colegios\Arzobispo Crescente Errazuriz\2010\agenda 2
010\Agenda 2009\agenda comun\errazur\Caminata Los Andes 2008\Seleccin FBE
3,18 MB 18-10-2008 23:02:32
----------------------------------------------------------------------------------------------------------------------------------------------------DSC02137.JPG
F:\TRABAJOS\Colegios\Arzobispo Crescente Errazuriz\2009\Agenda 2
009\agenda comun\errazur\Caminata Los Andes 2008
3,34 MB 18-10-2008 23:02
:44
DSC02137.JPG
F:\TRABAJOS\Colegios\Arzobispo Crescente Errazuriz\2010\agenda 2
010\Agenda 2009\agenda comun\errazur\Caminata Los Andes 2008
3,34 MB 18-10-20
08 23:02:44
----------------------------------------------------------------------------------------------------------------------------------------------------DSC02138.JPG
F:\TRABAJOS\Colegios\Arzobispo Crescente Errazuriz\2009\Agenda 2
009\agenda comun\errazur\Caminata Los Andes 2008
3,27 MB 18-10-2008 23:02
:54
DSC02138.JPG
F:\TRABAJOS\Colegios\Arzobispo Crescente Errazuriz\2010\agenda 2
010\Agenda 2009\agenda comun\errazur\Caminata Los Andes 2008
3,27 MB 18-10-20
08 23:02:54
----------------------------------------------------------------------------------------------------------------------------------------------------DSC02139.JPG
F:\TRABAJOS\Colegios\Arzobispo Crescente Errazuriz\2009\Agenda 2
009\agenda comun\errazur\Caminata Los Andes 2008
3,09 MB 18-10-2008 23:03
:14
DSC02139.JPG
F:\TRABAJOS\Colegios\Arzobispo Crescente Errazuriz\2010\agenda 2
010\Agenda 2009\agenda comun\errazur\Caminata Los Andes 2008
3,09 MB 18-10-20

08 23:03:14
----------------------------------------------------------------------------------------------------------------------------------------------------DSC02140.JPG
F:\TRABAJOS\Colegios\Arzobispo Crescente Errazuriz\2009\Agenda 2
009\agenda comun\errazur\Caminata Los Andes 2008
3,18 MB 19-10-2008 23:24
:00
DSC02140.JPG
F:\TRABAJOS\Colegios\Arzobispo Crescente Errazuriz\2010\agenda 2
010\Agenda 2009\agenda comun\errazur\Caminata Los Andes 2008
3,18 MB 19-10-20
08 23:24:00
----------------------------------------------------------------------------------------------------------------------------------------------------DSC02141.JPG
F:\TRABAJOS\Colegios\Arzobispo Crescente Errazuriz\2009\Agenda 2
009\agenda comun\errazur\Caminata Los Andes 2008
3,16 MB 19-10-2008 23:24
:08
DSC02141.JPG
F:\TRABAJOS\Colegios\Arzobispo Crescente Errazuriz\2010\agenda 2
010\Agenda 2009\agenda comun\errazur\Caminata Los Andes 2008
3,16 MB 19-10-20
08 23:24:08
----------------------------------------------------------------------------------------------------------------------------------------------------DSC02142.JPG
F:\TRABAJOS\Colegios\Arzobispo Crescente Errazuriz\2009\Agenda 2
009\agenda comun\errazur\Caminata Los Andes 2008
3,57 MB 18-10-2008 23:07
:06
DSC02142.JPG
F:\TRABAJOS\Colegios\Arzobispo Crescente Errazuriz\2010\agenda 2
010\Agenda 2009\agenda comun\errazur\Caminata Los Andes 2008
3,57 MB 18-10-20
08 23:07:06
----------------------------------------------------------------------------------------------------------------------------------------------------DSC02143.JPG
F:\TRABAJOS\Colegios\Arzobispo Crescente Errazuriz\2009\Agenda 2
009\agenda comun\errazur\Caminata Los Andes 2008
3,37 MB 18-10-2008 23:08
:26
DSC02143.JPG
F:\TRABAJOS\Colegios\Arzobispo Crescente Errazuriz\2010\agenda 2
010\Agenda 2009\agenda comun\errazur\Caminata Los Andes 2008
3,37 MB 18-10-20
08 23:08:26
----------------------------------------------------------------------------------------------------------------------------------------------------DSC02144.JPG
F:\TRABAJOS\Colegios\Arzobispo Crescente Errazuriz\2009\Agenda 2
009\agenda comun\errazur\Caminata Los Andes 2008
3,61 MB 18-10-2008 23:25
:44
DSC02144.JPG
F:\TRABAJOS\Colegios\Arzobispo Crescente Errazuriz\2010\agenda 2
010\Agenda 2009\agenda comun\errazur\Caminata Los Andes 2008
3,61 MB 18-10-20
08 23:25:44
----------------------------------------------------------------------------------------------------------------------------------------------------DSC02145.JPG
F:\TRABAJOS\Colegios\Arzobispo Crescente Errazuriz\2009\Agenda 2
009\agenda comun\errazur\Caminata Los Andes 2008
3,64 MB 18-10-2008 23:25
:52
DSC02145.JPG
F:\TRABAJOS\Colegios\Arzobispo Crescente Errazuriz\2010\agenda 2
010\Agenda 2009\agenda comun\errazur\Caminata Los Andes 2008
3,64 MB 18-10-20
08 23:25:52
----------------------------------------------------------------------------------------------------------------------------------------------------DSC02146.JPG
F:\TRABAJOS\Colegios\Arzobispo Crescente Errazuriz\2009\Agenda 2
009\agenda comun\errazur\Caminata Los Andes 2008
3,38 MB 19-10-2008 0:00:
16
DSC02146.JPG
F:\TRABAJOS\Colegios\Arzobispo Crescente Errazuriz\2010\agenda 2
010\Agenda 2009\agenda comun\errazur\Caminata Los Andes 2008
3,38 MB 19-10-20
08 0:00:16
----------------------------------------------------------------------------------------------------------------------------------------------------DSC02147.JPG
F:\TRABAJOS\Colegios\Arzobispo Crescente Errazuriz\2009\Agenda 2

009\agenda comun\errazur\Caminata Los Andes 2008


3,61 MB 19-10-2008 0:00:
20
DSC02147.JPG
F:\TRABAJOS\Colegios\Arzobispo Crescente Errazuriz\2010\agenda 2
010\Agenda 2009\agenda comun\errazur\Caminata Los Andes 2008
3,61 MB 19-10-20
08 0:00:20
----------------------------------------------------------------------------------------------------------------------------------------------------DSC02148.JPG
F:\TRABAJOS\Colegios\Arzobispo Crescente Errazuriz\2009\Agenda 2
009\agenda comun\errazur\Caminata Los Andes 2008
3,57 MB 19-10-2008 0:00:
26
DSC02148.JPG
F:\TRABAJOS\Colegios\Arzobispo Crescente Errazuriz\2010\agenda 2
010\Agenda 2009\agenda comun\errazur\Caminata Los Andes 2008
3,57 MB 19-10-20
08 0:00:26
----------------------------------------------------------------------------------------------------------------------------------------------------DSC02149.JPG
F:\TRABAJOS\Colegios\Arzobispo Crescente Errazuriz\2009\Agenda 2
009\agenda comun\errazur\Caminata Los Andes 2008
3,45 MB 19-10-2008 0:31:
42
DSC02149.JPG
F:\TRABAJOS\Colegios\Arzobispo Crescente Errazuriz\2009\Agenda 2
009\agenda comun\errazur\Caminata Los Andes 2008\Seleccin FBE 3,45 MB 19-10-20
08 0:31:42
DSC02149.JPG
F:\TRABAJOS\Colegios\Arzobispo Crescente Errazuriz\2010\agenda 2
010\Agenda 2009\agenda comun\errazur\Caminata Los Andes 2008
3,45 MB 19-10-20
08 0:31:42
DSC02149.JPG
F:\TRABAJOS\Colegios\Arzobispo Crescente Errazuriz\2010\agenda 2
010\Agenda 2009\agenda comun\errazur\Caminata Los Andes 2008\Seleccin FBE
3,45 MB 19-10-2008 0:31:42
----------------------------------------------------------------------------------------------------------------------------------------------------DSC02150.JPG
F:\TRABAJOS\Colegios\Arzobispo Crescente Errazuriz\2009\Agenda 2
009\agenda comun\errazur\Caminata Los Andes 2008
3,56 MB 19-10-2008 23:24
:36
DSC02150.JPG
F:\TRABAJOS\Colegios\Arzobispo Crescente Errazuriz\2010\agenda 2
010\Agenda 2009\agenda comun\errazur\Caminata Los Andes 2008
3,56 MB 19-10-20
08 23:24:36
----------------------------------------------------------------------------------------------------------------------------------------------------DSC02151.JPG
F:\TRABAJOS\Colegios\Arzobispo Crescente Errazuriz\2009\Agenda 2
009\agenda comun\errazur\Caminata Los Andes 2008
3,57 MB 19-10-2008 23:24
:40
DSC02151.JPG
F:\TRABAJOS\Colegios\Arzobispo Crescente Errazuriz\2010\agenda 2
010\Agenda 2009\agenda comun\errazur\Caminata Los Andes 2008
3,57 MB 19-10-20
08 23:24:40
----------------------------------------------------------------------------------------------------------------------------------------------------DSC02152.JPG
F:\TRABAJOS\Colegios\Arzobispo Crescente Errazuriz\2009\Agenda 2
009\agenda comun\errazur\Caminata Los Andes 2008
3,61 MB 19-10-2008 1:07:
40
DSC02152.JPG
F:\TRABAJOS\Colegios\Arzobispo Crescente Errazuriz\2010\agenda 2
010\Agenda 2009\agenda comun\errazur\Caminata Los Andes 2008
3,61 MB 19-10-20
08 1:07:40
----------------------------------------------------------------------------------------------------------------------------------------------------DSC02153.JPG
F:\TRABAJOS\Colegios\Arzobispo Crescente Errazuriz\2009\Agenda 2
009\agenda comun\errazur\Caminata Los Andes 2008
3,05 MB 19-10-2008 23:24
:46
DSC02153.JPG
F:\TRABAJOS\Colegios\Arzobispo Crescente Errazuriz\2010\agenda 2
010\Agenda 2009\agenda comun\errazur\Caminata Los Andes 2008
3,05 MB 19-10-20
08 23:24:46
--------------------------------------------------------------------------------

---------------------------------------------------------------------DSC02155.JPG
F:\TRABAJOS\Colegios\Arzobispo Crescente Errazuriz\2009\Agenda 2
009\agenda comun\errazur\Caminata Los Andes 2008
3,54 MB 19-10-2008 1:08:
22
DSC02155.JPG
F:\TRABAJOS\Colegios\Arzobispo Crescente Errazuriz\2010\agenda 2
010\Agenda 2009\agenda comun\errazur\Caminata Los Andes 2008
3,54 MB 19-10-20
08 1:08:22
----------------------------------------------------------------------------------------------------------------------------------------------------DSC02156.JPG
F:\TRABAJOS\Colegios\Arzobispo Crescente Errazuriz\2009\Agenda 2
009\agenda comun\errazur\Caminata Los Andes 2008
3,44 MB 19-10-2008 23:24
:56
DSC02156.JPG
F:\TRABAJOS\Colegios\Arzobispo Crescente Errazuriz\2010\agenda 2
010\Agenda 2009\agenda comun\errazur\Caminata Los Andes 2008
3,44 MB 19-10-20
08 23:24:56
----------------------------------------------------------------------------------------------------------------------------------------------------DSC02157.JPG
F:\TRABAJOS\Colegios\Arzobispo Crescente Errazuriz\2009\Agenda 2
009\agenda comun\errazur\Caminata Los Andes 2008
3,20 MB 19-10-2008 1:08:
38
DSC02157.JPG
F:\TRABAJOS\Colegios\Arzobispo Crescente Errazuriz\2010\agenda 2
010\Agenda 2009\agenda comun\errazur\Caminata Los Andes 2008
3,20 MB 19-10-20
08 1:08:38
----------------------------------------------------------------------------------------------------------------------------------------------------DSC02158.JPG
F:\TRABAJOS\Colegios\Arzobispo Crescente Errazuriz\2009\Agenda 2
009\agenda comun\errazur\Caminata Los Andes 2008
3,10 MB 19-10-2008 23:25
:00
DSC02158.JPG
F:\TRABAJOS\Colegios\Arzobispo Crescente Errazuriz\2010\agenda 2
010\Agenda 2009\agenda comun\errazur\Caminata Los Andes 2008
3,10 MB 19-10-20
08 23:25:00
----------------------------------------------------------------------------------------------------------------------------------------------------DSC02160.JPG
F:\TRABAJOS\Colegios\Arzobispo Crescente Errazuriz\2009\Agenda 2
009\agenda comun\errazur\Caminata Los Andes 2008
3,03 MB 19-10-2008 23:25
:06
DSC02160.JPG
F:\TRABAJOS\Colegios\Arzobispo Crescente Errazuriz\2010\agenda 2
010\Agenda 2009\agenda comun\errazur\Caminata Los Andes 2008
3,03 MB 19-10-20
08 23:25:06
----------------------------------------------------------------------------------------------------------------------------------------------------DSC02161.JPG
F:\TRABAJOS\Colegios\Arzobispo Crescente Errazuriz\2009\Agenda 2
009\agenda comun\errazur\Caminata Los Andes 2008
3,16 MB 19-10-2008 23:25
:10
DSC02161.JPG
F:\TRABAJOS\Colegios\Arzobispo Crescente Errazuriz\2010\agenda 2
010\Agenda 2009\agenda comun\errazur\Caminata Los Andes 2008
3,16 MB 19-10-20
08 23:25:10
----------------------------------------------------------------------------------------------------------------------------------------------------DSC02162.JPG
F:\TRABAJOS\Colegios\Arzobispo Crescente Errazuriz\2009\Agenda 2
009\agenda comun\errazur\Caminata Los Andes 2008
3,30 MB 19-10-2008 1:46:
56
DSC02162.JPG
F:\TRABAJOS\Colegios\Arzobispo Crescente Errazuriz\2010\agenda 2
010\Agenda 2009\agenda comun\errazur\Caminata Los Andes 2008
3,30 MB 19-10-20
08 1:46:56
----------------------------------------------------------------------------------------------------------------------------------------------------DSC02164.JPG
F:\TRABAJOS\Colegios\Arzobispo Crescente Errazuriz\2009\Agenda 2
009\agenda comun\errazur\Caminata Los Andes 2008
3,54 MB 19-10-2008 2:10:
02

DSC02164.JPG
F:\TRABAJOS\Colegios\Arzobispo Crescente Errazuriz\2010\agenda 2
010\Agenda 2009\agenda comun\errazur\Caminata Los Andes 2008
3,54 MB 19-10-20
08 2:10:02
----------------------------------------------------------------------------------------------------------------------------------------------------DSC02165.JPG
F:\TRABAJOS\Colegios\Arzobispo Crescente Errazuriz\2009\Agenda 2
009\agenda comun\errazur\Caminata Los Andes 2008
3,48 MB 19-10-2008 2:10:
12
DSC02165.JPG
F:\TRABAJOS\Colegios\Arzobispo Crescente Errazuriz\2009\Agenda 2
009\agenda comun\errazur\Caminata Los Andes 2008\Seleccin FBE 3,48 MB 19-10-20
08 2:10:12
DSC02165.JPG
F:\TRABAJOS\Colegios\Arzobispo Crescente Errazuriz\2010\agenda 2
010\Agenda 2009\agenda comun\errazur\Caminata Los Andes 2008
3,48 MB 19-10-20
08 2:10:12
DSC02165.JPG
F:\TRABAJOS\Colegios\Arzobispo Crescente Errazuriz\2010\agenda 2
010\Agenda 2009\agenda comun\errazur\Caminata Los Andes 2008\Seleccin FBE
3,48 MB 19-10-2008 2:10:12
----------------------------------------------------------------------------------------------------------------------------------------------------DSC02166.JPG
F:\TRABAJOS\Colegios\Arzobispo Crescente Errazuriz\2009\Agenda 2
009\agenda comun\errazur\Caminata Los Andes 2008
3,50 MB 19-10-2008 23:25
:34
DSC02166.JPG
F:\TRABAJOS\Colegios\Arzobispo Crescente Errazuriz\2010\agenda 2
010\Agenda 2009\agenda comun\errazur\Caminata Los Andes 2008
3,50 MB 19-10-20
08 23:25:34
----------------------------------------------------------------------------------------------------------------------------------------------------DSC02167.JPG
F:\TRABAJOS\Colegios\Arzobispo Crescente Errazuriz\2009\Agenda 2
009\agenda comun\errazur\Caminata Los Andes 2008
3,47 MB 19-10-2008 2:10:
40
DSC02167.JPG
F:\TRABAJOS\Colegios\Arzobispo Crescente Errazuriz\2010\agenda 2
010\Agenda 2009\agenda comun\errazur\Caminata Los Andes 2008
3,47 MB 19-10-20
08 2:10:40
----------------------------------------------------------------------------------------------------------------------------------------------------DSC02168.JPG
F:\TRABAJOS\Colegios\Arzobispo Crescente Errazuriz\2009\Agenda 2
009\agenda comun\errazur\Caminata Los Andes 2008
3,37 MB 19-10-2008 2:11:
24
DSC02168.JPG
F:\TRABAJOS\Colegios\Arzobispo Crescente Errazuriz\2010\agenda 2
010\Agenda 2009\agenda comun\errazur\Caminata Los Andes 2008
3,37 MB 19-10-20
08 2:11:24
----------------------------------------------------------------------------------------------------------------------------------------------------DSC02169.JPG
F:\TRABAJOS\Colegios\Arzobispo Crescente Errazuriz\2009\Agenda 2
009\agenda comun\errazur\Caminata Los Andes 2008
3,63 MB 19-10-2008 2:12:
00
DSC02169.JPG
F:\TRABAJOS\Colegios\Arzobispo Crescente Errazuriz\2010\agenda 2
010\Agenda 2009\agenda comun\errazur\Caminata Los Andes 2008
3,63 MB 19-10-20
08 2:12:00
----------------------------------------------------------------------------------------------------------------------------------------------------DSC02170.JPG
F:\TRABAJOS\Colegios\Arzobispo Crescente Errazuriz\2009\Agenda 2
009\agenda comun\errazur\Caminata Los Andes 2008
3,41 MB 19-10-2008 2:12:
10
DSC02170.JPG
F:\TRABAJOS\Colegios\Arzobispo Crescente Errazuriz\2010\agenda 2
010\Agenda 2009\agenda comun\errazur\Caminata Los Andes 2008
3,41 MB 19-10-20
08 2:12:10
----------------------------------------------------------------------------------------------------------------------------------------------------DSC02171.JPG
F:\TRABAJOS\Colegios\Arzobispo Crescente Errazuriz\2009\Agenda 2

009\agenda comun\errazur\Caminata Los Andes 2008


3,48 MB 19-10-2008 5:07:
44
DSC02171.JPG
F:\TRABAJOS\Colegios\Arzobispo Crescente Errazuriz\2010\agenda 2
010\Agenda 2009\agenda comun\errazur\Caminata Los Andes 2008
3,48 MB 19-10-20
08 5:07:44
----------------------------------------------------------------------------------------------------------------------------------------------------DSC02172.JPG
F:\TRABAJOS\Colegios\Arzobispo Crescente Errazuriz\2009\Agenda 2
009\agenda comun\errazur\Caminata Los Andes 2008
3,39 MB 19-10-2008 5:08:
08
DSC02172.JPG
F:\TRABAJOS\Colegios\Arzobispo Crescente Errazuriz\2009\Agenda 2
009\agenda comun\errazur\Caminata Los Andes 2008\Seleccin FBE 3,39 MB 19-10-20
08 5:08:08
DSC02172.JPG
F:\TRABAJOS\Colegios\Arzobispo Crescente Errazuriz\2010\agenda 2
010\Agenda 2009\agenda comun\errazur\Caminata Los Andes 2008
3,39 MB 19-10-20
08 5:08:08
DSC02172.JPG
F:\TRABAJOS\Colegios\Arzobispo Crescente Errazuriz\2010\agenda 2
010\Agenda 2009\agenda comun\errazur\Caminata Los Andes 2008\Seleccin FBE
3,39 MB 19-10-2008 5:08:08
----------------------------------------------------------------------------------------------------------------------------------------------------DSC02173.JPG
F:\TRABAJOS\Colegios\Arzobispo Crescente Errazuriz\2009\Agenda 2
009\agenda comun\errazur\Caminata Los Andes 2008
3,43 MB 19-10-2008 5:51:
38
DSC02173.JPG
F:\TRABAJOS\Colegios\Arzobispo Crescente Errazuriz\2010\agenda 2
010\Agenda 2009\agenda comun\errazur\Caminata Los Andes 2008
3,43 MB 19-10-20
08 5:51:38
----------------------------------------------------------------------------------------------------------------------------------------------------DSC02178.JPG
F:\TRABAJOS\Colegios\Arzobispo Crescente Errazuriz\2009\Agenda 2
009\agenda comun\errazur\Caminata Los Andes 2008
3,03 MB 19-10-2008 8:08:
10
DSC02178.JPG
F:\TRABAJOS\Colegios\Arzobispo Crescente Errazuriz\2010\agenda 2
010\Agenda 2009\agenda comun\errazur\Caminata Los Andes 2008
3,03 MB 19-10-20
08 8:08:10
----------------------------------------------------------------------------------------------------------------------------------------------------DSC02179.JPG
F:\TRABAJOS\Colegios\Arzobispo Crescente Errazuriz\2009\Agenda 2
009\agenda comun\errazur\Caminata Los Andes 2008
3,18 MB 19-10-2008 8:08:
18
DSC02179.JPG
F:\TRABAJOS\Colegios\Arzobispo Crescente Errazuriz\2009\Agenda 2
009\agenda comun\errazur\Caminata Los Andes 2008\Seleccin FBE 3,18 MB 19-10-20
08 8:08:18
DSC02179.JPG
F:\TRABAJOS\Colegios\Arzobispo Crescente Errazuriz\2010\agenda 2
010\Agenda 2009\agenda comun\errazur\Caminata Los Andes 2008
3,18 MB 19-10-20
08 8:08:18
DSC02179.JPG
F:\TRABAJOS\Colegios\Arzobispo Crescente Errazuriz\2010\agenda 2
010\Agenda 2009\agenda comun\errazur\Caminata Los Andes 2008\Seleccin FBE
3,18 MB 19-10-2008 8:08:18
----------------------------------------------------------------------------------------------------------------------------------------------------DSC02180.JPG
F:\TRABAJOS\Colegios\Arzobispo Crescente Errazuriz\2009\Agenda 2
009\agenda comun\errazur\Caminata Los Andes 2008
3,13 MB 19-10-2008 8:25:
40
DSC02180.JPG
F:\TRABAJOS\Colegios\Arzobispo Crescente Errazuriz\2010\agenda 2
010\Agenda 2009\agenda comun\errazur\Caminata Los Andes 2008
3,13 MB 19-10-20
08 8:25:40
----------------------------------------------------------------------------------------------------------------------------------------------------DSC02181.JPG
F:\TRABAJOS\Colegios\Arzobispo Crescente Errazuriz\2009\Agenda 2

009\agenda comun\errazur\Caminata Los Andes 2008


3,23 MB 19-10-2008 8:25:
56
DSC02181.JPG
F:\TRABAJOS\Colegios\Arzobispo Crescente Errazuriz\2010\agenda 2
010\Agenda 2009\agenda comun\errazur\Caminata Los Andes 2008
3,23 MB 19-10-20
08 8:25:56
----------------------------------------------------------------------------------------------------------------------------------------------------DSC02182.JPG
F:\TRABAJOS\Colegios\Arzobispo Crescente Errazuriz\2009\Agenda 2
009\agenda comun\errazur\Caminata Los Andes 2008
3,45 MB 19-10-2008 8:26:
02
DSC02182.JPG
F:\TRABAJOS\Colegios\Arzobispo Crescente Errazuriz\2010\agenda 2
010\Agenda 2009\agenda comun\errazur\Caminata Los Andes 2008
3,45 MB 19-10-20
08 8:26:02
----------------------------------------------------------------------------------------------------------------------------------------------------DSC02183.JPG
F:\TRABAJOS\Colegios\Arzobispo Crescente Errazuriz\2009\Agenda 2
009\agenda comun\errazur\Caminata Los Andes 2008
3,37 MB 19-10-2008 8:26:
10
DSC02183.JPG
F:\TRABAJOS\Colegios\Arzobispo Crescente Errazuriz\2010\agenda 2
010\Agenda 2009\agenda comun\errazur\Caminata Los Andes 2008
3,37 MB 19-10-20
08 8:26:10
----------------------------------------------------------------------------------------------------------------------------------------------------DSC02184.JPG
F:\TRABAJOS\Colegios\Arzobispo Crescente Errazuriz\2009\Agenda 2
009\agenda comun\errazur\Caminata Los Andes 2008
3,30 MB 19-10-2008 8:26:
16
DSC02184.JPG
F:\TRABAJOS\Colegios\Arzobispo Crescente Errazuriz\2010\agenda 2
010\Agenda 2009\agenda comun\errazur\Caminata Los Andes 2008
3,30 MB 19-10-20
08 8:26:16
----------------------------------------------------------------------------------------------------------------------------------------------------DSC02185.JPG
F:\TRABAJOS\Colegios\Arzobispo Crescente Errazuriz\2009\Agenda 2
009\agenda comun\errazur\Caminata Los Andes 2008
3,31 MB 19-10-2008 8:26:
26
DSC02185.JPG
F:\TRABAJOS\Colegios\Arzobispo Crescente Errazuriz\2010\agenda 2
010\Agenda 2009\agenda comun\errazur\Caminata Los Andes 2008
3,31 MB 19-10-20
08 8:26:26
----------------------------------------------------------------------------------------------------------------------------------------------------DSC02186.JPG
F:\TRABAJOS\Colegios\Arzobispo Crescente Errazuriz\2009\Agenda 2
009\agenda comun\errazur\Caminata Los Andes 2008
3,42 MB 19-10-2008 8:26:
34
DSC02186.JPG
F:\TRABAJOS\Colegios\Arzobispo Crescente Errazuriz\2010\agenda 2
010\Agenda 2009\agenda comun\errazur\Caminata Los Andes 2008
3,42 MB 19-10-20
08 8:26:34
----------------------------------------------------------------------------------------------------------------------------------------------------DSC02187.JPG
F:\TRABAJOS\Colegios\Arzobispo Crescente Errazuriz\2009\Agenda 2
009\agenda comun\errazur\Caminata Los Andes 2008
3,00 MB 19-10-2008 23:26
:36
DSC02187.JPG
F:\TRABAJOS\Colegios\Arzobispo Crescente Errazuriz\2010\agenda 2
010\Agenda 2009\agenda comun\errazur\Caminata Los Andes 2008
3,00 MB 19-10-20
08 23:26:36
----------------------------------------------------------------------------------------------------------------------------------------------------DSC02188.JPG
F:\TRABAJOS\Colegios\Arzobispo Crescente Errazuriz\2009\Agenda 2
009\agenda comun\errazur\Caminata Los Andes 2008
3,36 MB 19-10-2008 8:26:
56
DSC02188.JPG
F:\TRABAJOS\Colegios\Arzobispo Crescente Errazuriz\2010\agenda 2
010\Agenda 2009\agenda comun\errazur\Caminata Los Andes 2008
3,36 MB 19-10-20

08 8:26:56
----------------------------------------------------------------------------------------------------------------------------------------------------DSC02189.JPG
F:\TRABAJOS\Colegios\Arzobispo Crescente Errazuriz\2009\Agenda 2
009\agenda comun\errazur\Caminata Los Andes 2008
3,38 MB 19-10-2008 8:27:
00
DSC02189.JPG
F:\TRABAJOS\Colegios\Arzobispo Crescente Errazuriz\2010\agenda 2
010\Agenda 2009\agenda comun\errazur\Caminata Los Andes 2008
3,38 MB 19-10-20
08 8:27:00
----------------------------------------------------------------------------------------------------------------------------------------------------DSC02190.JPG
F:\TRABAJOS\Colegios\Arzobispo Crescente Errazuriz\2009\Agenda 2
009\agenda comun\errazur\Caminata Los Andes 2008
3,32 MB 19-10-2008 8:27:
28
DSC02190.JPG
F:\TRABAJOS\Colegios\Arzobispo Crescente Errazuriz\2010\agenda 2
010\Agenda 2009\agenda comun\errazur\Caminata Los Andes 2008
3,32 MB 19-10-20
08 8:27:28
----------------------------------------------------------------------------------------------------------------------------------------------------DSC02191.JPG
F:\TRABAJOS\Colegios\Arzobispo Crescente Errazuriz\2009\Agenda 2
009\agenda comun\errazur\Caminata Los Andes 2008
3,47 MB 19-10-2008 8:28:
34
DSC02191.JPG
F:\TRABAJOS\Colegios\Arzobispo Crescente Errazuriz\2010\agenda 2
010\Agenda 2009\agenda comun\errazur\Caminata Los Andes 2008
3,47 MB 19-10-20
08 8:28:34
----------------------------------------------------------------------------------------------------------------------------------------------------DSC02192.JPG
F:\TRABAJOS\Colegios\Arzobispo Crescente Errazuriz\2009\Agenda 2
009\agenda comun\errazur\Caminata Los Andes 2008
3,33 MB 19-10-2008 8:28:
40
DSC02192.JPG
F:\TRABAJOS\Colegios\Arzobispo Crescente Errazuriz\2010\agenda 2
010\Agenda 2009\agenda comun\errazur\Caminata Los Andes 2008
3,33 MB 19-10-20
08 8:28:40
----------------------------------------------------------------------------------------------------------------------------------------------------DSC02193.JPG
F:\TRABAJOS\Colegios\Arzobispo Crescente Errazuriz\2009\Agenda 2
009\agenda comun\errazur\Caminata Los Andes 2008
3,19 MB 19-10-2008 8:28:
52
DSC02193.JPG
F:\TRABAJOS\Colegios\Arzobispo Crescente Errazuriz\2010\agenda 2
010\Agenda 2009\agenda comun\errazur\Caminata Los Andes 2008
3,19 MB 19-10-20
08 8:28:52
----------------------------------------------------------------------------------------------------------------------------------------------------DSC02194.JPG
F:\TRABAJOS\Colegios\Arzobispo Crescente Errazuriz\2009\Agenda 2
009\agenda comun\errazur\Caminata Los Andes 2008
3,22 MB 19-10-2008 23:26
:56
DSC02194.JPG
F:\TRABAJOS\Colegios\Arzobispo Crescente Errazuriz\2010\agenda 2
010\Agenda 2009\agenda comun\errazur\Caminata Los Andes 2008
3,22 MB 19-10-20
08 23:26:56
----------------------------------------------------------------------------------------------------------------------------------------------------DSC02195.JPG
F:\TRABAJOS\Colegios\Arzobispo Crescente Errazuriz\2009\Agenda 2
009\agenda comun\errazur\Caminata Los Andes 2008
3,24 MB 19-10-2008 8:29:
10
DSC02195.JPG
F:\TRABAJOS\Colegios\Arzobispo Crescente Errazuriz\2010\agenda 2
010\Agenda 2009\agenda comun\errazur\Caminata Los Andes 2008
3,24 MB 19-10-20
08 8:29:10
----------------------------------------------------------------------------------------------------------------------------------------------------DSC02196.JPG
F:\TRABAJOS\Colegios\Arzobispo Crescente Errazuriz\2009\Agenda 2

009\agenda comun\errazur\Caminata Los Andes 2008


3,59 MB 19-10-2008 8:30:
54
DSC02196.JPG
F:\TRABAJOS\Colegios\Arzobispo Crescente Errazuriz\2010\agenda 2
010\Agenda 2009\agenda comun\errazur\Caminata Los Andes 2008
3,59 MB 19-10-20
08 8:30:54
----------------------------------------------------------------------------------------------------------------------------------------------------DSC02197.JPG
F:\TRABAJOS\Colegios\Arzobispo Crescente Errazuriz\2009\Agenda 2
009\agenda comun\errazur\Caminata Los Andes 2008
3,56 MB 19-10-2008 8:31:
00
DSC02197.JPG
F:\TRABAJOS\Colegios\Arzobispo Crescente Errazuriz\2010\agenda 2
010\Agenda 2009\agenda comun\errazur\Caminata Los Andes 2008
3,56 MB 19-10-20
08 8:31:00
----------------------------------------------------------------------------------------------------------------------------------------------------DSC02198.JPG
F:\TRABAJOS\Colegios\Arzobispo Crescente Errazuriz\2009\Agenda 2
009\agenda comun\errazur\Caminata Los Andes 2008
3,42 MB 19-10-2008 8:31:
14
DSC02198.JPG
F:\TRABAJOS\Colegios\Arzobispo Crescente Errazuriz\2010\agenda 2
010\Agenda 2009\agenda comun\errazur\Caminata Los Andes 2008
3,42 MB 19-10-20
08 8:31:14
----------------------------------------------------------------------------------------------------------------------------------------------------DSC02199.JPG
F:\TRABAJOS\Colegios\Arzobispo Crescente Errazuriz\2009\Agenda 2
009\agenda comun\errazur\Caminata Los Andes 2008
3,58 MB 19-10-2008 8:31:
24
DSC02199.JPG
F:\TRABAJOS\Colegios\Arzobispo Crescente Errazuriz\2010\agenda 2
010\Agenda 2009\agenda comun\errazur\Caminata Los Andes 2008
3,58 MB 19-10-20
08 8:31:24
----------------------------------------------------------------------------------------------------------------------------------------------------DSC02202.JPG
F:\TRABAJOS\Colegios\Arzobispo Crescente Errazuriz\2009\Agenda 2
009\agenda comun\errazur\Caminata Los Andes 2008
3,36 MB 19-10-2008 8:31:
46
DSC02202.JPG
F:\TRABAJOS\Colegios\Arzobispo Crescente Errazuriz\2010\agenda 2
010\Agenda 2009\agenda comun\errazur\Caminata Los Andes 2008
3,36 MB 19-10-20
08 8:31:46
----------------------------------------------------------------------------------------------------------------------------------------------------DSC02203.JPG
F:\TRABAJOS\Colegios\Arzobispo Crescente Errazuriz\2009\Agenda 2
009\agenda comun\errazur\Caminata Los Andes 2008
3,36 MB 19-10-2008 8:32:
04
DSC02203.JPG
F:\TRABAJOS\Colegios\Arzobispo Crescente Errazuriz\2010\agenda 2
010\Agenda 2009\agenda comun\errazur\Caminata Los Andes 2008
3,36 MB 19-10-20
08 8:32:04
----------------------------------------------------------------------------------------------------------------------------------------------------DSC02204.JPG
F:\TRABAJOS\Colegios\Arzobispo Crescente Errazuriz\2009\Agenda 2
009\agenda comun\errazur\Caminata Los Andes 2008
3,22 MB 19-10-2008 8:32:
14
DSC02204.JPG
F:\TRABAJOS\Colegios\Arzobispo Crescente Errazuriz\2010\agenda 2
010\Agenda 2009\agenda comun\errazur\Caminata Los Andes 2008
3,22 MB 19-10-20
08 8:32:14
----------------------------------------------------------------------------------------------------------------------------------------------------DSC02206.JPG
F:\TRABAJOS\Colegios\Arzobispo Crescente Errazuriz\2009\Agenda 2
009\agenda comun\errazur\Caminata Los Andes 2008
3,38 MB 19-10-2008 8:32:
26
DSC02206.JPG
F:\TRABAJOS\Colegios\Arzobispo Crescente Errazuriz\2010\agenda 2
010\Agenda 2009\agenda comun\errazur\Caminata Los Andes 2008
3,38 MB 19-10-20

08 8:32:26
----------------------------------------------------------------------------------------------------------------------------------------------------DSC02207.JPG
F:\TRABAJOS\Colegios\Arzobispo Crescente Errazuriz\2009\Agenda 2
009\agenda comun\errazur\Caminata Los Andes 2008
3,38 MB 19-10-2008 10:52
:26
DSC02207.JPG
F:\TRABAJOS\Colegios\Arzobispo Crescente Errazuriz\2010\agenda 2
010\Agenda 2009\agenda comun\errazur\Caminata Los Andes 2008
3,38 MB 19-10-20
08 10:52:26
----------------------------------------------------------------------------------------------------------------------------------------------------DSC02209.JPG
F:\TRABAJOS\Colegios\Arzobispo Crescente Errazuriz\2009\Agenda 2
009\agenda comun\errazur\Caminata Los Andes 2008
3,09 MB 19-10-2008 10:53
:08
DSC02209.JPG
F:\TRABAJOS\Colegios\Arzobispo Crescente Errazuriz\2010\agenda 2
010\Agenda 2009\agenda comun\errazur\Caminata Los Andes 2008
3,09 MB 19-10-20
08 10:53:08
----------------------------------------------------------------------------------------------------------------------------------------------------DSC02211.JPG
F:\TRABAJOS\Colegios\Arzobispo Crescente Errazuriz\2009\Agenda 2
009\agenda comun\errazur\Caminata Los Andes 2008
3,36 MB 19-10-2008 10:55
:10
DSC02211.JPG
F:\TRABAJOS\Colegios\Arzobispo Crescente Errazuriz\2009\Agenda 2
009\agenda comun\errazur\Caminata Los Andes 2008\Seleccin FBE 3,36 MB 19-10-20
08 10:55:10
DSC02211.JPG
F:\TRABAJOS\Colegios\Arzobispo Crescente Errazuriz\2010\agenda 2
010\Agenda 2009\agenda comun\errazur\Caminata Los Andes 2008
3,36 MB 19-10-20
08 10:55:10
DSC02211.JPG
F:\TRABAJOS\Colegios\Arzobispo Crescente Errazuriz\2010\agenda 2
010\Agenda 2009\agenda comun\errazur\Caminata Los Andes 2008\Seleccin FBE
3,36 MB 19-10-2008 10:55:10
----------------------------------------------------------------------------------------------------------------------------------------------------SL270039.JPG
F:\TRABAJOS\Colegios\Arzobispo Crescente Errazuriz\2009\Agenda 2
009\agenda comun\errazur\Campamento 5to 2008
1,96 MB 16-05-2008 16:06:32
SL270039.JPG
F:\TRABAJOS\Colegios\Arzobispo Crescente Errazuriz\2010\agenda 2
010\Agenda 2009\agenda comun\errazur\Campamento 5to 2008
1,96 MB 16-05-20
08 16:06:32
----------------------------------------------------------------------------------------------------------------------------------------------------SL270040.JPG
F:\TRABAJOS\Colegios\Arzobispo Crescente Errazuriz\2009\Agenda 2
009\agenda comun\errazur\Campamento 5to 2008
1,97 MB 16-05-2008 16:06:36
SL270040.JPG
F:\TRABAJOS\Colegios\Arzobispo Crescente Errazuriz\2010\agenda 2
010\Agenda 2009\agenda comun\errazur\Campamento 5to 2008
1,97 MB 16-05-20
08 16:06:36
----------------------------------------------------------------------------------------------------------------------------------------------------SL270045.JPG
F:\TRABAJOS\Colegios\Arzobispo Crescente Errazuriz\2009\Agenda 2
009\agenda comun\errazur\Campamento 5to 2008
1,87 MB 16-05-2008 18:17:54
SL270045.JPG
F:\TRABAJOS\Colegios\Arzobispo Crescente Errazuriz\2010\agenda 2
010\Agenda 2009\agenda comun\errazur\Campamento 5to 2008
1,87 MB 16-05-20
08 18:17:54
----------------------------------------------------------------------------------------------------------------------------------------------------SL270046.JPG
F:\TRABAJOS\Colegios\Arzobispo Crescente Errazuriz\2009\Agenda 2
009\agenda comun\errazur\Campamento 5to 2008
1,97 MB 16-05-2008 18:18:08
SL270046.JPG
F:\TRABAJOS\Colegios\Arzobispo Crescente Errazuriz\2010\agenda 2
010\Agenda 2009\agenda comun\errazur\Campamento 5to 2008
1,97 MB 16-05-20
08 18:18:08
--------------------------------------------------------------------------------

---------------------------------------------------------------------SL270047.JPG
F:\TRABAJOS\Colegios\Arzobispo Crescente Errazuriz\2009\Agenda 2
009\agenda comun\errazur\Campamento 5to 2008
1,99 MB 16-05-2008 18:18:20
SL270047.JPG
F:\TRABAJOS\Colegios\Arzobispo Crescente Errazuriz\2010\agenda 2
010\Agenda 2009\agenda comun\errazur\Campamento 5to 2008
1,99 MB 16-05-20
08 18:18:20
----------------------------------------------------------------------------------------------------------------------------------------------------SL270049.JPG
F:\TRABAJOS\Colegios\Arzobispo Crescente Errazuriz\2009\Agenda 2
009\agenda comun\errazur\Campamento 5to 2008
1,61 MB 16-05-2008 18:18:36
SL270049.JPG
F:\TRABAJOS\Colegios\Arzobispo Crescente Errazuriz\2010\agenda 2
010\Agenda 2009\agenda comun\errazur\Campamento 5to 2008
1,61 MB 16-05-20
08 18:18:36
----------------------------------------------------------------------------------------------------------------------------------------------------SL270050.JPG
F:\TRABAJOS\Colegios\Arzobispo Crescente Errazuriz\2009\Agenda 2
009\agenda comun\errazur\Campamento 5to 2008
1,81 MB 16-05-2008 19:41:48
SL270050.JPG
F:\TRABAJOS\Colegios\Arzobispo Crescente Errazuriz\2010\agenda 2
010\Agenda 2009\agenda comun\errazur\Campamento 5to 2008
1,81 MB 16-05-20
08 19:41:48
----------------------------------------------------------------------------------------------------------------------------------------------------SL270052.JPG
F:\TRABAJOS\Colegios\Arzobispo Crescente Errazuriz\2009\Agenda 2
009\agenda comun\errazur\Campamento 5to 2008
1,85 MB 16-05-2008 19:41:58
SL270052.JPG
F:\TRABAJOS\Colegios\Arzobispo Crescente Errazuriz\2010\agenda 2
010\Agenda 2009\agenda comun\errazur\Campamento 5to 2008
1,85 MB 16-05-20
08 19:41:58
----------------------------------------------------------------------------------------------------------------------------------------------------SL270053.JPG
F:\TRABAJOS\Colegios\Arzobispo Crescente Errazuriz\2009\Agenda 2
009\agenda comun\errazur\Campamento 5to 2008
1,82 MB 16-05-2008 22:05:22
SL270053.JPG
F:\TRABAJOS\Colegios\Arzobispo Crescente Errazuriz\2010\agenda 2
010\Agenda 2009\agenda comun\errazur\Campamento 5to 2008
1,82 MB 16-05-20
08 22:05:22
----------------------------------------------------------------------------------------------------------------------------------------------------SL270054.JPG
F:\TRABAJOS\Colegios\Arzobispo Crescente Errazuriz\2009\Agenda 2
009\agenda comun\errazur\Campamento 5to 2008
1,97 MB 16-05-2008 22:05:34
SL270054.JPG
F:\TRABAJOS\Colegios\Arzobispo Crescente Errazuriz\2010\agenda 2
010\Agenda 2009\agenda comun\errazur\Campamento 5to 2008
1,97 MB 16-05-20
08 22:05:34
----------------------------------------------------------------------------------------------------------------------------------------------------SL270055.JPG
F:\TRABAJOS\Colegios\Arzobispo Crescente Errazuriz\2009\Agenda 2
009\agenda comun\errazur\Campamento 5to 2008
1,97 MB 16-05-2008 22:05:56
SL270055.JPG
F:\TRABAJOS\Colegios\Arzobispo Crescente Errazuriz\2010\agenda 2
010\Agenda 2009\agenda comun\errazur\Campamento 5to 2008
1,97 MB 16-05-20
08 22:05:56
----------------------------------------------------------------------------------------------------------------------------------------------------SL270056.JPG
F:\TRABAJOS\Colegios\Arzobispo Crescente Errazuriz\2009\Agenda 2
009\agenda comun\errazur\Campamento 5to 2008
1,93 MB 16-05-2008 22:06:00
SL270056.JPG
F:\TRABAJOS\Colegios\Arzobispo Crescente Errazuriz\2010\agenda 2
010\Agenda 2009\agenda comun\errazur\Campamento 5to 2008
1,93 MB 16-05-20
08 22:06:00
----------------------------------------------------------------------------------------------------------------------------------------------------SL270057.JPG
F:\TRABAJOS\Colegios\Arzobispo Crescente Errazuriz\2009\Agenda 2
009\agenda comun\errazur\Campamento 5to 2008
2,01 MB 16-05-2008 22:06:04
SL270057.JPG
F:\TRABAJOS\Colegios\Arzobispo Crescente Errazuriz\2010\agenda 2

010\Agenda 2009\agenda comun\errazur\Campamento 5to 2008


2,01 MB 16-05-20
08 22:06:04
----------------------------------------------------------------------------------------------------------------------------------------------------SL270059.JPG
F:\TRABAJOS\Colegios\Arzobispo Crescente Errazuriz\2009\Agenda 2
009\agenda comun\errazur\Campamento 5to 2008
1,95 MB 16-05-2008 22:09:04
SL270059.JPG
F:\TRABAJOS\Colegios\Arzobispo Crescente Errazuriz\2010\agenda 2
010\Agenda 2009\agenda comun\errazur\Campamento 5to 2008
1,95 MB 16-05-20
08 22:09:04
----------------------------------------------------------------------------------------------------------------------------------------------------SL270060.JPG
F:\TRABAJOS\Colegios\Arzobispo Crescente Errazuriz\2009\Agenda 2
009\agenda comun\errazur\Campamento 5to 2008
1,86 MB 16-05-2008 22:10:14
SL270060.JPG
F:\TRABAJOS\Colegios\Arzobispo Crescente Errazuriz\2010\agenda 2
010\Agenda 2009\agenda comun\errazur\Campamento 5to 2008
1,86 MB 16-05-20
08 22:10:14
----------------------------------------------------------------------------------------------------------------------------------------------------SL270061.JPG
F:\TRABAJOS\Colegios\Arzobispo Crescente Errazuriz\2009\Agenda 2
009\agenda comun\errazur\Campamento 5to 2008
1,98 MB 16-05-2008 22:10:54
SL270061.JPG
F:\TRABAJOS\Colegios\Arzobispo Crescente Errazuriz\2010\agenda 2
010\Agenda 2009\agenda comun\errazur\Campamento 5to 2008
1,98 MB 16-05-20
08 22:10:54
----------------------------------------------------------------------------------------------------------------------------------------------------SL270062.JPG
F:\TRABAJOS\Colegios\Arzobispo Crescente Errazuriz\2009\Agenda 2
009\agenda comun\errazur\Campamento 5to 2008
1,97 MB 16-05-2008 22:11:02
SL270062.JPG
F:\TRABAJOS\Colegios\Arzobispo Crescente Errazuriz\2010\agenda 2
010\Agenda 2009\agenda comun\errazur\Campamento 5to 2008
1,97 MB 16-05-20
08 22:11:02
----------------------------------------------------------------------------------------------------------------------------------------------------SL270065.JPG
F:\TRABAJOS\Colegios\Arzobispo Crescente Errazuriz\2009\Agenda 2
009\agenda comun\errazur\Campamento 5to 2008
1,97 MB 16-05-2008 22:11:18
SL270065.JPG
F:\TRABAJOS\Colegios\Arzobispo Crescente Errazuriz\2010\agenda 2
010\Agenda 2009\agenda comun\errazur\Campamento 5to 2008
1,97 MB 16-05-20
08 22:11:18
----------------------------------------------------------------------------------------------------------------------------------------------------SL270066.JPG
F:\TRABAJOS\Colegios\Arzobispo Crescente Errazuriz\2009\Agenda 2
009\agenda comun\errazur\Campamento 5to 2008
2,01 MB 16-05-2008 22:12:22
SL270066.JPG
F:\TRABAJOS\Colegios\Arzobispo Crescente Errazuriz\2010\agenda 2
010\Agenda 2009\agenda comun\errazur\Campamento 5to 2008
2,01 MB 16-05-20
08 22:12:22
----------------------------------------------------------------------------------------------------------------------------------------------------SL270067.JPG
F:\TRABAJOS\Colegios\Arzobispo Crescente Errazuriz\2009\Agenda 2
009\agenda comun\errazur\Campamento 5to 2008
1,95 MB 16-05-2008 22:13:06
SL270067.JPG
F:\TRABAJOS\Colegios\Arzobispo Crescente Errazuriz\2010\agenda 2
010\Agenda 2009\agenda comun\errazur\Campamento 5to 2008
1,95 MB 16-05-20
08 22:13:06
----------------------------------------------------------------------------------------------------------------------------------------------------SL270068.JPG
F:\TRABAJOS\Colegios\Arzobispo Crescente Errazuriz\2009\Agenda 2
009\agenda comun\errazur\Campamento 5to 2008
1,98 MB 16-05-2008 22:13:18
SL270068.JPG
F:\TRABAJOS\Colegios\Arzobispo Crescente Errazuriz\2010\agenda 2
010\Agenda 2009\agenda comun\errazur\Campamento 5to 2008
1,98 MB 16-05-20
08 22:13:18
-----------------------------------------------------------------------------------------------------------------------------------------------------

SL270069.JPG
F:\TRABAJOS\Colegios\Arzobispo Crescente Errazuriz\2009\Agenda 2
009\agenda comun\errazur\Campamento 5to 2008
1,93 MB 16-05-2008 22:13:28
SL270069.JPG
F:\TRABAJOS\Colegios\Arzobispo Crescente Errazuriz\2010\agenda 2
010\Agenda 2009\agenda comun\errazur\Campamento 5to 2008
1,93 MB 16-05-20
08 22:13:28
----------------------------------------------------------------------------------------------------------------------------------------------------SL270071.JPG
F:\TRABAJOS\Colegios\Arzobispo Crescente Errazuriz\2009\Agenda 2
009\agenda comun\errazur\Campamento 5to 2008
1,98 MB 16-05-2008 22:14:00
SL270071.JPG
F:\TRABAJOS\Colegios\Arzobispo Crescente Errazuriz\2010\agenda 2
010\Agenda 2009\agenda comun\errazur\Campamento 5to 2008
1,98 MB 16-05-20
08 22:14:00
----------------------------------------------------------------------------------------------------------------------------------------------------SL270073.JPG
F:\TRABAJOS\Colegios\Arzobispo Crescente Errazuriz\2009\Agenda 2
009\agenda comun\errazur\Campamento 5to 2008
1,98 MB 16-05-2008 22:14:18
SL270073.JPG
F:\TRABAJOS\Colegios\Arzobispo Crescente Errazuriz\2010\agenda 2
010\Agenda 2009\agenda comun\errazur\Campamento 5to 2008
1,98 MB 16-05-20
08 22:14:18
----------------------------------------------------------------------------------------------------------------------------------------------------SL270074.JPG
F:\TRABAJOS\Colegios\Arzobispo Crescente Errazuriz\2009\Agenda 2
009\agenda comun\errazur\Campamento 5to 2008
1,98 MB 16-05-2008 22:15:52
SL270074.JPG
F:\TRABAJOS\Colegios\Arzobispo Crescente Errazuriz\2010\agenda 2
010\Agenda 2009\agenda comun\errazur\Campamento 5to 2008
1,98 MB 16-05-20
08 22:15:52
----------------------------------------------------------------------------------------------------------------------------------------------------SL270075.JPG
F:\TRABAJOS\Colegios\Arzobispo Crescente Errazuriz\2009\Agenda 2
009\agenda comun\errazur\Campamento 5to 2008
2,00 MB 16-05-2008 22:17:14
SL270075.JPG
F:\TRABAJOS\Colegios\Arzobispo Crescente Errazuriz\2010\agenda 2
010\Agenda 2009\agenda comun\errazur\Campamento 5to 2008
2,00 MB 16-05-20
08 22:17:14
----------------------------------------------------------------------------------------------------------------------------------------------------SL270076.JPG
F:\TRABAJOS\Colegios\Arzobispo Crescente Errazuriz\2009\Agenda 2
009\agenda comun\errazur\Campamento 5to 2008
1,98 MB 16-05-2008 22:17:20
SL270076.JPG
F:\TRABAJOS\Colegios\Arzobispo Crescente Errazuriz\2010\agenda 2
010\Agenda 2009\agenda comun\errazur\Campamento 5to 2008
1,98 MB 16-05-20
08 22:17:20
----------------------------------------------------------------------------------------------------------------------------------------------------SL270077.JPG
F:\TRABAJOS\Colegios\Arzobispo Crescente Errazuriz\2009\Agenda 2
009\agenda comun\errazur\Campamento 5to 2008
1,92 MB 16-05-2008 22:18:50
SL270077.JPG
F:\TRABAJOS\Colegios\Arzobispo Crescente Errazuriz\2010\agenda 2
010\Agenda 2009\agenda comun\errazur\Campamento 5to 2008
1,92 MB 16-05-20
08 22:18:50
----------------------------------------------------------------------------------------------------------------------------------------------------SL270078.JPG
F:\TRABAJOS\Colegios\Arzobispo Crescente Errazuriz\2009\Agenda 2
009\agenda comun\errazur\Campamento 5to 2008
1,96 MB 16-05-2008 22:19:10
SL270078.JPG
F:\TRABAJOS\Colegios\Arzobispo Crescente Errazuriz\2010\agenda 2
010\Agenda 2009\agenda comun\errazur\Campamento 5to 2008
1,96 MB 16-05-20
08 22:19:10
----------------------------------------------------------------------------------------------------------------------------------------------------SL270079.JPG
F:\TRABAJOS\Colegios\Arzobispo Crescente Errazuriz\2009\Agenda 2
009\agenda comun\errazur\Campamento 5to 2008
1,83 MB 16-05-2008 22:19:34
SL270079.JPG
F:\TRABAJOS\Colegios\Arzobispo Crescente Errazuriz\2010\agenda 2
010\Agenda 2009\agenda comun\errazur\Campamento 5to 2008
1,83 MB 16-05-20

08 22:19:34
----------------------------------------------------------------------------------------------------------------------------------------------------SL270080.JPG
F:\TRABAJOS\Colegios\Arzobispo Crescente Errazuriz\2009\Agenda 2
009\agenda comun\errazur\Campamento 5to 2008
1,99 MB 16-05-2008 22:29:20
SL270080.JPG
F:\TRABAJOS\Colegios\Arzobispo Crescente Errazuriz\2010\agenda 2
010\Agenda 2009\agenda comun\errazur\Campamento 5to 2008
1,99 MB 16-05-20
08 22:29:20
----------------------------------------------------------------------------------------------------------------------------------------------------SL270081.JPG
F:\TRABAJOS\Colegios\Arzobispo Crescente Errazuriz\2009\Agenda 2
009\agenda comun\errazur\Campamento 5to 2008
2,02 MB 16-05-2008 22:30:50
SL270081.JPG
F:\TRABAJOS\Colegios\Arzobispo Crescente Errazuriz\2010\agenda 2
010\Agenda 2009\agenda comun\errazur\Campamento 5to 2008
2,02 MB 16-05-20
08 22:30:50
----------------------------------------------------------------------------------------------------------------------------------------------------SL270083.JPG
F:\TRABAJOS\Colegios\Arzobispo Crescente Errazuriz\2009\Agenda 2
009\agenda comun\errazur\Campamento 5to 2008
1,96 MB 16-05-2008 22:31:16
SL270083.JPG
F:\TRABAJOS\Colegios\Arzobispo Crescente Errazuriz\2010\agenda 2
010\Agenda 2009\agenda comun\errazur\Campamento 5to 2008
1,96 MB 16-05-20
08 22:31:16
----------------------------------------------------------------------------------------------------------------------------------------------------SL270084.JPG
F:\TRABAJOS\Colegios\Arzobispo Crescente Errazuriz\2009\Agenda 2
009\agenda comun\errazur\Campamento 5to 2008
2,00 MB 16-05-2008 22:31:28
SL270084.JPG
F:\TRABAJOS\Colegios\Arzobispo Crescente Errazuriz\2010\agenda 2
010\Agenda 2009\agenda comun\errazur\Campamento 5to 2008
2,00 MB 16-05-20
08 22:31:28
----------------------------------------------------------------------------------------------------------------------------------------------------SL270085.JPG
F:\TRABAJOS\Colegios\Arzobispo Crescente Errazuriz\2009\Agenda 2
009\agenda comun\errazur\Campamento 5to 2008
1,96 MB 16-05-2008 23:02:38
SL270085.JPG
F:\TRABAJOS\Colegios\Arzobispo Crescente Errazuriz\2010\agenda 2
010\Agenda 2009\agenda comun\errazur\Campamento 5to 2008
1,96 MB 16-05-20
08 23:02:38
----------------------------------------------------------------------------------------------------------------------------------------------------SL270088.JPG
F:\TRABAJOS\Colegios\Arzobispo Crescente Errazuriz\2009\Agenda 2
009\agenda comun\errazur\Campamento 5to 2008
1,96 MB 16-05-2008 23:03:12
SL270088.JPG
F:\TRABAJOS\Colegios\Arzobispo Crescente Errazuriz\2010\agenda 2
010\Agenda 2009\agenda comun\errazur\Campamento 5to 2008
1,96 MB 16-05-20
08 23:03:12
----------------------------------------------------------------------------------------------------------------------------------------------------SL270093.JPG
F:\TRABAJOS\Colegios\Arzobispo Crescente Errazuriz\2009\Agenda 2
009\agenda comun\errazur\Campamento 5to 2008
1,96 MB 17-05-2008 2:04:58
SL270093.JPG
F:\TRABAJOS\Colegios\Arzobispo Crescente Errazuriz\2010\agenda 2
010\Agenda 2009\agenda comun\errazur\Campamento 5to 2008
1,96 MB 17-05-20
08 2:04:58
----------------------------------------------------------------------------------------------------------------------------------------------------SL270096.JPG
F:\TRABAJOS\Colegios\Arzobispo Crescente Errazuriz\2009\Agenda 2
009\agenda comun\errazur\Campamento 5to 2008
1,96 MB 17-05-2008 2:05:28
SL270096.JPG
F:\TRABAJOS\Colegios\Arzobispo Crescente Errazuriz\2010\agenda 2
010\Agenda 2009\agenda comun\errazur\Campamento 5to 2008
1,96 MB 17-05-20
08 2:05:28
----------------------------------------------------------------------------------------------------------------------------------------------------SL270097.JPG
F:\TRABAJOS\Colegios\Arzobispo Crescente Errazuriz\2009\Agenda 2

009\agenda comun\errazur\Campamento 5to 2008


1,96 MB 17-05-2008 2:08:48
SL270097.JPG
F:\TRABAJOS\Colegios\Arzobispo Crescente Errazuriz\2010\agenda 2
010\Agenda 2009\agenda comun\errazur\Campamento 5to 2008
1,96 MB 17-05-20
08 2:08:48
----------------------------------------------------------------------------------------------------------------------------------------------------SL270098.JPG
F:\TRABAJOS\Colegios\Arzobispo Crescente Errazuriz\2009\Agenda 2
009\agenda comun\errazur\Campamento 5to 2008
1,97 MB 17-05-2008 2:08:54
SL270098.JPG
F:\TRABAJOS\Colegios\Arzobispo Crescente Errazuriz\2010\agenda 2
010\Agenda 2009\agenda comun\errazur\Campamento 5to 2008
1,97 MB 17-05-20
08 2:08:54
----------------------------------------------------------------------------------------------------------------------------------------------------SL270099.JPG
F:\TRABAJOS\Colegios\Arzobispo Crescente Errazuriz\2009\Agenda 2
009\agenda comun\errazur\Campamento 5to 2008
1,99 MB 17-05-2008 2:09:02
SL270099.JPG
F:\TRABAJOS\Colegios\Arzobispo Crescente Errazuriz\2010\agenda 2
010\Agenda 2009\agenda comun\errazur\Campamento 5to 2008
1,99 MB 17-05-20
08 2:09:02
----------------------------------------------------------------------------------------------------------------------------------------------------SL270100.JPG
F:\TRABAJOS\Colegios\Arzobispo Crescente Errazuriz\2009\Agenda 2
009\agenda comun\errazur\Campamento 5to 2008
1,98 MB 17-05-2008 2:09:08
SL270100.JPG
F:\TRABAJOS\Colegios\Arzobispo Crescente Errazuriz\2010\agenda 2
010\Agenda 2009\agenda comun\errazur\Campamento 5to 2008
1,98 MB 17-05-20
08 2:09:08
----------------------------------------------------------------------------------------------------------------------------------------------------SL270102.JPG
F:\TRABAJOS\Colegios\Arzobispo Crescente Errazuriz\2009\Agenda 2
009\agenda comun\errazur\Campamento 5to 2008
1,94 MB 17-05-2008 2:09:20
SL270102.JPG
F:\TRABAJOS\Colegios\Arzobispo Crescente Errazuriz\2010\agenda 2
010\Agenda 2009\agenda comun\errazur\Campamento 5to 2008
1,94 MB 17-05-20
08 2:09:20
----------------------------------------------------------------------------------------------------------------------------------------------------SL270103.JPG
F:\TRABAJOS\Colegios\Arzobispo Crescente Errazuriz\2009\Agenda 2
009\agenda comun\errazur\Campamento 5to 2008
1,99 MB 17-05-2008 2:09:34
SL270103.JPG
F:\TRABAJOS\Colegios\Arzobispo Crescente Errazuriz\2010\agenda 2
010\Agenda 2009\agenda comun\errazur\Campamento 5to 2008
1,99 MB 17-05-20
08 2:09:34
----------------------------------------------------------------------------------------------------------------------------------------------------SL270105.JPG
F:\TRABAJOS\Colegios\Arzobispo Crescente Errazuriz\2009\Agenda 2
009\agenda comun\errazur\Campamento 5to 2008
1,97 MB 17-05-2008 3:01:02
SL270105.JPG
F:\TRABAJOS\Colegios\Arzobispo Crescente Errazuriz\2010\agenda 2
010\Agenda 2009\agenda comun\errazur\Campamento 5to 2008
1,97 MB 17-05-20
08 3:01:02
----------------------------------------------------------------------------------------------------------------------------------------------------SL270106.JPG
F:\TRABAJOS\Colegios\Arzobispo Crescente Errazuriz\2009\Agenda 2
009\agenda comun\errazur\Campamento 5to 2008
1,98 MB 17-05-2008 3:01:12
SL270106.JPG
F:\TRABAJOS\Colegios\Arzobispo Crescente Errazuriz\2010\agenda 2
010\Agenda 2009\agenda comun\errazur\Campamento 5to 2008
1,98 MB 17-05-20
08 3:01:12
----------------------------------------------------------------------------------------------------------------------------------------------------SL270107.JPG
F:\TRABAJOS\Colegios\Arzobispo Crescente Errazuriz\2009\Agenda 2
009\agenda comun\errazur\Campamento 5to 2008
2,01 MB 17-05-2008 3:01:16
SL270107.JPG
F:\TRABAJOS\Colegios\Arzobispo Crescente Errazuriz\2010\agenda 2
010\Agenda 2009\agenda comun\errazur\Campamento 5to 2008
2,01 MB 17-05-20
08 3:01:16

----------------------------------------------------------------------------------------------------------------------------------------------------SL270108.JPG
F:\TRABAJOS\Colegios\Arzobispo Crescente Errazuriz\2009\Agenda 2
009\agenda comun\errazur\Campamento 5to 2008
1,98 MB 17-05-2008 3:02:06
SL270108.JPG
F:\TRABAJOS\Colegios\Arzobispo Crescente Errazuriz\2010\agenda 2
010\Agenda 2009\agenda comun\errazur\Campamento 5to 2008
1,98 MB 17-05-20
08 3:02:06
----------------------------------------------------------------------------------------------------------------------------------------------------SL270109.JPG
F:\TRABAJOS\Colegios\Arzobispo Crescente Errazuriz\2009\Agenda 2
009\agenda comun\errazur\Campamento 5to 2008
1,96 MB 17-05-2008 3:03:14
SL270109.JPG
F:\TRABAJOS\Colegios\Arzobispo Crescente Errazuriz\2010\agenda 2
010\Agenda 2009\agenda comun\errazur\Campamento 5to 2008
1,96 MB 17-05-20
08 3:03:14
----------------------------------------------------------------------------------------------------------------------------------------------------SL270110.JPG
F:\TRABAJOS\Colegios\Arzobispo Crescente Errazuriz\2009\Agenda 2
009\agenda comun\errazur\Campamento 5to 2008
1,96 MB 17-05-2008 3:04:18
SL270110.JPG
F:\TRABAJOS\Colegios\Arzobispo Crescente Errazuriz\2010\agenda 2
010\Agenda 2009\agenda comun\errazur\Campamento 5to 2008
1,96 MB 17-05-20
08 3:04:18
----------------------------------------------------------------------------------------------------------------------------------------------------SL270111.JPG
F:\TRABAJOS\Colegios\Arzobispo Crescente Errazuriz\2009\Agenda 2
009\agenda comun\errazur\Campamento 5to 2008
2,04 MB 17-05-2008 3:04:54
SL270111.JPG
F:\TRABAJOS\Colegios\Arzobispo Crescente Errazuriz\2010\agenda 2
010\Agenda 2009\agenda comun\errazur\Campamento 5to 2008
2,04 MB 17-05-20
08 3:04:54
----------------------------------------------------------------------------------------------------------------------------------------------------SL270112.JPG
F:\TRABAJOS\Colegios\Arzobispo Crescente Errazuriz\2009\Agenda 2
009\agenda comun\errazur\Campamento 5to 2008
2,01 MB 17-05-2008 3:06:22
SL270112.JPG
F:\TRABAJOS\Colegios\Arzobispo Crescente Errazuriz\2010\agenda 2
010\Agenda 2009\agenda comun\errazur\Campamento 5to 2008
2,01 MB 17-05-20
08 3:06:22
----------------------------------------------------------------------------------------------------------------------------------------------------SL270113.JPG
F:\TRABAJOS\Colegios\Arzobispo Crescente Errazuriz\2009\Agenda 2
009\agenda comun\errazur\Campamento 5to 2008
1,97 MB 17-05-2008 3:06:50
SL270113.JPG
F:\TRABAJOS\Colegios\Arzobispo Crescente Errazuriz\2010\agenda 2
010\Agenda 2009\agenda comun\errazur\Campamento 5to 2008
1,97 MB 17-05-20
08 3:06:50
----------------------------------------------------------------------------------------------------------------------------------------------------SL270114.JPG
F:\TRABAJOS\Colegios\Arzobispo Crescente Errazuriz\2009\Agenda 2
009\agenda comun\errazur\Campamento 5to 2008
1,97 MB 17-05-2008 3:07:10
SL270114.JPG
F:\TRABAJOS\Colegios\Arzobispo Crescente Errazuriz\2010\agenda 2
010\Agenda 2009\agenda comun\errazur\Campamento 5to 2008
1,97 MB 17-05-20
08 3:07:10
----------------------------------------------------------------------------------------------------------------------------------------------------SL270115.JPG
F:\TRABAJOS\Colegios\Arzobispo Crescente Errazuriz\2009\Agenda 2
009\agenda comun\errazur\Campamento 5to 2008
1,94 MB 17-05-2008 3:07:18
SL270115.JPG
F:\TRABAJOS\Colegios\Arzobispo Crescente Errazuriz\2010\agenda 2
010\Agenda 2009\agenda comun\errazur\Campamento 5to 2008
1,94 MB 17-05-20
08 3:07:18
----------------------------------------------------------------------------------------------------------------------------------------------------SL270116.JPG
F:\TRABAJOS\Colegios\Arzobispo Crescente Errazuriz\2009\Agenda 2
009\agenda comun\errazur\Campamento 5to 2008
1,97 MB 17-05-2008 3:09:28

SL270116.JPG
F:\TRABAJOS\Colegios\Arzobispo Crescente Errazuriz\2010\agenda 2
010\Agenda 2009\agenda comun\errazur\Campamento 5to 2008
1,97 MB 17-05-20
08 3:09:28
----------------------------------------------------------------------------------------------------------------------------------------------------SL270117.JPG
F:\TRABAJOS\Colegios\Arzobispo Crescente Errazuriz\2009\Agenda 2
009\agenda comun\errazur\Campamento 5to 2008
1,96 MB 17-05-2008 3:09:34
SL270117.JPG
F:\TRABAJOS\Colegios\Arzobispo Crescente Errazuriz\2010\agenda 2
010\Agenda 2009\agenda comun\errazur\Campamento 5to 2008
1,96 MB 17-05-20
08 3:09:34
----------------------------------------------------------------------------------------------------------------------------------------------------SL270118.JPG
F:\TRABAJOS\Colegios\Arzobispo Crescente Errazuriz\2009\Agenda 2
009\agenda comun\errazur\Campamento 5to 2008
1,93 MB 17-05-2008 3:10:34
SL270118.JPG
F:\TRABAJOS\Colegios\Arzobispo Crescente Errazuriz\2010\agenda 2
010\Agenda 2009\agenda comun\errazur\Campamento 5to 2008
1,93 MB 17-05-20
08 3:10:34
----------------------------------------------------------------------------------------------------------------------------------------------------SL270119.JPG
F:\TRABAJOS\Colegios\Arzobispo Crescente Errazuriz\2009\Agenda 2
009\agenda comun\errazur\Campamento 5to 2008
1,91 MB 17-05-2008 3:10:56
SL270119.JPG
F:\TRABAJOS\Colegios\Arzobispo Crescente Errazuriz\2010\agenda 2
010\Agenda 2009\agenda comun\errazur\Campamento 5to 2008
1,91 MB 17-05-20
08 3:10:56
----------------------------------------------------------------------------------------------------------------------------------------------------SL270120.JPG
F:\TRABAJOS\Colegios\Arzobispo Crescente Errazuriz\2009\Agenda 2
009\agenda comun\errazur\Campamento 5to 2008
1,99 MB 17-05-2008 3:11:34
SL270120.JPG
F:\TRABAJOS\Colegios\Arzobispo Crescente Errazuriz\2010\agenda 2
010\Agenda 2009\agenda comun\errazur\Campamento 5to 2008
1,99 MB 17-05-20
08 3:11:34
----------------------------------------------------------------------------------------------------------------------------------------------------SL270121.JPG
F:\TRABAJOS\Colegios\Arzobispo Crescente Errazuriz\2009\Agenda 2
009\agenda comun\errazur\Campamento 5to 2008
2,01 MB 17-05-2008 3:11:58
SL270121.JPG
F:\TRABAJOS\Colegios\Arzobispo Crescente Errazuriz\2010\agenda 2
010\Agenda 2009\agenda comun\errazur\Campamento 5to 2008
2,01 MB 17-05-20
08 3:11:58
----------------------------------------------------------------------------------------------------------------------------------------------------SL270122.JPG
F:\TRABAJOS\Colegios\Arzobispo Crescente Errazuriz\2009\Agenda 2
009\agenda comun\errazur\Campamento 5to 2008
1,97 MB 17-05-2008 3:14:30
SL270122.JPG
F:\TRABAJOS\Colegios\Arzobispo Crescente Errazuriz\2010\agenda 2
010\Agenda 2009\agenda comun\errazur\Campamento 5to 2008
1,97 MB 17-05-20
08 3:14:30
----------------------------------------------------------------------------------------------------------------------------------------------------SL270123.JPG
F:\TRABAJOS\Colegios\Arzobispo Crescente Errazuriz\2009\Agenda 2
009\agenda comun\errazur\Campamento 5to 2008
1,98 MB 17-05-2008 3:14:42
SL270123.JPG
F:\TRABAJOS\Colegios\Arzobispo Crescente Errazuriz\2010\agenda 2
010\Agenda 2009\agenda comun\errazur\Campamento 5to 2008
1,98 MB 17-05-20
08 3:14:42
----------------------------------------------------------------------------------------------------------------------------------------------------SL270124.JPG
F:\TRABAJOS\Colegios\Arzobispo Crescente Errazuriz\2009\Agenda 2
009\agenda comun\errazur\Campamento 5to 2008
1,98 MB 17-05-2008 3:14:54
SL270124.JPG
F:\TRABAJOS\Colegios\Arzobispo Crescente Errazuriz\2010\agenda 2
010\Agenda 2009\agenda comun\errazur\Campamento 5to 2008
1,98 MB 17-05-20
08 3:14:54
--------------------------------------------------------------------------------

---------------------------------------------------------------------SL270125.JPG
F:\TRABAJOS\Colegios\Arzobispo Crescente Errazuriz\2009\Agenda 2
009\agenda comun\errazur\Campamento 5to 2008
1,96 MB 17-05-2008 3:15:12
SL270125.JPG
F:\TRABAJOS\Colegios\Arzobispo Crescente Errazuriz\2010\agenda 2
010\Agenda 2009\agenda comun\errazur\Campamento 5to 2008
1,96 MB 17-05-20
08 3:15:12
----------------------------------------------------------------------------------------------------------------------------------------------------SL270126.JPG
F:\TRABAJOS\Colegios\Arzobispo Crescente Errazuriz\2009\Agenda 2
009\agenda comun\errazur\Campamento 5to 2008
2,01 MB 17-05-2008 3:15:30
SL270126.JPG
F:\TRABAJOS\Colegios\Arzobispo Crescente Errazuriz\2010\agenda 2
010\Agenda 2009\agenda comun\errazur\Campamento 5to 2008
2,01 MB 17-05-20
08 3:15:30
----------------------------------------------------------------------------------------------------------------------------------------------------SL270127.JPG
F:\TRABAJOS\Colegios\Arzobispo Crescente Errazuriz\2009\Agenda 2
009\agenda comun\errazur\Campamento 5to 2008
2,01 MB 17-05-2008 3:18:22
SL270127.JPG
F:\TRABAJOS\Colegios\Arzobispo Crescente Errazuriz\2010\agenda 2
010\Agenda 2009\agenda comun\errazur\Campamento 5to 2008
2,01 MB 17-05-20
08 3:18:22
----------------------------------------------------------------------------------------------------------------------------------------------------SL270128.JPG
F:\TRABAJOS\Colegios\Arzobispo Crescente Errazuriz\2009\Agenda 2
009\agenda comun\errazur\Campamento 5to 2008
1,93 MB 17-05-2008 3:18:58
SL270128.JPG
F:\TRABAJOS\Colegios\Arzobispo Crescente Errazuriz\2010\agenda 2
010\Agenda 2009\agenda comun\errazur\Campamento 5to 2008
1,93 MB 17-05-20
08 3:18:58
----------------------------------------------------------------------------------------------------------------------------------------------------SL270129.JPG
F:\TRABAJOS\Colegios\Arzobispo Crescente Errazuriz\2009\Agenda 2
009\agenda comun\errazur\Campamento 5to 2008
2,01 MB 17-05-2008 3:19:42
SL270129.JPG
F:\TRABAJOS\Colegios\Arzobispo Crescente Errazuriz\2010\agenda 2
010\Agenda 2009\agenda comun\errazur\Campamento 5to 2008
2,01 MB 17-05-20
08 3:19:42
----------------------------------------------------------------------------------------------------------------------------------------------------SL270130.JPG
F:\TRABAJOS\Colegios\Arzobispo Crescente Errazuriz\2009\Agenda 2
009\agenda comun\errazur\Campamento 5to 2008
1,92 MB 17-05-2008 3:20:16
SL270130.JPG
F:\TRABAJOS\Colegios\Arzobispo Crescente Errazuriz\2010\agenda 2
010\Agenda 2009\agenda comun\errazur\Campamento 5to 2008
1,92 MB 17-05-20
08 3:20:16
----------------------------------------------------------------------------------------------------------------------------------------------------SL270131.JPG
F:\TRABAJOS\Colegios\Arzobispo Crescente Errazuriz\2009\Agenda 2
009\agenda comun\errazur\Campamento 5to 2008
1,88 MB 17-05-2008 3:20:46
SL270131.JPG
F:\TRABAJOS\Colegios\Arzobispo Crescente Errazuriz\2010\agenda 2
010\Agenda 2009\agenda comun\errazur\Campamento 5to 2008
1,88 MB 17-05-20
08 3:20:46
----------------------------------------------------------------------------------------------------------------------------------------------------SL270132.JPG
F:\TRABAJOS\Colegios\Arzobispo Crescente Errazuriz\2009\Agenda 2
009\agenda comun\errazur\Campamento 5to 2008
2,01 MB 17-05-2008 3:21:54
SL270132.JPG
F:\TRABAJOS\Colegios\Arzobispo Crescente Errazuriz\2010\agenda 2
010\Agenda 2009\agenda comun\errazur\Campamento 5to 2008
2,01 MB 17-05-20
08 3:21:54
----------------------------------------------------------------------------------------------------------------------------------------------------SL270133.JPG
F:\TRABAJOS\Colegios\Arzobispo Crescente Errazuriz\2009\Agenda 2
009\agenda comun\errazur\Campamento 5to 2008
1,96 MB 17-05-2008 3:22:22
SL270133.JPG
F:\TRABAJOS\Colegios\Arzobispo Crescente Errazuriz\2010\agenda 2

010\Agenda 2009\agenda comun\errazur\Campamento 5to 2008


1,96 MB 17-05-20
08 3:22:22
----------------------------------------------------------------------------------------------------------------------------------------------------SL270134.JPG
F:\TRABAJOS\Colegios\Arzobispo Crescente Errazuriz\2009\Agenda 2
009\agenda comun\errazur\Campamento 5to 2008
2,01 MB 17-05-2008 3:22:28
SL270134.JPG
F:\TRABAJOS\Colegios\Arzobispo Crescente Errazuriz\2010\agenda 2
010\Agenda 2009\agenda comun\errazur\Campamento 5to 2008
2,01 MB 17-05-20
08 3:22:28
----------------------------------------------------------------------------------------------------------------------------------------------------SL270135.JPG
F:\TRABAJOS\Colegios\Arzobispo Crescente Errazuriz\2009\Agenda 2
009\agenda comun\errazur\Campamento 5to 2008
1,98 MB 17-05-2008 3:22:46
SL270135.JPG
F:\TRABAJOS\Colegios\Arzobispo Crescente Errazuriz\2010\agenda 2
010\Agenda 2009\agenda comun\errazur\Campamento 5to 2008
1,98 MB 17-05-20
08 3:22:46
----------------------------------------------------------------------------------------------------------------------------------------------------SL270136.JPG
F:\TRABAJOS\Colegios\Arzobispo Crescente Errazuriz\2009\Agenda 2
009\agenda comun\errazur\Campamento 5to 2008
1,94 MB 17-05-2008 3:22:54
SL270136.JPG
F:\TRABAJOS\Colegios\Arzobispo Crescente Errazuriz\2010\agenda 2
010\Agenda 2009\agenda comun\errazur\Campamento 5to 2008
1,94 MB 17-05-20
08 3:22:54
----------------------------------------------------------------------------------------------------------------------------------------------------SL270137.JPG
F:\TRABAJOS\Colegios\Arzobispo Crescente Errazuriz\2009\Agenda 2
009\agenda comun\errazur\Campamento 5to 2008
1,94 MB 17-05-2008 3:24:02
SL270137.JPG
F:\TRABAJOS\Colegios\Arzobispo Crescente Errazuriz\2010\agenda 2
010\Agenda 2009\agenda comun\errazur\Campamento 5to 2008
1,94 MB 17-05-20
08 3:24:02
----------------------------------------------------------------------------------------------------------------------------------------------------SL270138.JPG
F:\TRABAJOS\Colegios\Arzobispo Crescente Errazuriz\2009\Agenda 2
009\agenda comun\errazur\Campamento 5to 2008
1,99 MB 17-05-2008 3:25:44
SL270138.JPG
F:\TRABAJOS\Colegios\Arzobispo Crescente Errazuriz\2010\agenda 2
010\Agenda 2009\agenda comun\errazur\Campamento 5to 2008
1,99 MB 17-05-20
08 3:25:44
----------------------------------------------------------------------------------------------------------------------------------------------------SL270139.JPG
F:\TRABAJOS\Colegios\Arzobispo Crescente Errazuriz\2009\Agenda 2
009\agenda comun\errazur\Campamento 5to 2008
1,92 MB 17-05-2008 3:26:02
SL270139.JPG
F:\TRABAJOS\Colegios\Arzobispo Crescente Errazuriz\2010\agenda 2
010\Agenda 2009\agenda comun\errazur\Campamento 5to 2008
1,92 MB 17-05-20
08 3:26:02
----------------------------------------------------------------------------------------------------------------------------------------------------SL270140.JPG
F:\TRABAJOS\Colegios\Arzobispo Crescente Errazuriz\2009\Agenda 2
009\agenda comun\errazur\Campamento 5to 2008
1,97 MB 17-05-2008 3:26:08
SL270140.JPG
F:\TRABAJOS\Colegios\Arzobispo Crescente Errazuriz\2010\agenda 2
010\Agenda 2009\agenda comun\errazur\Campamento 5to 2008
1,97 MB 17-05-20
08 3:26:08
----------------------------------------------------------------------------------------------------------------------------------------------------SL270141.JPG
F:\TRABAJOS\Colegios\Arzobispo Crescente Errazuriz\2009\Agenda 2
009\agenda comun\errazur\Campamento 5to 2008
1,97 MB 17-05-2008 3:26:22
SL270141.JPG
F:\TRABAJOS\Colegios\Arzobispo Crescente Errazuriz\2010\agenda 2
010\Agenda 2009\agenda comun\errazur\Campamento 5to 2008
1,97 MB 17-05-20
08 3:26:22
-----------------------------------------------------------------------------------------------------------------------------------------------------

SL270142.JPG
F:\TRABAJOS\Colegios\Arzobispo Crescente Errazuriz\2009\Agenda 2
009\agenda comun\errazur\Campamento 5to 2008
1,96 MB 17-05-2008 3:26:58
SL270142.JPG
F:\TRABAJOS\Colegios\Arzobispo Crescente Errazuriz\2010\agenda 2
010\Agenda 2009\agenda comun\errazur\Campamento 5to 2008
1,96 MB 17-05-20
08 3:26:58
----------------------------------------------------------------------------------------------------------------------------------------------------SL270143.JPG
F:\TRABAJOS\Colegios\Arzobispo Crescente Errazuriz\2009\Agenda 2
009\agenda comun\errazur\Campamento 5to 2008
1,98 MB 17-05-2008 3:29:32
SL270143.JPG
F:\TRABAJOS\Colegios\Arzobispo Crescente Errazuriz\2010\agenda 2
010\Agenda 2009\agenda comun\errazur\Campamento 5to 2008
1,98 MB 17-05-20
08 3:29:32
----------------------------------------------------------------------------------------------------------------------------------------------------SL270144.JPG
F:\TRABAJOS\Colegios\Arzobispo Crescente Errazuriz\2009\Agenda 2
009\agenda comun\errazur\Campamento 5to 2008
1,91 MB 17-05-2008 3:29:44
SL270144.JPG
F:\TRABAJOS\Colegios\Arzobispo Crescente Errazuriz\2010\agenda 2
010\Agenda 2009\agenda comun\errazur\Campamento 5to 2008
1,91 MB 17-05-20
08 3:29:44
----------------------------------------------------------------------------------------------------------------------------------------------------SL270145.JPG
F:\TRABAJOS\Colegios\Arzobispo Crescente Errazuriz\2009\Agenda 2
009\agenda comun\errazur\Campamento 5to 2008
1,99 MB 17-05-2008 3:29:58
SL270145.JPG
F:\TRABAJOS\Colegios\Arzobispo Crescente Errazuriz\2010\agenda 2
010\Agenda 2009\agenda comun\errazur\Campamento 5to 2008
1,99 MB 17-05-20
08 3:29:58
----------------------------------------------------------------------------------------------------------------------------------------------------SL270146.JPG
F:\TRABAJOS\Colegios\Arzobispo Crescente Errazuriz\2009\Agenda 2
009\agenda comun\errazur\Campamento 5to 2008
2,00 MB 17-05-2008 3:30:22
SL270146.JPG
F:\TRABAJOS\Colegios\Arzobispo Crescente Errazuriz\2010\agenda 2
010\Agenda 2009\agenda comun\errazur\Campamento 5to 2008
2,00 MB 17-05-20
08 3:30:22
----------------------------------------------------------------------------------------------------------------------------------------------------SL270147.JPG
F:\TRABAJOS\Colegios\Arzobispo Crescente Errazuriz\2009\Agenda 2
009\agenda comun\errazur\Campamento 5to 2008
1,97 MB 17-05-2008 3:30:32
SL270147.JPG
F:\TRABAJOS\Colegios\Arzobispo Crescente Errazuriz\2010\agenda 2
010\Agenda 2009\agenda comun\errazur\Campamento 5to 2008
1,97 MB 17-05-20
08 3:30:32
----------------------------------------------------------------------------------------------------------------------------------------------------SL270148.JPG
F:\TRABAJOS\Colegios\Arzobispo Crescente Errazuriz\2009\Agenda 2
009\agenda comun\errazur\Campamento 5to 2008
2,00 MB 17-05-2008 3:30:40
SL270148.JPG
F:\TRABAJOS\Colegios\Arzobispo Crescente Errazuriz\2010\agenda 2
010\Agenda 2009\agenda comun\errazur\Campamento 5to 2008
2,00 MB 17-05-20
08 3:30:40
----------------------------------------------------------------------------------------------------------------------------------------------------SL270149.JPG
F:\TRABAJOS\Colegios\Arzobispo Crescente Errazuriz\2009\Agenda 2
009\agenda comun\errazur\Campamento 5to 2008
2,00 MB 17-05-2008 3:30:50
SL270149.JPG
F:\TRABAJOS\Colegios\Arzobispo Crescente Errazuriz\2010\agenda 2
010\Agenda 2009\agenda comun\errazur\Campamento 5to 2008
2,00 MB 17-05-20
08 3:30:50
----------------------------------------------------------------------------------------------------------------------------------------------------SL270151.JPG
F:\TRABAJOS\Colegios\Arzobispo Crescente Errazuriz\2009\Agenda 2
009\agenda comun\errazur\Campamento 5to 2008
2,00 MB 17-05-2008 3:31:12
SL270151.JPG
F:\TRABAJOS\Colegios\Arzobispo Crescente Errazuriz\2010\agenda 2
010\Agenda 2009\agenda comun\errazur\Campamento 5to 2008
2,00 MB 17-05-20

08 3:31:12
----------------------------------------------------------------------------------------------------------------------------------------------------SL270152.JPG
F:\TRABAJOS\Colegios\Arzobispo Crescente Errazuriz\2009\Agenda 2
009\agenda comun\errazur\Campamento 5to 2008
1,90 MB 17-05-2008 3:31:22
SL270152.JPG
F:\TRABAJOS\Colegios\Arzobispo Crescente Errazuriz\2010\agenda 2
010\Agenda 2009\agenda comun\errazur\Campamento 5to 2008
1,90 MB 17-05-20
08 3:31:22
----------------------------------------------------------------------------------------------------------------------------------------------------SL270153.JPG
F:\TRABAJOS\Colegios\Arzobispo Crescente Errazuriz\2009\Agenda 2
009\agenda comun\errazur\Campamento 5to 2008
1,91 MB 17-05-2008 3:31:32
SL270153.JPG
F:\TRABAJOS\Colegios\Arzobispo Crescente Errazuriz\2010\agenda 2
010\Agenda 2009\agenda comun\errazur\Campamento 5to 2008
1,91 MB 17-05-20
08 3:31:32
----------------------------------------------------------------------------------------------------------------------------------------------------SL270154.JPG
F:\TRABAJOS\Colegios\Arzobispo Crescente Errazuriz\2009\Agenda 2
009\agenda comun\errazur\Campamento 5to 2008
1,95 MB 17-05-2008 3:31:48
SL270154.JPG
F:\TRABAJOS\Colegios\Arzobispo Crescente Errazuriz\2010\agenda 2
010\Agenda 2009\agenda comun\errazur\Campamento 5to 2008
1,95 MB 17-05-20
08 3:31:48
----------------------------------------------------------------------------------------------------------------------------------------------------SL270155.JPG
F:\TRABAJOS\Colegios\Arzobispo Crescente Errazuriz\2009\Agenda 2
009\agenda comun\errazur\Campamento 5to 2008
1,92 MB 17-05-2008 3:31:58
SL270155.JPG
F:\TRABAJOS\Colegios\Arzobispo Crescente Errazuriz\2010\agenda 2
010\Agenda 2009\agenda comun\errazur\Campamento 5to 2008
1,92 MB 17-05-20
08 3:31:58
----------------------------------------------------------------------------------------------------------------------------------------------------SL270156.JPG
F:\TRABAJOS\Colegios\Arzobispo Crescente Errazuriz\2009\Agenda 2
009\agenda comun\errazur\Campamento 5to 2008
1,98 MB 17-05-2008 3:32:36
SL270156.JPG
F:\TRABAJOS\Colegios\Arzobispo Crescente Errazuriz\2010\agenda 2
010\Agenda 2009\agenda comun\errazur\Campamento 5to 2008
1,98 MB 17-05-20
08 3:32:36
----------------------------------------------------------------------------------------------------------------------------------------------------SL270157.JPG
F:\TRABAJOS\Colegios\Arzobispo Crescente Errazuriz\2009\Agenda 2
009\agenda comun\errazur\Campamento 5to 2008
1,86 MB 17-05-2008 3:33:24
SL270157.JPG
F:\TRABAJOS\Colegios\Arzobispo Crescente Errazuriz\2010\agenda 2
010\Agenda 2009\agenda comun\errazur\Campamento 5to 2008
1,86 MB 17-05-20
08 3:33:24
----------------------------------------------------------------------------------------------------------------------------------------------------SL270158.JPG
F:\TRABAJOS\Colegios\Arzobispo Crescente Errazuriz\2009\Agenda 2
009\agenda comun\errazur\Campamento 5to 2008
1,95 MB 17-05-2008 3:35:12
SL270158.JPG
F:\TRABAJOS\Colegios\Arzobispo Crescente Errazuriz\2010\agenda 2
010\Agenda 2009\agenda comun\errazur\Campamento 5to 2008
1,95 MB 17-05-20
08 3:35:12
----------------------------------------------------------------------------------------------------------------------------------------------------SL270159.JPG
F:\TRABAJOS\Colegios\Arzobispo Crescente Errazuriz\2009\Agenda 2
009\agenda comun\errazur\Campamento 5to 2008
1,99 MB 17-05-2008 3:35:18
SL270159.JPG
F:\TRABAJOS\Colegios\Arzobispo Crescente Errazuriz\2010\agenda 2
010\Agenda 2009\agenda comun\errazur\Campamento 5to 2008
1,99 MB 17-05-20
08 3:35:18
----------------------------------------------------------------------------------------------------------------------------------------------------SL270161.JPG
F:\TRABAJOS\Colegios\Arzobispo Crescente Errazuriz\2009\Agenda 2

009\agenda comun\errazur\Campamento 5to 2008


2,01 MB 17-05-2008 3:35:46
SL270161.JPG
F:\TRABAJOS\Colegios\Arzobispo Crescente Errazuriz\2010\agenda 2
010\Agenda 2009\agenda comun\errazur\Campamento 5to 2008
2,01 MB 17-05-20
08 3:35:46
----------------------------------------------------------------------------------------------------------------------------------------------------SL270162.JPG
F:\TRABAJOS\Colegios\Arzobispo Crescente Errazuriz\2009\Agenda 2
009\agenda comun\errazur\Campamento 5to 2008
1,95 MB 17-05-2008 3:35:56
SL270162.JPG
F:\TRABAJOS\Colegios\Arzobispo Crescente Errazuriz\2010\agenda 2
010\Agenda 2009\agenda comun\errazur\Campamento 5to 2008
1,95 MB 17-05-20
08 3:35:56
----------------------------------------------------------------------------------------------------------------------------------------------------SL270163.JPG
F:\TRABAJOS\Colegios\Arzobispo Crescente Errazuriz\2009\Agenda 2
009\agenda comun\errazur\Campamento 5to 2008
1,97 MB 17-05-2008 3:36:02
SL270163.JPG
F:\TRABAJOS\Colegios\Arzobispo Crescente Errazuriz\2010\agenda 2
010\Agenda 2009\agenda comun\errazur\Campamento 5to 2008
1,97 MB 17-05-20
08 3:36:02
----------------------------------------------------------------------------------------------------------------------------------------------------SL270164.JPG
F:\TRABAJOS\Colegios\Arzobispo Crescente Errazuriz\2009\Agenda 2
009\agenda comun\errazur\Campamento 5to 2008
1,98 MB 17-05-2008 3:36:18
SL270164.JPG
F:\TRABAJOS\Colegios\Arzobispo Crescente Errazuriz\2010\agenda 2
010\Agenda 2009\agenda comun\errazur\Campamento 5to 2008
1,98 MB 17-05-20
08 3:36:18
----------------------------------------------------------------------------------------------------------------------------------------------------SL270165.JPG
F:\TRABAJOS\Colegios\Arzobispo Crescente Errazuriz\2009\Agenda 2
009\agenda comun\errazur\Campamento 5to 2008
2,00 MB 17-05-2008 3:36:30
SL270165.JPG
F:\TRABAJOS\Colegios\Arzobispo Crescente Errazuriz\2010\agenda 2
010\Agenda 2009\agenda comun\errazur\Campamento 5to 2008
2,00 MB 17-05-20
08 3:36:30
----------------------------------------------------------------------------------------------------------------------------------------------------SL270166.JPG
F:\TRABAJOS\Colegios\Arzobispo Crescente Errazuriz\2009\Agenda 2
009\agenda comun\errazur\Campamento 5to 2008
2,00 MB 17-05-2008 3:36:42
SL270166.JPG
F:\TRABAJOS\Colegios\Arzobispo Crescente Errazuriz\2010\agenda 2
010\Agenda 2009\agenda comun\errazur\Campamento 5to 2008
2,00 MB 17-05-20
08 3:36:42
----------------------------------------------------------------------------------------------------------------------------------------------------SL270167.JPG
F:\TRABAJOS\Colegios\Arzobispo Crescente Errazuriz\2009\Agenda 2
009\agenda comun\errazur\Campamento 5to 2008
1,97 MB 17-05-2008 3:36:50
SL270167.JPG
F:\TRABAJOS\Colegios\Arzobispo Crescente Errazuriz\2010\agenda 2
010\Agenda 2009\agenda comun\errazur\Campamento 5to 2008
1,97 MB 17-05-20
08 3:36:50
----------------------------------------------------------------------------------------------------------------------------------------------------SL270168.JPG
F:\TRABAJOS\Colegios\Arzobispo Crescente Errazuriz\2009\Agenda 2
009\agenda comun\errazur\Campamento 5to 2008
1,99 MB 17-05-2008 3:36:58
SL270168.JPG
F:\TRABAJOS\Colegios\Arzobispo Crescente Errazuriz\2010\agenda 2
010\Agenda 2009\agenda comun\errazur\Campamento 5to 2008
1,99 MB 17-05-20
08 3:36:58
----------------------------------------------------------------------------------------------------------------------------------------------------SL270169.JPG
F:\TRABAJOS\Colegios\Arzobispo Crescente Errazuriz\2009\Agenda 2
009\agenda comun\errazur\Campamento 5to 2008
1,99 MB 17-05-2008 3:37:04
SL270169.JPG
F:\TRABAJOS\Colegios\Arzobispo Crescente Errazuriz\2010\agenda 2
010\Agenda 2009\agenda comun\errazur\Campamento 5to 2008
1,99 MB 17-05-20
08 3:37:04

----------------------------------------------------------------------------------------------------------------------------------------------------SL270170.JPG
F:\TRABAJOS\Colegios\Arzobispo Crescente Errazuriz\2009\Agenda 2
009\agenda comun\errazur\Campamento 5to 2008
1,98 MB 17-05-2008 3:37:12
SL270170.JPG
F:\TRABAJOS\Colegios\Arzobispo Crescente Errazuriz\2010\agenda 2
010\Agenda 2009\agenda comun\errazur\Campamento 5to 2008
1,98 MB 17-05-20
08 3:37:12
----------------------------------------------------------------------------------------------------------------------------------------------------SL270171.JPG
F:\TRABAJOS\Colegios\Arzobispo Crescente Errazuriz\2009\Agenda 2
009\agenda comun\errazur\Campamento 5to 2008
2,01 MB 17-05-2008 3:37:26
SL270171.JPG
F:\TRABAJOS\Colegios\Arzobispo Crescente Errazuriz\2010\agenda 2
010\Agenda 2009\agenda comun\errazur\Campamento 5to 2008
2,01 MB 17-05-20
08 3:37:26
----------------------------------------------------------------------------------------------------------------------------------------------------SL270173.JPG
F:\TRABAJOS\Colegios\Arzobispo Crescente Errazuriz\2009\Agenda 2
009\agenda comun\errazur\Campamento 5to 2008
1,97 MB 17-05-2008 3:38:20
SL270173.JPG
F:\TRABAJOS\Colegios\Arzobispo Crescente Errazuriz\2010\agenda 2
010\Agenda 2009\agenda comun\errazur\Campamento 5to 2008
1,97 MB 17-05-20
08 3:38:20
----------------------------------------------------------------------------------------------------------------------------------------------------SL270174.JPG
F:\TRABAJOS\Colegios\Arzobispo Crescente Errazuriz\2009\Agenda 2
009\agenda comun\errazur\Campamento 5to 2008
1,97 MB 17-05-2008 3:38:50
SL270174.JPG
F:\TRABAJOS\Colegios\Arzobispo Crescente Errazuriz\2010\agenda 2
010\Agenda 2009\agenda comun\errazur\Campamento 5to 2008
1,97 MB 17-05-20
08 3:38:50
----------------------------------------------------------------------------------------------------------------------------------------------------SL270175.JPG
F:\TRABAJOS\Colegios\Arzobispo Crescente Errazuriz\2009\Agenda 2
009\agenda comun\errazur\Campamento 5to 2008
1,95 MB 17-05-2008 3:39:04
SL270175.JPG
F:\TRABAJOS\Colegios\Arzobispo Crescente Errazuriz\2010\agenda 2
010\Agenda 2009\agenda comun\errazur\Campamento 5to 2008
1,95 MB 17-05-20
08 3:39:04
----------------------------------------------------------------------------------------------------------------------------------------------------SL270176.JPG
F:\TRABAJOS\Colegios\Arzobispo Crescente Errazuriz\2009\Agenda 2
009\agenda comun\errazur\Campamento 5to 2008
1,91 MB 17-05-2008 3:39:16
SL270176.JPG
F:\TRABAJOS\Colegios\Arzobispo Crescente Errazuriz\2010\agenda 2
010\Agenda 2009\agenda comun\errazur\Campamento 5to 2008
1,91 MB 17-05-20
08 3:39:16
----------------------------------------------------------------------------------------------------------------------------------------------------SL270177.JPG
F:\TRABAJOS\Colegios\Arzobispo Crescente Errazuriz\2009\Agenda 2
009\agenda comun\errazur\Campamento 5to 2008
1,94 MB 17-05-2008 3:39:28
SL270177.JPG
F:\TRABAJOS\Colegios\Arzobispo Crescente Errazuriz\2010\agenda 2
010\Agenda 2009\agenda comun\errazur\Campamento 5to 2008
1,94 MB 17-05-20
08 3:39:28
----------------------------------------------------------------------------------------------------------------------------------------------------SL270178.JPG
F:\TRABAJOS\Colegios\Arzobispo Crescente Errazuriz\2009\Agenda 2
009\agenda comun\errazur\Campamento 5to 2008
1,95 MB 17-05-2008 3:39:56
SL270178.JPG
F:\TRABAJOS\Colegios\Arzobispo Crescente Errazuriz\2010\agenda 2
010\Agenda 2009\agenda comun\errazur\Campamento 5to 2008
1,95 MB 17-05-20
08 3:39:56
----------------------------------------------------------------------------------------------------------------------------------------------------SL270180.JPG
F:\TRABAJOS\Colegios\Arzobispo Crescente Errazuriz\2009\Agenda 2
009\agenda comun\errazur\Campamento 5to 2008
1,98 MB 17-05-2008 3:42:36

SL270180.JPG
F:\TRABAJOS\Colegios\Arzobispo Crescente Errazuriz\2010\agenda 2
010\Agenda 2009\agenda comun\errazur\Campamento 5to 2008
1,98 MB 17-05-20
08 3:42:36
----------------------------------------------------------------------------------------------------------------------------------------------------SL270181.JPG
F:\TRABAJOS\Colegios\Arzobispo Crescente Errazuriz\2009\Agenda 2
009\agenda comun\errazur\Campamento 5to 2008
1,99 MB 17-05-2008 3:42:42
SL270181.JPG
F:\TRABAJOS\Colegios\Arzobispo Crescente Errazuriz\2010\agenda 2
010\Agenda 2009\agenda comun\errazur\Campamento 5to 2008
1,99 MB 17-05-20
08 3:42:42
----------------------------------------------------------------------------------------------------------------------------------------------------SL270183.JPG
F:\TRABAJOS\Colegios\Arzobispo Crescente Errazuriz\2009\Agenda 2
009\agenda comun\errazur\Campamento 5to 2008
1,97 MB 17-05-2008 3:43:56
SL270183.JPG
F:\TRABAJOS\Colegios\Arzobispo Crescente Errazuriz\2010\agenda 2
010\Agenda 2009\agenda comun\errazur\Campamento 5to 2008
1,97 MB 17-05-20
08 3:43:56
----------------------------------------------------------------------------------------------------------------------------------------------------SL270184.JPG
F:\TRABAJOS\Colegios\Arzobispo Crescente Errazuriz\2009\Agenda 2
009\agenda comun\errazur\Campamento 5to 2008
1,95 MB 17-05-2008 13:17:12
SL270184.JPG
F:\TRABAJOS\Colegios\Arzobispo Crescente Errazuriz\2010\agenda 2
010\Agenda 2009\agenda comun\errazur\Campamento 5to 2008
1,95 MB 17-05-20
08 13:17:12
----------------------------------------------------------------------------------------------------------------------------------------------------SL270186.JPG
F:\TRABAJOS\Colegios\Arzobispo Crescente Errazuriz\2009\Agenda 2
009\agenda comun\errazur\Campamento 5to 2008
1,95 MB 17-05-2008 13:17:26
SL270186.JPG
F:\TRABAJOS\Colegios\Arzobispo Crescente Errazuriz\2010\agenda 2
010\Agenda 2009\agenda comun\errazur\Campamento 5to 2008
1,95 MB 17-05-20
08 13:17:26
----------------------------------------------------------------------------------------------------------------------------------------------------SL270187.JPG
F:\TRABAJOS\Colegios\Arzobispo Crescente Errazuriz\2009\Agenda 2
009\agenda comun\errazur\Campamento 5to 2008
2,00 MB 17-05-2008 13:19:12
SL270187.JPG
F:\TRABAJOS\Colegios\Arzobispo Crescente Errazuriz\2010\agenda 2
010\Agenda 2009\agenda comun\errazur\Campamento 5to 2008
2,00 MB 17-05-20
08 13:19:12
----------------------------------------------------------------------------------------------------------------------------------------------------SL270189.JPG
F:\TRABAJOS\Colegios\Arzobispo Crescente Errazuriz\2009\Agenda 2
009\agenda comun\errazur\Campamento 5to 2008
1,92 MB 17-05-2008 13:19:34
SL270189.JPG
F:\TRABAJOS\Colegios\Arzobispo Crescente Errazuriz\2010\agenda 2
010\Agenda 2009\agenda comun\errazur\Campamento 5to 2008
1,92 MB 17-05-20
08 13:19:34
----------------------------------------------------------------------------------------------------------------------------------------------------SL270193.JPG
F:\TRABAJOS\Colegios\Arzobispo Crescente Errazuriz\2009\Agenda 2
009\agenda comun\errazur\Campamento 5to 2008
1,92 MB 17-05-2008 14:43:56
SL270193.JPG
F:\TRABAJOS\Colegios\Arzobispo Crescente Errazuriz\2010\agenda 2
010\Agenda 2009\agenda comun\errazur\Campamento 5to 2008
1,92 MB 17-05-20
08 14:43:56
----------------------------------------------------------------------------------------------------------------------------------------------------SL270198.JPG
F:\TRABAJOS\Colegios\Arzobispo Crescente Errazuriz\2009\Agenda 2
009\agenda comun\errazur\Campamento 5to 2008
1,94 MB 17-05-2008 15:11:20
SL270198.JPG
F:\TRABAJOS\Colegios\Arzobispo Crescente Errazuriz\2010\agenda 2
010\Agenda 2009\agenda comun\errazur\Campamento 5to 2008
1,94 MB 17-05-20
08 15:11:20
--------------------------------------------------------------------------------

---------------------------------------------------------------------SL270199.JPG
F:\TRABAJOS\Colegios\Arzobispo Crescente Errazuriz\2009\Agenda 2
009\agenda comun\errazur\Campamento 5to 2008
1,98 MB 17-05-2008 15:11:42
SL270199.JPG
F:\TRABAJOS\Colegios\Arzobispo Crescente Errazuriz\2010\agenda 2
010\Agenda 2009\agenda comun\errazur\Campamento 5to 2008
1,98 MB 17-05-20
08 15:11:42
----------------------------------------------------------------------------------------------------------------------------------------------------SL270200.JPG
F:\TRABAJOS\Colegios\Arzobispo Crescente Errazuriz\2009\Agenda 2
009\agenda comun\errazur\Campamento 5to 2008
1,94 MB 17-05-2008 15:11:48
SL270200.JPG
F:\TRABAJOS\Colegios\Arzobispo Crescente Errazuriz\2010\agenda 2
010\Agenda 2009\agenda comun\errazur\Campamento 5to 2008
1,94 MB 17-05-20
08 15:11:48
----------------------------------------------------------------------------------------------------------------------------------------------------SL270201.JPG
F:\TRABAJOS\Colegios\Arzobispo Crescente Errazuriz\2009\Agenda 2
009\agenda comun\errazur\Campamento 5to 2008
1,90 MB 17-05-2008 15:11:58
SL270201.JPG
F:\TRABAJOS\Colegios\Arzobispo Crescente Errazuriz\2010\agenda 2
010\Agenda 2009\agenda comun\errazur\Campamento 5to 2008
1,90 MB 17-05-20
08 15:11:58
----------------------------------------------------------------------------------------------------------------------------------------------------SL270202.JPG
F:\TRABAJOS\Colegios\Arzobispo Crescente Errazuriz\2009\Agenda 2
009\agenda comun\errazur\Campamento 5to 2008
1,98 MB 17-05-2008 15:12:00
SL270202.JPG
F:\TRABAJOS\Colegios\Arzobispo Crescente Errazuriz\2010\agenda 2
010\Agenda 2009\agenda comun\errazur\Campamento 5to 2008
1,98 MB 17-05-20
08 15:12:00
----------------------------------------------------------------------------------------------------------------------------------------------------SL270203.JPG
F:\TRABAJOS\Colegios\Arzobispo Crescente Errazuriz\2009\Agenda 2
009\agenda comun\errazur\Campamento 5to 2008
1,99 MB 17-05-2008 15:12:10
SL270203.JPG
F:\TRABAJOS\Colegios\Arzobispo Crescente Errazuriz\2010\agenda 2
010\Agenda 2009\agenda comun\errazur\Campamento 5to 2008
1,99 MB 17-05-20
08 15:12:10
----------------------------------------------------------------------------------------------------------------------------------------------------SL270204.JPG
F:\TRABAJOS\Colegios\Arzobispo Crescente Errazuriz\2009\Agenda 2
009\agenda comun\errazur\Campamento 5to 2008
1,98 MB 17-05-2008 15:12:18
SL270204.JPG
F:\TRABAJOS\Colegios\Arzobispo Crescente Errazuriz\2010\agenda 2
010\Agenda 2009\agenda comun\errazur\Campamento 5to 2008
1,98 MB 17-05-20
08 15:12:18
----------------------------------------------------------------------------------------------------------------------------------------------------SL270205.JPG
F:\TRABAJOS\Colegios\Arzobispo Crescente Errazuriz\2009\Agenda 2
009\agenda comun\errazur\Campamento 5to 2008
1,98 MB 17-05-2008 15:12:30
SL270205.JPG
F:\TRABAJOS\Colegios\Arzobispo Crescente Errazuriz\2010\agenda 2
010\Agenda 2009\agenda comun\errazur\Campamento 5to 2008
1,98 MB 17-05-20
08 15:12:30
----------------------------------------------------------------------------------------------------------------------------------------------------SL270206.JPG
F:\TRABAJOS\Colegios\Arzobispo Crescente Errazuriz\2009\Agenda 2
009\agenda comun\errazur\Campamento 5to 2008
1,95 MB 17-05-2008 15:14:46
SL270206.JPG
F:\TRABAJOS\Colegios\Arzobispo Crescente Errazuriz\2010\agenda 2
010\Agenda 2009\agenda comun\errazur\Campamento 5to 2008
1,95 MB 17-05-20
08 15:14:46
----------------------------------------------------------------------------------------------------------------------------------------------------SL270207.JPG
F:\TRABAJOS\Colegios\Arzobispo Crescente Errazuriz\2009\Agenda 2
009\agenda comun\errazur\Campamento 5to 2008
1,98 MB 17-05-2008 15:15:20
SL270207.JPG
F:\TRABAJOS\Colegios\Arzobispo Crescente Errazuriz\2010\agenda 2

010\Agenda 2009\agenda comun\errazur\Campamento 5to 2008


1,98 MB 17-05-20
08 15:15:20
----------------------------------------------------------------------------------------------------------------------------------------------------SL270208.JPG
F:\TRABAJOS\Colegios\Arzobispo Crescente Errazuriz\2009\Agenda 2
009\agenda comun\errazur\Campamento 5to 2008
2,00 MB 17-05-2008 15:16:18
SL270208.JPG
F:\TRABAJOS\Colegios\Arzobispo Crescente Errazuriz\2010\agenda 2
010\Agenda 2009\agenda comun\errazur\Campamento 5to 2008
2,00 MB 17-05-20
08 15:16:18
----------------------------------------------------------------------------------------------------------------------------------------------------SL270209.JPG
F:\TRABAJOS\Colegios\Arzobispo Crescente Errazuriz\2009\Agenda 2
009\agenda comun\errazur\Campamento 5to 2008
1,95 MB 17-05-2008 15:16:26
SL270209.JPG
F:\TRABAJOS\Colegios\Arzobispo Crescente Errazuriz\2010\agenda 2
010\Agenda 2009\agenda comun\errazur\Campamento 5to 2008
1,95 MB 17-05-20
08 15:16:26
----------------------------------------------------------------------------------------------------------------------------------------------------SL270210.JPG
F:\TRABAJOS\Colegios\Arzobispo Crescente Errazuriz\2009\Agenda 2
009\agenda comun\errazur\Campamento 5to 2008
1,99 MB 17-05-2008 15:16:30
SL270210.JPG
F:\TRABAJOS\Colegios\Arzobispo Crescente Errazuriz\2010\agenda 2
010\Agenda 2009\agenda comun\errazur\Campamento 5to 2008
1,99 MB 17-05-20
08 15:16:30
----------------------------------------------------------------------------------------------------------------------------------------------------SL270211.JPG
F:\TRABAJOS\Colegios\Arzobispo Crescente Errazuriz\2009\Agenda 2
009\agenda comun\errazur\Campamento 5to 2008
2,00 MB 17-05-2008 15:16:48
SL270211.JPG
F:\TRABAJOS\Colegios\Arzobispo Crescente Errazuriz\2010\agenda 2
010\Agenda 2009\agenda comun\errazur\Campamento 5to 2008
2,00 MB 17-05-20
08 15:16:48
----------------------------------------------------------------------------------------------------------------------------------------------------SL270212.JPG
F:\TRABAJOS\Colegios\Arzobispo Crescente Errazuriz\2009\Agenda 2
009\agenda comun\errazur\Campamento 5to 2008
1,98 MB 17-05-2008 15:17:00
SL270212.JPG
F:\TRABAJOS\Colegios\Arzobispo Crescente Errazuriz\2010\agenda 2
010\Agenda 2009\agenda comun\errazur\Campamento 5to 2008
1,98 MB 17-05-20
08 15:17:00
----------------------------------------------------------------------------------------------------------------------------------------------------SL270213.JPG
F:\TRABAJOS\Colegios\Arzobispo Crescente Errazuriz\2009\Agenda 2
009\agenda comun\errazur\Campamento 5to 2008
1,96 MB 17-05-2008 15:17:06
SL270213.JPG
F:\TRABAJOS\Colegios\Arzobispo Crescente Errazuriz\2010\agenda 2
010\Agenda 2009\agenda comun\errazur\Campamento 5to 2008
1,96 MB 17-05-20
08 15:17:06
----------------------------------------------------------------------------------------------------------------------------------------------------SL270214.JPG
F:\TRABAJOS\Colegios\Arzobispo Crescente Errazuriz\2009\Agenda 2
009\agenda comun\errazur\Campamento 5to 2008
1,99 MB 17-05-2008 15:17:14
SL270214.JPG
F:\TRABAJOS\Colegios\Arzobispo Crescente Errazuriz\2010\agenda 2
010\Agenda 2009\agenda comun\errazur\Campamento 5to 2008
1,99 MB 17-05-20
08 15:17:14
----------------------------------------------------------------------------------------------------------------------------------------------------SL270215.JPG
F:\TRABAJOS\Colegios\Arzobispo Crescente Errazuriz\2009\Agenda 2
009\agenda comun\errazur\Campamento 5to 2008
1,97 MB 17-05-2008 15:18:14
SL270215.JPG
F:\TRABAJOS\Colegios\Arzobispo Crescente Errazuriz\2010\agenda 2
010\Agenda 2009\agenda comun\errazur\Campamento 5to 2008
1,97 MB 17-05-20
08 15:18:14
-----------------------------------------------------------------------------------------------------------------------------------------------------

SL270216.JPG
F:\TRABAJOS\Colegios\Arzobispo Crescente Errazuriz\2009\Agenda 2
009\agenda comun\errazur\Campamento 5to 2008
1,99 MB 17-05-2008 15:18:20
SL270216.JPG
F:\TRABAJOS\Colegios\Arzobispo Crescente Errazuriz\2010\agenda 2
010\Agenda 2009\agenda comun\errazur\Campamento 5to 2008
1,99 MB 17-05-20
08 15:18:20
----------------------------------------------------------------------------------------------------------------------------------------------------SL270217.JPG
F:\TRABAJOS\Colegios\Arzobispo Crescente Errazuriz\2009\Agenda 2
009\agenda comun\errazur\Campamento 5to 2008
1,98 MB 17-05-2008 15:18:22
SL270217.JPG
F:\TRABAJOS\Colegios\Arzobispo Crescente Errazuriz\2010\agenda 2
010\Agenda 2009\agenda comun\errazur\Campamento 5to 2008
1,98 MB 17-05-20
08 15:18:22
----------------------------------------------------------------------------------------------------------------------------------------------------SL270218.JPG
F:\TRABAJOS\Colegios\Arzobispo Crescente Errazuriz\2009\Agenda 2
009\agenda comun\errazur\Campamento 5to 2008
1,98 MB 17-05-2008 15:18:48
SL270218.JPG
F:\TRABAJOS\Colegios\Arzobispo Crescente Errazuriz\2010\agenda 2
010\Agenda 2009\agenda comun\errazur\Campamento 5to 2008
1,98 MB 17-05-20
08 15:18:48
----------------------------------------------------------------------------------------------------------------------------------------------------SL270219.JPG
F:\TRABAJOS\Colegios\Arzobispo Crescente Errazuriz\2009\Agenda 2
009\agenda comun\errazur\Campamento 5to 2008
1,98 MB 17-05-2008 15:18:56
SL270219.JPG
F:\TRABAJOS\Colegios\Arzobispo Crescente Errazuriz\2010\agenda 2
010\Agenda 2009\agenda comun\errazur\Campamento 5to 2008
1,98 MB 17-05-20
08 15:18:56
----------------------------------------------------------------------------------------------------------------------------------------------------SL270220.JPG
F:\TRABAJOS\Colegios\Arzobispo Crescente Errazuriz\2009\Agenda 2
009\agenda comun\errazur\Campamento 5to 2008
1,97 MB 17-05-2008 15:19:52
SL270220.JPG
F:\TRABAJOS\Colegios\Arzobispo Crescente Errazuriz\2010\agenda 2
010\Agenda 2009\agenda comun\errazur\Campamento 5to 2008
1,97 MB 17-05-20
08 15:19:52
----------------------------------------------------------------------------------------------------------------------------------------------------SL270221.JPG
F:\TRABAJOS\Colegios\Arzobispo Crescente Errazuriz\2009\Agenda 2
009\agenda comun\errazur\Campamento 5to 2008
1,97 MB 17-05-2008 15:20:14
SL270221.JPG
F:\TRABAJOS\Colegios\Arzobispo Crescente Errazuriz\2010\agenda 2
010\Agenda 2009\agenda comun\errazur\Campamento 5to 2008
1,97 MB 17-05-20
08 15:20:14
----------------------------------------------------------------------------------------------------------------------------------------------------SL270223.JPG
F:\TRABAJOS\Colegios\Arzobispo Crescente Errazuriz\2009\Agenda 2
009\agenda comun\errazur\Campamento 5to 2008
1,96 MB 17-05-2008 15:21:22
SL270223.JPG
F:\TRABAJOS\Colegios\Arzobispo Crescente Errazuriz\2010\agenda 2
010\Agenda 2009\agenda comun\errazur\Campamento 5to 2008
1,96 MB 17-05-20
08 15:21:22
----------------------------------------------------------------------------------------------------------------------------------------------------SL270225.JPG
F:\TRABAJOS\Colegios\Arzobispo Crescente Errazuriz\2009\Agenda 2
009\agenda comun\errazur\Campamento 5to 2008
1,91 MB 17-05-2008 15:22:40
SL270225.JPG
F:\TRABAJOS\Colegios\Arzobispo Crescente Errazuriz\2010\agenda 2
010\Agenda 2009\agenda comun\errazur\Campamento 5to 2008
1,91 MB 17-05-20
08 15:22:40
----------------------------------------------------------------------------------------------------------------------------------------------------SL270226.JPG
F:\TRABAJOS\Colegios\Arzobispo Crescente Errazuriz\2009\Agenda 2
009\agenda comun\errazur\Campamento 5to 2008
1,95 MB 17-05-2008 15:42:40
SL270226.JPG
F:\TRABAJOS\Colegios\Arzobispo Crescente Errazuriz\2010\agenda 2
010\Agenda 2009\agenda comun\errazur\Campamento 5to 2008
1,95 MB 17-05-20

08 15:42:40
----------------------------------------------------------------------------------------------------------------------------------------------------SL270227.JPG
F:\TRABAJOS\Colegios\Arzobispo Crescente Errazuriz\2009\Agenda 2
009\agenda comun\errazur\Campamento 5to 2008
1,93 MB 17-05-2008 15:50:12
SL270227.JPG
F:\TRABAJOS\Colegios\Arzobispo Crescente Errazuriz\2010\agenda 2
010\Agenda 2009\agenda comun\errazur\Campamento 5to 2008
1,93 MB 17-05-20
08 15:50:12
----------------------------------------------------------------------------------------------------------------------------------------------------SL270228.JPG
F:\TRABAJOS\Colegios\Arzobispo Crescente Errazuriz\2009\Agenda 2
009\agenda comun\errazur\Campamento 5to 2008
1,93 MB 17-05-2008 15:50:16
SL270228.JPG
F:\TRABAJOS\Colegios\Arzobispo Crescente Errazuriz\2010\agenda 2
010\Agenda 2009\agenda comun\errazur\Campamento 5to 2008
1,93 MB 17-05-20
08 15:50:16
----------------------------------------------------------------------------------------------------------------------------------------------------SL270229.JPG
F:\TRABAJOS\Colegios\Arzobispo Crescente Errazuriz\2009\Agenda 2
009\agenda comun\errazur\Campamento 5to 2008
1,95 MB 17-05-2008 15:52:24
SL270229.JPG
F:\TRABAJOS\Colegios\Arzobispo Crescente Errazuriz\2010\agenda 2
010\Agenda 2009\agenda comun\errazur\Campamento 5to 2008
1,95 MB 17-05-20
08 15:52:24
----------------------------------------------------------------------------------------------------------------------------------------------------SL270230.JPG
F:\TRABAJOS\Colegios\Arzobispo Crescente Errazuriz\2009\Agenda 2
009\agenda comun\errazur\Campamento 5to 2008
1,98 MB 17-05-2008 15:52:30
SL270230.JPG
F:\TRABAJOS\Colegios\Arzobispo Crescente Errazuriz\2010\agenda 2
010\Agenda 2009\agenda comun\errazur\Campamento 5to 2008
1,98 MB 17-05-20
08 15:52:30
----------------------------------------------------------------------------------------------------------------------------------------------------SL270232.JPG
F:\TRABAJOS\Colegios\Arzobispo Crescente Errazuriz\2009\Agenda 2
009\agenda comun\errazur\Campamento 5to 2008
1,80 MB 17-05-2008 15:58:52
SL270232.JPG
F:\TRABAJOS\Colegios\Arzobispo Crescente Errazuriz\2010\agenda 2
010\Agenda 2009\agenda comun\errazur\Campamento 5to 2008
1,80 MB 17-05-20
08 15:58:52
----------------------------------------------------------------------------------------------------------------------------------------------------SL270233.JPG
F:\TRABAJOS\Colegios\Arzobispo Crescente Errazuriz\2009\Agenda 2
009\agenda comun\errazur\Campamento 5to 2008
1,97 MB 17-05-2008 16:07:08
SL270233.JPG
F:\TRABAJOS\Colegios\Arzobispo Crescente Errazuriz\2010\agenda 2
010\Agenda 2009\agenda comun\errazur\Campamento 5to 2008
1,97 MB 17-05-20
08 16:07:08
----------------------------------------------------------------------------------------------------------------------------------------------------SL270234.JPG
F:\TRABAJOS\Colegios\Arzobispo Crescente Errazuriz\2009\Agenda 2
009\agenda comun\errazur\Campamento 5to 2008
1,98 MB 17-05-2008 16:11:18
SL270234.JPG
F:\TRABAJOS\Colegios\Arzobispo Crescente Errazuriz\2010\agenda 2
010\Agenda 2009\agenda comun\errazur\Campamento 5to 2008
1,98 MB 17-05-20
08 16:11:18
----------------------------------------------------------------------------------------------------------------------------------------------------SL270235.JPG
F:\TRABAJOS\Colegios\Arzobispo Crescente Errazuriz\2009\Agenda 2
009\agenda comun\errazur\Campamento 5to 2008
1,96 MB 17-05-2008 16:11:28
SL270235.JPG
F:\TRABAJOS\Colegios\Arzobispo Crescente Errazuriz\2010\agenda 2
010\Agenda 2009\agenda comun\errazur\Campamento 5to 2008
1,96 MB 17-05-20
08 16:11:28
----------------------------------------------------------------------------------------------------------------------------------------------------SL270236.JPG
F:\TRABAJOS\Colegios\Arzobispo Crescente Errazuriz\2009\Agenda 2

009\agenda comun\errazur\Campamento 5to 2008


2,00 MB 17-05-2008 16:17:02
SL270236.JPG
F:\TRABAJOS\Colegios\Arzobispo Crescente Errazuriz\2010\agenda 2
010\Agenda 2009\agenda comun\errazur\Campamento 5to 2008
2,00 MB 17-05-20
08 16:17:02
----------------------------------------------------------------------------------------------------------------------------------------------------SL270237.JPG
F:\TRABAJOS\Colegios\Arzobispo Crescente Errazuriz\2009\Agenda 2
009\agenda comun\errazur\Campamento 5to 2008
1,90 MB 17-05-2008 16:17:40
SL270237.JPG
F:\TRABAJOS\Colegios\Arzobispo Crescente Errazuriz\2010\agenda 2
010\Agenda 2009\agenda comun\errazur\Campamento 5to 2008
1,90 MB 17-05-20
08 16:17:40
----------------------------------------------------------------------------------------------------------------------------------------------------SL270238.JPG
F:\TRABAJOS\Colegios\Arzobispo Crescente Errazuriz\2009\Agenda 2
009\agenda comun\errazur\Campamento 5to 2008
1,98 MB 17-05-2008 16:18:26
SL270238.JPG
F:\TRABAJOS\Colegios\Arzobispo Crescente Errazuriz\2010\agenda 2
010\Agenda 2009\agenda comun\errazur\Campamento 5to 2008
1,98 MB 17-05-20
08 16:18:26
----------------------------------------------------------------------------------------------------------------------------------------------------SL270239.JPG
F:\TRABAJOS\Colegios\Arzobispo Crescente Errazuriz\2009\Agenda 2
009\agenda comun\errazur\Campamento 5to 2008
1,94 MB 17-05-2008 16:22:36
SL270239.JPG
F:\TRABAJOS\Colegios\Arzobispo Crescente Errazuriz\2010\agenda 2
010\Agenda 2009\agenda comun\errazur\Campamento 5to 2008
1,94 MB 17-05-20
08 16:22:36
----------------------------------------------------------------------------------------------------------------------------------------------------SL270240.JPG
F:\TRABAJOS\Colegios\Arzobispo Crescente Errazuriz\2009\Agenda 2
009\agenda comun\errazur\Campamento 5to 2008
1,97 MB 17-05-2008 16:22:56
SL270240.JPG
F:\TRABAJOS\Colegios\Arzobispo Crescente Errazuriz\2010\agenda 2
010\Agenda 2009\agenda comun\errazur\Campamento 5to 2008
1,97 MB 17-05-20
08 16:22:56
----------------------------------------------------------------------------------------------------------------------------------------------------SL270241.JPG
F:\TRABAJOS\Colegios\Arzobispo Crescente Errazuriz\2009\Agenda 2
009\agenda comun\errazur\Campamento 5to 2008
1,95 MB 17-05-2008 16:23:00
SL270241.JPG
F:\TRABAJOS\Colegios\Arzobispo Crescente Errazuriz\2010\agenda 2
010\Agenda 2009\agenda comun\errazur\Campamento 5to 2008
1,95 MB 17-05-20
08 16:23:00
----------------------------------------------------------------------------------------------------------------------------------------------------SL270242.JPG
F:\TRABAJOS\Colegios\Arzobispo Crescente Errazuriz\2009\Agenda 2
009\agenda comun\errazur\Campamento 5to 2008
1,97 MB 17-05-2008 16:23:02
SL270242.JPG
F:\TRABAJOS\Colegios\Arzobispo Crescente Errazuriz\2010\agenda 2
010\Agenda 2009\agenda comun\errazur\Campamento 5to 2008
1,97 MB 17-05-20
08 16:23:02
----------------------------------------------------------------------------------------------------------------------------------------------------SL270243.JPG
F:\TRABAJOS\Colegios\Arzobispo Crescente Errazuriz\2009\Agenda 2
009\agenda comun\errazur\Campamento 5to 2008
1,97 MB 17-05-2008 16:25:24
SL270243.JPG
F:\TRABAJOS\Colegios\Arzobispo Crescente Errazuriz\2010\agenda 2
010\Agenda 2009\agenda comun\errazur\Campamento 5to 2008
1,97 MB 17-05-20
08 16:25:24
----------------------------------------------------------------------------------------------------------------------------------------------------SL270244.JPG
F:\TRABAJOS\Colegios\Arzobispo Crescente Errazuriz\2009\Agenda 2
009\agenda comun\errazur\Campamento 5to 2008
1,96 MB 17-05-2008 16:25:30
SL270244.JPG
F:\TRABAJOS\Colegios\Arzobispo Crescente Errazuriz\2010\agenda 2
010\Agenda 2009\agenda comun\errazur\Campamento 5to 2008
1,96 MB 17-05-20
08 16:25:30

----------------------------------------------------------------------------------------------------------------------------------------------------SL270245.JPG
F:\TRABAJOS\Colegios\Arzobispo Crescente Errazuriz\2009\Agenda 2
009\agenda comun\errazur\Campamento 5to 2008
1,97 MB 17-05-2008 16:25:38
SL270245.JPG
F:\TRABAJOS\Colegios\Arzobispo Crescente Errazuriz\2010\agenda 2
010\Agenda 2009\agenda comun\errazur\Campamento 5to 2008
1,97 MB 17-05-20
08 16:25:38
----------------------------------------------------------------------------------------------------------------------------------------------------SL270246.JPG
F:\TRABAJOS\Colegios\Arzobispo Crescente Errazuriz\2009\Agenda 2
009\agenda comun\errazur\Campamento 5to 2008
1,99 MB 17-05-2008 16:26:04
SL270246.JPG
F:\TRABAJOS\Colegios\Arzobispo Crescente Errazuriz\2010\agenda 2
010\Agenda 2009\agenda comun\errazur\Campamento 5to 2008
1,99 MB 17-05-20
08 16:26:04
----------------------------------------------------------------------------------------------------------------------------------------------------SL270247.JPG
F:\TRABAJOS\Colegios\Arzobispo Crescente Errazuriz\2009\Agenda 2
009\agenda comun\errazur\Campamento 5to 2008
1,94 MB 17-05-2008 16:30:48
SL270247.JPG
F:\TRABAJOS\Colegios\Arzobispo Crescente Errazuriz\2010\agenda 2
010\Agenda 2009\agenda comun\errazur\Campamento 5to 2008
1,94 MB 17-05-20
08 16:30:48
----------------------------------------------------------------------------------------------------------------------------------------------------SL270249.JPG
F:\TRABAJOS\Colegios\Arzobispo Crescente Errazuriz\2009\Agenda 2
009\agenda comun\errazur\Campamento 5to 2008
1,93 MB 17-05-2008 16:31:06
SL270249.JPG
F:\TRABAJOS\Colegios\Arzobispo Crescente Errazuriz\2010\agenda 2
010\Agenda 2009\agenda comun\errazur\Campamento 5to 2008
1,93 MB 17-05-20
08 16:31:06
----------------------------------------------------------------------------------------------------------------------------------------------------SL270250.JPG
F:\TRABAJOS\Colegios\Arzobispo Crescente Errazuriz\2009\Agenda 2
009\agenda comun\errazur\Campamento 5to 2008
1,97 MB 17-05-2008 16:31:14
SL270250.JPG
F:\TRABAJOS\Colegios\Arzobispo Crescente Errazuriz\2010\agenda 2
010\Agenda 2009\agenda comun\errazur\Campamento 5to 2008
1,97 MB 17-05-20
08 16:31:14
----------------------------------------------------------------------------------------------------------------------------------------------------SL270251.JPG
F:\TRABAJOS\Colegios\Arzobispo Crescente Errazuriz\2009\Agenda 2
009\agenda comun\errazur\Campamento 5to 2008
1,99 MB 17-05-2008 16:36:06
SL270251.JPG
F:\TRABAJOS\Colegios\Arzobispo Crescente Errazuriz\2010\agenda 2
010\Agenda 2009\agenda comun\errazur\Campamento 5to 2008
1,99 MB 17-05-20
08 16:36:06
----------------------------------------------------------------------------------------------------------------------------------------------------SL270252.JPG
F:\TRABAJOS\Colegios\Arzobispo Crescente Errazuriz\2009\Agenda 2
009\agenda comun\errazur\Campamento 5to 2008
2,00 MB 17-05-2008 16:36:12
SL270252.JPG
F:\TRABAJOS\Colegios\Arzobispo Crescente Errazuriz\2010\agenda 2
010\Agenda 2009\agenda comun\errazur\Campamento 5to 2008
2,00 MB 17-05-20
08 16:36:12
----------------------------------------------------------------------------------------------------------------------------------------------------SL270253.JPG
F:\TRABAJOS\Colegios\Arzobispo Crescente Errazuriz\2009\Agenda 2
009\agenda comun\errazur\Campamento 5to 2008
1,95 MB 17-05-2008 16:37:04
SL270253.JPG
F:\TRABAJOS\Colegios\Arzobispo Crescente Errazuriz\2010\agenda 2
010\Agenda 2009\agenda comun\errazur\Campamento 5to 2008
1,95 MB 17-05-20
08 16:37:04
----------------------------------------------------------------------------------------------------------------------------------------------------SL270254.JPG
F:\TRABAJOS\Colegios\Arzobispo Crescente Errazuriz\2009\Agenda 2
009\agenda comun\errazur\Campamento 5to 2008
1,97 MB 17-05-2008 17:07:04

SL270254.JPG
F:\TRABAJOS\Colegios\Arzobispo Crescente Errazuriz\2010\agenda 2
010\Agenda 2009\agenda comun\errazur\Campamento 5to 2008
1,97 MB 17-05-20
08 17:07:04
----------------------------------------------------------------------------------------------------------------------------------------------------SL270255.JPG
F:\TRABAJOS\Colegios\Arzobispo Crescente Errazuriz\2009\Agenda 2
009\agenda comun\errazur\Campamento 5to 2008
1,95 MB 17-05-2008 17:07:14
SL270255.JPG
F:\TRABAJOS\Colegios\Arzobispo Crescente Errazuriz\2010\agenda 2
010\Agenda 2009\agenda comun\errazur\Campamento 5to 2008
1,95 MB 17-05-20
08 17:07:14
----------------------------------------------------------------------------------------------------------------------------------------------------SL270256.JPG
F:\TRABAJOS\Colegios\Arzobispo Crescente Errazuriz\2009\Agenda 2
009\agenda comun\errazur\Campamento 5to 2008
1,93 MB 17-05-2008 17:07:34
SL270256.JPG
F:\TRABAJOS\Colegios\Arzobispo Crescente Errazuriz\2010\agenda 2
010\Agenda 2009\agenda comun\errazur\Campamento 5to 2008
1,93 MB 17-05-20
08 17:07:34
----------------------------------------------------------------------------------------------------------------------------------------------------SL270257.JPG
F:\TRABAJOS\Colegios\Arzobispo Crescente Errazuriz\2009\Agenda 2
009\agenda comun\errazur\Campamento 5to 2008
1,97 MB 17-05-2008 17:07:40
SL270257.JPG
F:\TRABAJOS\Colegios\Arzobispo Crescente Errazuriz\2010\agenda 2
010\Agenda 2009\agenda comun\errazur\Campamento 5to 2008
1,97 MB 17-05-20
08 17:07:40
----------------------------------------------------------------------------------------------------------------------------------------------------SL270258.JPG
F:\TRABAJOS\Colegios\Arzobispo Crescente Errazuriz\2009\Agenda 2
009\agenda comun\errazur\Campamento 5to 2008
1,99 MB 17-05-2008 17:07:52
SL270258.JPG
F:\TRABAJOS\Colegios\Arzobispo Crescente Errazuriz\2010\agenda 2
010\Agenda 2009\agenda comun\errazur\Campamento 5to 2008
1,99 MB 17-05-20
08 17:07:52
----------------------------------------------------------------------------------------------------------------------------------------------------SL270260.JPG
F:\TRABAJOS\Colegios\Arzobispo Crescente Errazuriz\2009\Agenda 2
009\agenda comun\errazur\Campamento 5to 2008
1,93 MB 17-05-2008 17:08:40
SL270260.JPG
F:\TRABAJOS\Colegios\Arzobispo Crescente Errazuriz\2010\agenda 2
010\Agenda 2009\agenda comun\errazur\Campamento 5to 2008
1,93 MB 17-05-20
08 17:08:40
----------------------------------------------------------------------------------------------------------------------------------------------------SL270261.JPG
F:\TRABAJOS\Colegios\Arzobispo Crescente Errazuriz\2009\Agenda 2
009\agenda comun\errazur\Campamento 5to 2008
1,98 MB 17-05-2008 17:09:22
SL270261.JPG
F:\TRABAJOS\Colegios\Arzobispo Crescente Errazuriz\2010\agenda 2
010\Agenda 2009\agenda comun\errazur\Campamento 5to 2008
1,98 MB 17-05-20
08 17:09:22
----------------------------------------------------------------------------------------------------------------------------------------------------SL270262.JPG
F:\TRABAJOS\Colegios\Arzobispo Crescente Errazuriz\2009\Agenda 2
009\agenda comun\errazur\Campamento 5to 2008
1,99 MB 17-05-2008 17:09:38
SL270262.JPG
F:\TRABAJOS\Colegios\Arzobispo Crescente Errazuriz\2010\agenda 2
010\Agenda 2009\agenda comun\errazur\Campamento 5to 2008
1,99 MB 17-05-20
08 17:09:38
----------------------------------------------------------------------------------------------------------------------------------------------------SL270263.JPG
F:\TRABAJOS\Colegios\Arzobispo Crescente Errazuriz\2009\Agenda 2
009\agenda comun\errazur\Campamento 5to 2008
1,98 MB 17-05-2008 17:09:56
SL270263.JPG
F:\TRABAJOS\Colegios\Arzobispo Crescente Errazuriz\2010\agenda 2
010\Agenda 2009\agenda comun\errazur\Campamento 5to 2008
1,98 MB 17-05-20
08 17:09:56
--------------------------------------------------------------------------------

---------------------------------------------------------------------SL270264.JPG
F:\TRABAJOS\Colegios\Arzobispo Crescente Errazuriz\2009\Agenda 2
009\agenda comun\errazur\Campamento 5to 2008
1,99 MB 17-05-2008 17:10:24
SL270264.JPG
F:\TRABAJOS\Colegios\Arzobispo Crescente Errazuriz\2010\agenda 2
010\Agenda 2009\agenda comun\errazur\Campamento 5to 2008
1,99 MB 17-05-20
08 17:10:24
----------------------------------------------------------------------------------------------------------------------------------------------------SL270265.JPG
F:\TRABAJOS\Colegios\Arzobispo Crescente Errazuriz\2009\Agenda 2
009\agenda comun\errazur\Campamento 5to 2008
1,99 MB 17-05-2008 17:10:36
SL270265.JPG
F:\TRABAJOS\Colegios\Arzobispo Crescente Errazuriz\2010\agenda 2
010\Agenda 2009\agenda comun\errazur\Campamento 5to 2008
1,99 MB 17-05-20
08 17:10:36
----------------------------------------------------------------------------------------------------------------------------------------------------SL270266.JPG
F:\TRABAJOS\Colegios\Arzobispo Crescente Errazuriz\2009\Agenda 2
009\agenda comun\errazur\Campamento 5to 2008
1,98 MB 17-05-2008 17:10:44
SL270266.JPG
F:\TRABAJOS\Colegios\Arzobispo Crescente Errazuriz\2010\agenda 2
010\Agenda 2009\agenda comun\errazur\Campamento 5to 2008
1,98 MB 17-05-20
08 17:10:44
----------------------------------------------------------------------------------------------------------------------------------------------------SL270267.JPG
F:\TRABAJOS\Colegios\Arzobispo Crescente Errazuriz\2009\Agenda 2
009\agenda comun\errazur\Campamento 5to 2008
1,97 MB 17-05-2008 17:10:50
SL270267.JPG
F:\TRABAJOS\Colegios\Arzobispo Crescente Errazuriz\2010\agenda 2
010\Agenda 2009\agenda comun\errazur\Campamento 5to 2008
1,97 MB 17-05-20
08 17:10:50
----------------------------------------------------------------------------------------------------------------------------------------------------SL270268.JPG
F:\TRABAJOS\Colegios\Arzobispo Crescente Errazuriz\2009\Agenda 2
009\agenda comun\errazur\Campamento 5to 2008
1,98 MB 17-05-2008 17:11:12
SL270268.JPG
F:\TRABAJOS\Colegios\Arzobispo Crescente Errazuriz\2010\agenda 2
010\Agenda 2009\agenda comun\errazur\Campamento 5to 2008
1,98 MB 17-05-20
08 17:11:12
----------------------------------------------------------------------------------------------------------------------------------------------------SL270269.JPG
F:\TRABAJOS\Colegios\Arzobispo Crescente Errazuriz\2009\Agenda 2
009\agenda comun\errazur\Campamento 5to 2008
2,01 MB 17-05-2008 17:11:30
SL270269.JPG
F:\TRABAJOS\Colegios\Arzobispo Crescente Errazuriz\2010\agenda 2
010\Agenda 2009\agenda comun\errazur\Campamento 5to 2008
2,01 MB 17-05-20
08 17:11:30
----------------------------------------------------------------------------------------------------------------------------------------------------SL270270.JPG
F:\TRABAJOS\Colegios\Arzobispo Crescente Errazuriz\2009\Agenda 2
009\agenda comun\errazur\Campamento 5to 2008
2,01 MB 17-05-2008 17:12:14
SL270270.JPG
F:\TRABAJOS\Colegios\Arzobispo Crescente Errazuriz\2010\agenda 2
010\Agenda 2009\agenda comun\errazur\Campamento 5to 2008
2,01 MB 17-05-20
08 17:12:14
----------------------------------------------------------------------------------------------------------------------------------------------------SL270271.JPG
F:\TRABAJOS\Colegios\Arzobispo Crescente Errazuriz\2009\Agenda 2
009\agenda comun\errazur\Campamento 5to 2008
1,99 MB 17-05-2008 17:12:30
SL270271.JPG
F:\TRABAJOS\Colegios\Arzobispo Crescente Errazuriz\2010\agenda 2
010\Agenda 2009\agenda comun\errazur\Campamento 5to 2008
1,99 MB 17-05-20
08 17:12:30
----------------------------------------------------------------------------------------------------------------------------------------------------SL270272.JPG
F:\TRABAJOS\Colegios\Arzobispo Crescente Errazuriz\2009\Agenda 2
009\agenda comun\errazur\Campamento 5to 2008
1,94 MB 17-05-2008 17:12:44
SL270272.JPG
F:\TRABAJOS\Colegios\Arzobispo Crescente Errazuriz\2010\agenda 2

010\Agenda 2009\agenda comun\errazur\Campamento 5to 2008


1,94 MB 17-05-20
08 17:12:44
----------------------------------------------------------------------------------------------------------------------------------------------------SL270273.JPG
F:\TRABAJOS\Colegios\Arzobispo Crescente Errazuriz\2009\Agenda 2
009\agenda comun\errazur\Campamento 5to 2008
1,96 MB 17-05-2008 17:13:08
SL270273.JPG
F:\TRABAJOS\Colegios\Arzobispo Crescente Errazuriz\2010\agenda 2
010\Agenda 2009\agenda comun\errazur\Campamento 5to 2008
1,96 MB 17-05-20
08 17:13:08
----------------------------------------------------------------------------------------------------------------------------------------------------SL270274.JPG
F:\TRABAJOS\Colegios\Arzobispo Crescente Errazuriz\2009\Agenda 2
009\agenda comun\errazur\Campamento 5to 2008
1,98 MB 17-05-2008 17:13:22
SL270274.JPG
F:\TRABAJOS\Colegios\Arzobispo Crescente Errazuriz\2010\agenda 2
010\Agenda 2009\agenda comun\errazur\Campamento 5to 2008
1,98 MB 17-05-20
08 17:13:22
----------------------------------------------------------------------------------------------------------------------------------------------------SL270275.JPG
F:\TRABAJOS\Colegios\Arzobispo Crescente Errazuriz\2009\Agenda 2
009\agenda comun\errazur\Campamento 5to 2008
1,94 MB 17-05-2008 17:13:34
SL270275.JPG
F:\TRABAJOS\Colegios\Arzobispo Crescente Errazuriz\2010\agenda 2
010\Agenda 2009\agenda comun\errazur\Campamento 5to 2008
1,94 MB 17-05-20
08 17:13:34
----------------------------------------------------------------------------------------------------------------------------------------------------SL270276.JPG
F:\TRABAJOS\Colegios\Arzobispo Crescente Errazuriz\2009\Agenda 2
009\agenda comun\errazur\Campamento 5to 2008
1,96 MB 17-05-2008 17:15:40
SL270276.JPG
F:\TRABAJOS\Colegios\Arzobispo Crescente Errazuriz\2010\agenda 2
010\Agenda 2009\agenda comun\errazur\Campamento 5to 2008
1,96 MB 17-05-20
08 17:15:40
----------------------------------------------------------------------------------------------------------------------------------------------------SL270277.JPG
F:\TRABAJOS\Colegios\Arzobispo Crescente Errazuriz\2009\Agenda 2
009\agenda comun\errazur\Campamento 5to 2008
1,93 MB 17-05-2008 17:16:42
SL270277.JPG
F:\TRABAJOS\Colegios\Arzobispo Crescente Errazuriz\2010\agenda 2
010\Agenda 2009\agenda comun\errazur\Campamento 5to 2008
1,93 MB 17-05-20
08 17:16:42
----------------------------------------------------------------------------------------------------------------------------------------------------SL270278.JPG
F:\TRABAJOS\Colegios\Arzobispo Crescente Errazuriz\2009\Agenda 2
009\agenda comun\errazur\Campamento 5to 2008
1,97 MB 17-05-2008 17:23:42
SL270278.JPG
F:\TRABAJOS\Colegios\Arzobispo Crescente Errazuriz\2010\agenda 2
010\Agenda 2009\agenda comun\errazur\Campamento 5to 2008
1,97 MB 17-05-20
08 17:23:42
----------------------------------------------------------------------------------------------------------------------------------------------------SL270279.JPG
F:\TRABAJOS\Colegios\Arzobispo Crescente Errazuriz\2009\Agenda 2
009\agenda comun\errazur\Campamento 5to 2008
1,96 MB 17-05-2008 17:23:50
SL270279.JPG
F:\TRABAJOS\Colegios\Arzobispo Crescente Errazuriz\2010\agenda 2
010\Agenda 2009\agenda comun\errazur\Campamento 5to 2008
1,96 MB 17-05-20
08 17:23:50
----------------------------------------------------------------------------------------------------------------------------------------------------SL270280.JPG
F:\TRABAJOS\Colegios\Arzobispo Crescente Errazuriz\2009\Agenda 2
009\agenda comun\errazur\Campamento 5to 2008
1,97 MB 17-05-2008 17:24:04
SL270280.JPG
F:\TRABAJOS\Colegios\Arzobispo Crescente Errazuriz\2010\agenda 2
010\Agenda 2009\agenda comun\errazur\Campamento 5to 2008
1,97 MB 17-05-20
08 17:24:04
-----------------------------------------------------------------------------------------------------------------------------------------------------

SL270281.JPG
F:\TRABAJOS\Colegios\Arzobispo Crescente Errazuriz\2009\Agenda 2
009\agenda comun\errazur\Campamento 5to 2008
1,99 MB 17-05-2008 17:33:30
SL270281.JPG
F:\TRABAJOS\Colegios\Arzobispo Crescente Errazuriz\2010\agenda 2
010\Agenda 2009\agenda comun\errazur\Campamento 5to 2008
1,99 MB 17-05-20
08 17:33:30
----------------------------------------------------------------------------------------------------------------------------------------------------SL270282.JPG
F:\TRABAJOS\Colegios\Arzobispo Crescente Errazuriz\2009\Agenda 2
009\agenda comun\errazur\Campamento 5to 2008
1,97 MB 17-05-2008 17:33:36
SL270282.JPG
F:\TRABAJOS\Colegios\Arzobispo Crescente Errazuriz\2010\agenda 2
010\Agenda 2009\agenda comun\errazur\Campamento 5to 2008
1,97 MB 17-05-20
08 17:33:36
----------------------------------------------------------------------------------------------------------------------------------------------------SL270283.JPG
F:\TRABAJOS\Colegios\Arzobispo Crescente Errazuriz\2009\Agenda 2
009\agenda comun\errazur\Campamento 5to 2008
1,98 MB 17-05-2008 17:33:44
SL270283.JPG
F:\TRABAJOS\Colegios\Arzobispo Crescente Errazuriz\2010\agenda 2
010\Agenda 2009\agenda comun\errazur\Campamento 5to 2008
1,98 MB 17-05-20
08 17:33:44
----------------------------------------------------------------------------------------------------------------------------------------------------SL270284.JPG
F:\TRABAJOS\Colegios\Arzobispo Crescente Errazuriz\2009\Agenda 2
009\agenda comun\errazur\Campamento 5to 2008
1,97 MB 17-05-2008 17:33:52
SL270284.JPG
F:\TRABAJOS\Colegios\Arzobispo Crescente Errazuriz\2010\agenda 2
010\Agenda 2009\agenda comun\errazur\Campamento 5to 2008
1,97 MB 17-05-20
08 17:33:52
----------------------------------------------------------------------------------------------------------------------------------------------------SL270285.JPG
F:\TRABAJOS\Colegios\Arzobispo Crescente Errazuriz\2009\Agenda 2
009\agenda comun\errazur\Campamento 5to 2008
1,99 MB 17-05-2008 17:34:08
SL270285.JPG
F:\TRABAJOS\Colegios\Arzobispo Crescente Errazuriz\2010\agenda 2
010\Agenda 2009\agenda comun\errazur\Campamento 5to 2008
1,99 MB 17-05-20
08 17:34:08
----------------------------------------------------------------------------------------------------------------------------------------------------SL270286.JPG
F:\TRABAJOS\Colegios\Arzobispo Crescente Errazuriz\2009\Agenda 2
009\agenda comun\errazur\Campamento 5to 2008
1,95 MB 17-05-2008 17:34:34
SL270286.JPG
F:\TRABAJOS\Colegios\Arzobispo Crescente Errazuriz\2010\agenda 2
010\Agenda 2009\agenda comun\errazur\Campamento 5to 2008
1,95 MB 17-05-20
08 17:34:34
----------------------------------------------------------------------------------------------------------------------------------------------------SL270287.JPG
F:\TRABAJOS\Colegios\Arzobispo Crescente Errazuriz\2009\Agenda 2
009\agenda comun\errazur\Campamento 5to 2008
1,97 MB 17-05-2008 17:35:02
SL270287.JPG
F:\TRABAJOS\Colegios\Arzobispo Crescente Errazuriz\2010\agenda 2
010\Agenda 2009\agenda comun\errazur\Campamento 5to 2008
1,97 MB 17-05-20
08 17:35:02
----------------------------------------------------------------------------------------------------------------------------------------------------SL270288.JPG
F:\TRABAJOS\Colegios\Arzobispo Crescente Errazuriz\2009\Agenda 2
009\agenda comun\errazur\Campamento 5to 2008
1,97 MB 17-05-2008 17:35:16
SL270288.JPG
F:\TRABAJOS\Colegios\Arzobispo Crescente Errazuriz\2010\agenda 2
010\Agenda 2009\agenda comun\errazur\Campamento 5to 2008
1,97 MB 17-05-20
08 17:35:16
----------------------------------------------------------------------------------------------------------------------------------------------------SL270289.JPG
F:\TRABAJOS\Colegios\Arzobispo Crescente Errazuriz\2009\Agenda 2
009\agenda comun\errazur\Campamento 5to 2008
1,94 MB 17-05-2008 17:35:38
SL270289.JPG
F:\TRABAJOS\Colegios\Arzobispo Crescente Errazuriz\2010\agenda 2
010\Agenda 2009\agenda comun\errazur\Campamento 5to 2008
1,94 MB 17-05-20

08 17:35:38
----------------------------------------------------------------------------------------------------------------------------------------------------SL270290.JPG
F:\TRABAJOS\Colegios\Arzobispo Crescente Errazuriz\2009\Agenda 2
009\agenda comun\errazur\Campamento 5to 2008
1,99 MB 17-05-2008 17:35:48
SL270290.JPG
F:\TRABAJOS\Colegios\Arzobispo Crescente Errazuriz\2010\agenda 2
010\Agenda 2009\agenda comun\errazur\Campamento 5to 2008
1,99 MB 17-05-20
08 17:35:48
----------------------------------------------------------------------------------------------------------------------------------------------------SL270291.JPG
F:\TRABAJOS\Colegios\Arzobispo Crescente Errazuriz\2009\Agenda 2
009\agenda comun\errazur\Campamento 5to 2008
1,98 MB 17-05-2008 17:36:00
SL270291.JPG
F:\TRABAJOS\Colegios\Arzobispo Crescente Errazuriz\2010\agenda 2
010\Agenda 2009\agenda comun\errazur\Campamento 5to 2008
1,98 MB 17-05-20
08 17:36:00
----------------------------------------------------------------------------------------------------------------------------------------------------SL270292.JPG
F:\TRABAJOS\Colegios\Arzobispo Crescente Errazuriz\2009\Agenda 2
009\agenda comun\errazur\Campamento 5to 2008
1,96 MB 17-05-2008 17:36:06
SL270292.JPG
F:\TRABAJOS\Colegios\Arzobispo Crescente Errazuriz\2010\agenda 2
010\Agenda 2009\agenda comun\errazur\Campamento 5to 2008
1,96 MB 17-05-20
08 17:36:06
----------------------------------------------------------------------------------------------------------------------------------------------------SL270293.JPG
F:\TRABAJOS\Colegios\Arzobispo Crescente Errazuriz\2009\Agenda 2
009\agenda comun\errazur\Campamento 5to 2008
2,01 MB 17-05-2008 17:36:24
SL270293.JPG
F:\TRABAJOS\Colegios\Arzobispo Crescente Errazuriz\2010\agenda 2
010\Agenda 2009\agenda comun\errazur\Campamento 5to 2008
2,01 MB 17-05-20
08 17:36:24
----------------------------------------------------------------------------------------------------------------------------------------------------SL270294.JPG
F:\TRABAJOS\Colegios\Arzobispo Crescente Errazuriz\2009\Agenda 2
009\agenda comun\errazur\Campamento 5to 2008
1,99 MB 17-05-2008 17:36:50
SL270294.JPG
F:\TRABAJOS\Colegios\Arzobispo Crescente Errazuriz\2010\agenda 2
010\Agenda 2009\agenda comun\errazur\Campamento 5to 2008
1,99 MB 17-05-20
08 17:36:50
----------------------------------------------------------------------------------------------------------------------------------------------------SL270295.JPG
F:\TRABAJOS\Colegios\Arzobispo Crescente Errazuriz\2009\Agenda 2
009\agenda comun\errazur\Campamento 5to 2008
1,98 MB 17-05-2008 17:37:02
SL270295.JPG
F:\TRABAJOS\Colegios\Arzobispo Crescente Errazuriz\2010\agenda 2
010\Agenda 2009\agenda comun\errazur\Campamento 5to 2008
1,98 MB 17-05-20
08 17:37:02
----------------------------------------------------------------------------------------------------------------------------------------------------SL270296.JPG
F:\TRABAJOS\Colegios\Arzobispo Crescente Errazuriz\2009\Agenda 2
009\agenda comun\errazur\Campamento 5to 2008
2,00 MB 17-05-2008 17:37:20
SL270296.JPG
F:\TRABAJOS\Colegios\Arzobispo Crescente Errazuriz\2010\agenda 2
010\Agenda 2009\agenda comun\errazur\Campamento 5to 2008
2,00 MB 17-05-20
08 17:37:20
----------------------------------------------------------------------------------------------------------------------------------------------------SL270297.JPG
F:\TRABAJOS\Colegios\Arzobispo Crescente Errazuriz\2009\Agenda 2
009\agenda comun\errazur\Campamento 5to 2008
1,96 MB 17-05-2008 17:38:22
SL270297.JPG
F:\TRABAJOS\Colegios\Arzobispo Crescente Errazuriz\2010\agenda 2
010\Agenda 2009\agenda comun\errazur\Campamento 5to 2008
1,96 MB 17-05-20
08 17:38:22
----------------------------------------------------------------------------------------------------------------------------------------------------SL270298.JPG
F:\TRABAJOS\Colegios\Arzobispo Crescente Errazuriz\2009\Agenda 2

009\agenda comun\errazur\Campamento 5to 2008


1,98 MB 17-05-2008 17:38:32
SL270298.JPG
F:\TRABAJOS\Colegios\Arzobispo Crescente Errazuriz\2010\agenda 2
010\Agenda 2009\agenda comun\errazur\Campamento 5to 2008
1,98 MB 17-05-20
08 17:38:32
----------------------------------------------------------------------------------------------------------------------------------------------------SL270299.JPG
F:\TRABAJOS\Colegios\Arzobispo Crescente Errazuriz\2009\Agenda 2
009\agenda comun\errazur\Campamento 5to 2008
1,98 MB 17-05-2008 17:38:48
SL270299.JPG
F:\TRABAJOS\Colegios\Arzobispo Crescente Errazuriz\2010\agenda 2
010\Agenda 2009\agenda comun\errazur\Campamento 5to 2008
1,98 MB 17-05-20
08 17:38:48
----------------------------------------------------------------------------------------------------------------------------------------------------SL270300.JPG
F:\TRABAJOS\Colegios\Arzobispo Crescente Errazuriz\2009\Agenda 2
009\agenda comun\errazur\Campamento 5to 2008
1,99 MB 17-05-2008 17:39:06
SL270300.JPG
F:\TRABAJOS\Colegios\Arzobispo Crescente Errazuriz\2010\agenda 2
010\Agenda 2009\agenda comun\errazur\Campamento 5to 2008
1,99 MB 17-05-20
08 17:39:06
----------------------------------------------------------------------------------------------------------------------------------------------------SL270301.JPG
F:\TRABAJOS\Colegios\Arzobispo Crescente Errazuriz\2009\Agenda 2
009\agenda comun\errazur\Campamento 5to 2008
1,96 MB 17-05-2008 17:42:44
SL270301.JPG
F:\TRABAJOS\Colegios\Arzobispo Crescente Errazuriz\2010\agenda 2
010\Agenda 2009\agenda comun\errazur\Campamento 5to 2008
1,96 MB 17-05-20
08 17:42:44
----------------------------------------------------------------------------------------------------------------------------------------------------SL270302.JPG
F:\TRABAJOS\Colegios\Arzobispo Crescente Errazuriz\2009\Agenda 2
009\agenda comun\errazur\Campamento 5to 2008
2,00 MB 17-05-2008 17:42:58
SL270302.JPG
F:\TRABAJOS\Colegios\Arzobispo Crescente Errazuriz\2010\agenda 2
010\Agenda 2009\agenda comun\errazur\Campamento 5to 2008
2,00 MB 17-05-20
08 17:42:58
----------------------------------------------------------------------------------------------------------------------------------------------------SL270303.JPG
F:\TRABAJOS\Colegios\Arzobispo Crescente Errazuriz\2009\Agenda 2
009\agenda comun\errazur\Campamento 5to 2008
1,83 MB 17-05-2008 17:53:12
SL270303.JPG
F:\TRABAJOS\Colegios\Arzobispo Crescente Errazuriz\2010\agenda 2
010\Agenda 2009\agenda comun\errazur\Campamento 5to 2008
1,83 MB 17-05-20
08 17:53:12
----------------------------------------------------------------------------------------------------------------------------------------------------SL270304.JPG
F:\TRABAJOS\Colegios\Arzobispo Crescente Errazuriz\2009\Agenda 2
009\agenda comun\errazur\Campamento 5to 2008
2,01 MB 17-05-2008 17:53:18
SL270304.JPG
F:\TRABAJOS\Colegios\Arzobispo Crescente Errazuriz\2010\agenda 2
010\Agenda 2009\agenda comun\errazur\Campamento 5to 2008
2,01 MB 17-05-20
08 17:53:18
----------------------------------------------------------------------------------------------------------------------------------------------------SL270306.JPG
F:\TRABAJOS\Colegios\Arzobispo Crescente Errazuriz\2009\Agenda 2
009\agenda comun\errazur\Campamento 5to 2008
1,97 MB 17-05-2008 21:13:54
SL270306.JPG
F:\TRABAJOS\Colegios\Arzobispo Crescente Errazuriz\2010\agenda 2
010\Agenda 2009\agenda comun\errazur\Campamento 5to 2008
1,97 MB 17-05-20
08 21:13:54
----------------------------------------------------------------------------------------------------------------------------------------------------SL270307.JPG
F:\TRABAJOS\Colegios\Arzobispo Crescente Errazuriz\2009\Agenda 2
009\agenda comun\errazur\Campamento 5to 2008
1,97 MB 17-05-2008 21:13:58
SL270307.JPG
F:\TRABAJOS\Colegios\Arzobispo Crescente Errazuriz\2010\agenda 2
010\Agenda 2009\agenda comun\errazur\Campamento 5to 2008
1,97 MB 17-05-20
08 21:13:58

----------------------------------------------------------------------------------------------------------------------------------------------------SL270308.JPG
F:\TRABAJOS\Colegios\Arzobispo Crescente Errazuriz\2009\Agenda 2
009\agenda comun\errazur\Campamento 5to 2008
1,99 MB 17-05-2008 21:14:04
SL270308.JPG
F:\TRABAJOS\Colegios\Arzobispo Crescente Errazuriz\2010\agenda 2
010\Agenda 2009\agenda comun\errazur\Campamento 5to 2008
1,99 MB 17-05-20
08 21:14:04
----------------------------------------------------------------------------------------------------------------------------------------------------SL270309.JPG
F:\TRABAJOS\Colegios\Arzobispo Crescente Errazuriz\2009\Agenda 2
009\agenda comun\errazur\Campamento 5to 2008
1,96 MB 17-05-2008 21:14:14
SL270309.JPG
F:\TRABAJOS\Colegios\Arzobispo Crescente Errazuriz\2010\agenda 2
010\Agenda 2009\agenda comun\errazur\Campamento 5to 2008
1,96 MB 17-05-20
08 21:14:14
----------------------------------------------------------------------------------------------------------------------------------------------------SL270310.JPG
F:\TRABAJOS\Colegios\Arzobispo Crescente Errazuriz\2009\Agenda 2
009\agenda comun\errazur\Campamento 5to 2008
1,97 MB 17-05-2008 21:14:24
SL270310.JPG
F:\TRABAJOS\Colegios\Arzobispo Crescente Errazuriz\2010\agenda 2
010\Agenda 2009\agenda comun\errazur\Campamento 5to 2008
1,97 MB 17-05-20
08 21:14:24
----------------------------------------------------------------------------------------------------------------------------------------------------SL270311.JPG
F:\TRABAJOS\Colegios\Arzobispo Crescente Errazuriz\2009\Agenda 2
009\agenda comun\errazur\Campamento 5to 2008
1,96 MB 17-05-2008 21:14:28
SL270311.JPG
F:\TRABAJOS\Colegios\Arzobispo Crescente Errazuriz\2010\agenda 2
010\Agenda 2009\agenda comun\errazur\Campamento 5to 2008
1,96 MB 17-05-20
08 21:14:28
----------------------------------------------------------------------------------------------------------------------------------------------------SL270312.JPG
F:\TRABAJOS\Colegios\Arzobispo Crescente Errazuriz\2009\Agenda 2
009\agenda comun\errazur\Campamento 5to 2008
1,97 MB 17-05-2008 21:14:56
SL270312.JPG
F:\TRABAJOS\Colegios\Arzobispo Crescente Errazuriz\2010\agenda 2
010\Agenda 2009\agenda comun\errazur\Campamento 5to 2008
1,97 MB 17-05-20
08 21:14:56
----------------------------------------------------------------------------------------------------------------------------------------------------SL270313.JPG
F:\TRABAJOS\Colegios\Arzobispo Crescente Errazuriz\2009\Agenda 2
009\agenda comun\errazur\Campamento 5to 2008
2,00 MB 17-05-2008 21:15:02
SL270313.JPG
F:\TRABAJOS\Colegios\Arzobispo Crescente Errazuriz\2010\agenda 2
010\Agenda 2009\agenda comun\errazur\Campamento 5to 2008
2,00 MB 17-05-20
08 21:15:02
----------------------------------------------------------------------------------------------------------------------------------------------------SL270314.JPG
F:\TRABAJOS\Colegios\Arzobispo Crescente Errazuriz\2009\Agenda 2
009\agenda comun\errazur\Campamento 5to 2008
1,92 MB 17-05-2008 21:17:10
SL270314.JPG
F:\TRABAJOS\Colegios\Arzobispo Crescente Errazuriz\2010\agenda 2
010\Agenda 2009\agenda comun\errazur\Campamento 5to 2008
1,92 MB 17-05-20
08 21:17:10
----------------------------------------------------------------------------------------------------------------------------------------------------SL270315.JPG
F:\TRABAJOS\Colegios\Arzobispo Crescente Errazuriz\2009\Agenda 2
009\agenda comun\errazur\Campamento 5to 2008
1,93 MB 17-05-2008 21:17:50
SL270315.JPG
F:\TRABAJOS\Colegios\Arzobispo Crescente Errazuriz\2010\agenda 2
010\Agenda 2009\agenda comun\errazur\Campamento 5to 2008
1,93 MB 17-05-20
08 21:17:50
----------------------------------------------------------------------------------------------------------------------------------------------------SL270316.JPG
F:\TRABAJOS\Colegios\Arzobispo Crescente Errazuriz\2009\Agenda 2
009\agenda comun\errazur\Campamento 5to 2008
1,92 MB 17-05-2008 21:18:02

SL270316.JPG
F:\TRABAJOS\Colegios\Arzobispo Crescente Errazuriz\2010\agenda 2
010\Agenda 2009\agenda comun\errazur\Campamento 5to 2008
1,92 MB 17-05-20
08 21:18:02
----------------------------------------------------------------------------------------------------------------------------------------------------SL270317.JPG
F:\TRABAJOS\Colegios\Arzobispo Crescente Errazuriz\2009\Agenda 2
009\agenda comun\errazur\Campamento 5to 2008
1,98 MB 17-05-2008 21:18:16
SL270317.JPG
F:\TRABAJOS\Colegios\Arzobispo Crescente Errazuriz\2010\agenda 2
010\Agenda 2009\agenda comun\errazur\Campamento 5to 2008
1,98 MB 17-05-20
08 21:18:16
----------------------------------------------------------------------------------------------------------------------------------------------------SL270318.JPG
F:\TRABAJOS\Colegios\Arzobispo Crescente Errazuriz\2009\Agenda 2
009\agenda comun\errazur\Campamento 5to 2008
1,98 MB 17-05-2008 21:18:46
SL270318.JPG
F:\TRABAJOS\Colegios\Arzobispo Crescente Errazuriz\2010\agenda 2
010\Agenda 2009\agenda comun\errazur\Campamento 5to 2008
1,98 MB 17-05-20
08 21:18:46
----------------------------------------------------------------------------------------------------------------------------------------------------SL270320.JPG
F:\TRABAJOS\Colegios\Arzobispo Crescente Errazuriz\2009\Agenda 2
009\agenda comun\errazur\Campamento 5to 2008
1,97 MB 17-05-2008 21:21:50
SL270320.JPG
F:\TRABAJOS\Colegios\Arzobispo Crescente Errazuriz\2010\agenda 2
010\Agenda 2009\agenda comun\errazur\Campamento 5to 2008
1,97 MB 17-05-20
08 21:21:50
----------------------------------------------------------------------------------------------------------------------------------------------------SL270321.JPG
F:\TRABAJOS\Colegios\Arzobispo Crescente Errazuriz\2009\Agenda 2
009\agenda comun\errazur\Campamento 5to 2008
2,00 MB 17-05-2008 21:22:08
SL270321.JPG
F:\TRABAJOS\Colegios\Arzobispo Crescente Errazuriz\2010\agenda 2
010\Agenda 2009\agenda comun\errazur\Campamento 5to 2008
2,00 MB 17-05-20
08 21:22:08
----------------------------------------------------------------------------------------------------------------------------------------------------SL270322.JPG
F:\TRABAJOS\Colegios\Arzobispo Crescente Errazuriz\2009\Agenda 2
009\agenda comun\errazur\Campamento 5to 2008
1,94 MB 17-05-2008 21:22:14
SL270322.JPG
F:\TRABAJOS\Colegios\Arzobispo Crescente Errazuriz\2010\agenda 2
010\Agenda 2009\agenda comun\errazur\Campamento 5to 2008
1,94 MB 17-05-20
08 21:22:14
----------------------------------------------------------------------------------------------------------------------------------------------------SL270323.JPG
F:\TRABAJOS\Colegios\Arzobispo Crescente Errazuriz\2009\Agenda 2
009\agenda comun\errazur\Campamento 5to 2008
1,96 MB 17-05-2008 21:22:34
SL270323.JPG
F:\TRABAJOS\Colegios\Arzobispo Crescente Errazuriz\2010\agenda 2
010\Agenda 2009\agenda comun\errazur\Campamento 5to 2008
1,96 MB 17-05-20
08 21:22:34
----------------------------------------------------------------------------------------------------------------------------------------------------SL270324.JPG
F:\TRABAJOS\Colegios\Arzobispo Crescente Errazuriz\2009\Agenda 2
009\agenda comun\errazur\Campamento 5to 2008
1,99 MB 17-05-2008 21:24:12
SL270324.JPG
F:\TRABAJOS\Colegios\Arzobispo Crescente Errazuriz\2010\agenda 2
010\Agenda 2009\agenda comun\errazur\Campamento 5to 2008
1,99 MB 17-05-20
08 21:24:12
----------------------------------------------------------------------------------------------------------------------------------------------------SL270326.JPG
F:\TRABAJOS\Colegios\Arzobispo Crescente Errazuriz\2009\Agenda 2
009\agenda comun\errazur\Campamento 5to 2008
1,89 MB 17-05-2008 21:34:14
SL270326.JPG
F:\TRABAJOS\Colegios\Arzobispo Crescente Errazuriz\2010\agenda 2
010\Agenda 2009\agenda comun\errazur\Campamento 5to 2008
1,89 MB 17-05-20
08 21:34:14
--------------------------------------------------------------------------------

---------------------------------------------------------------------SL270327.JPG
F:\TRABAJOS\Colegios\Arzobispo Crescente Errazuriz\2009\Agenda 2
009\agenda comun\errazur\Campamento 5to 2008
1,96 MB 17-05-2008 21:34:22
SL270327.JPG
F:\TRABAJOS\Colegios\Arzobispo Crescente Errazuriz\2010\agenda 2
010\Agenda 2009\agenda comun\errazur\Campamento 5to 2008
1,96 MB 17-05-20
08 21:34:22
----------------------------------------------------------------------------------------------------------------------------------------------------SL270329.JPG
F:\TRABAJOS\Colegios\Arzobispo Crescente Errazuriz\2009\Agenda 2
009\agenda comun\errazur\Campamento 5to 2008
1,97 MB 17-05-2008 21:34:44
SL270329.JPG
F:\TRABAJOS\Colegios\Arzobispo Crescente Errazuriz\2010\agenda 2
010\Agenda 2009\agenda comun\errazur\Campamento 5to 2008
1,97 MB 17-05-20
08 21:34:44
----------------------------------------------------------------------------------------------------------------------------------------------------Fondo Agenda Diaria.psd F:\TRABAJOS\Colegios\Arzobispo Crescente Errazuriz\2009\
Agenda 2009\agenda comun
8,10 MB 19-01-2009 13:06:56
Fondo Agenda Diaria.psd F:\TRABAJOS\Colegios\Arzobispo Crescente Errazuriz\2010\
agenda 2010\Agenda 2009\agenda comun
8,10 MB 19-01-2009 13:06:56
----------------------------------------------------------------------------------------------------------------------------------------------------horario2.jpg
F:\TRABAJOS\Colegios\Arzobispo Crescente Errazuriz\2009\Agenda 2
009\agenda comun
2,87 MB 14-01-2009 18:20:28
horario2.jpg
F:\TRABAJOS\Colegios\Arzobispo Crescente Errazuriz\2010\agenda 2
010\Agenda 2009\agenda comun
2,87 MB 14-01-2009 18:20:28
----------------------------------------------------------------------------------------------------------------------------------------------------informacion.JPG F:\TRABAJOS\Colegios\Arzobispo Crescente Errazuriz\2009\Agenda 2
009\agenda comun
1,69 MB 07-01-2009 13:06:12
informacion.JPG F:\TRABAJOS\Colegios\Arzobispo Crescente Errazuriz\2010\agenda 2
010\Agenda 2009\agenda comun
1,69 MB 07-01-2009 13:06:12
----------------------------------------------------------------------------------------------------------------------------------------------------basica.jpg
F:\TRABAJOS\Colegios\Arzobispo Crescente Errazuriz\2009\Agenda 2
009\tapas 2009 1,27 MB 22-12-2008 17:01:08
basica.jpg
F:\TRABAJOS\Colegios\Arzobispo Crescente Errazuriz\2010\agenda 2
010\Agenda 2009\tapas 2009
1,27 MB 22-12-2008 17:01:08
----------------------------------------------------------------------------------------------------------------------------------------------------basica.psd
F:\TRABAJOS\Colegios\Arzobispo Crescente Errazuriz\2009\Agenda 2
009\tapas 2009 2,58 MB 22-12-2008 14:00:12
basica.psd
F:\TRABAJOS\Colegios\Arzobispo Crescente Errazuriz\2010\agenda 2
010\Agenda 2009\tapas 2009
2,58 MB 22-12-2008 14:00:12
----------------------------------------------------------------------------------------------------------------------------------------------------media.jpg
F:\TRABAJOS\Colegios\Arzobispo Crescente Errazuriz\2009\Agenda 2
009\tapas 2009 1,66 MB 22-12-2008 14:28:04
media.jpg
F:\TRABAJOS\Colegios\Arzobispo Crescente Errazuriz\2010\agenda 2
010\Agenda 2009\tapas 2009
1,66 MB 22-12-2008 14:28:04
----------------------------------------------------------------------------------------------------------------------------------------------------media.psd
F:\TRABAJOS\Colegios\Arzobispo Crescente Errazuriz\2009\Agenda 2
009\tapas 2009 3,55 MB 22-12-2008 14:21:02
media.psd
F:\TRABAJOS\Colegios\Arzobispo Crescente Errazuriz\2010\agenda 2
010\Agenda 2009\tapas 2009
3,55 MB 22-12-2008 14:21:02
----------------------------------------------------------------------------------------------------------------------------------------------------Montaje Tapa 1 (taller Q).FH11 F:\TRABAJOS\Colegios\Arzobispo Crescente Errazur
iz\2009\Agenda 2009\tapas 2009 1,24 MB 29-12-2008 20:23:38
Montaje Tapa 1 (taller Q).FH11 F:\TRABAJOS\Colegios\Arzobispo Crescente Errazur

iz\2010\agenda 2010\Agenda 2009\tapas 2009


1,24 MB 29-12-2008 20:23:38
----------------------------------------------------------------------------------------------------------------------------------------------------tapa 1.jpg
F:\TRABAJOS\Colegios\Arzobispo Crescente Errazuriz\2009\Agenda 2
009\tapas 2009\muestra tapas 2009
1,87 MB 29-12-2008 20:20:12
tapa 1.jpg
F:\TRABAJOS\Colegios\Arzobispo Crescente Errazuriz\2010\agenda 2
010\Agenda 2009\tapas 2009\muestra tapas 2009 1,87 MB 29-12-2008 20:20:12
----------------------------------------------------------------------------------------------------------------------------------------------------tapa 3.jpg
F:\TRABAJOS\Colegios\Arzobispo Crescente Errazuriz\2009\Agenda 2
009\tapas 2009\muestra tapas 2009
1,17 MB 29-12-2008 20:22:56
tapa 3.jpg
F:\TRABAJOS\Colegios\Arzobispo Crescente Errazuriz\2010\agenda 2
010\Agenda 2009\tapas 2009\muestra tapas 2009 1,17 MB 29-12-2008 20:22:56
----------------------------------------------------------------------------------------------------------------------------------------------------prekinder.psd F:\TRABAJOS\Colegios\Arzobispo Crescente Errazuriz\2009\Agenda 2
009\tapas 2009 4,20 MB 22-12-2008 17:08:06
prekinder.psd F:\TRABAJOS\Colegios\Arzobispo Crescente Errazuriz\2010\agenda 2
010\Agenda 2009\tapas 2009
4,20 MB 22-12-2008 17:08:06
----------------------------------------------------------------------------------------------------------------------------------------------------Tapa final.tif F:\TRABAJOS\Colegios\Arzobispo Crescente Errazuriz\2009\Agenda 2
009\tapas 2009 41,8 MB 20-01-2009 15:34:50
Tapa final.tif F:\TRABAJOS\Colegios\Arzobispo Crescente Errazuriz\2009\Agenda 2
009\tapas 2009\tapas montaje
41,8 MB 20-01-2009 15:34:50
Tapa final.tif F:\TRABAJOS\Colegios\Arzobispo Crescente Errazuriz\2010\agenda 2
010\Agenda 2009\tapas 2009
41,8 MB 20-01-2009 15:34:50
Tapa final.tif F:\TRABAJOS\Colegios\Arzobispo Crescente Errazuriz\2010\agenda 2
010\Agenda 2009\tapas 2009\tapas montaje
41,8 MB 20-01-2009 15:34:50
----------------------------------------------------------------------------------------------------------------------------------------------------Tapa-Bsica.psd F:\TRABAJOS\Colegios\Arzobispo Crescente Errazuriz\2009\Agenda 2
009\tapas 2009 20,7 MB 29-12-2008 15:12:32
Tapa-Bsica.psd F:\TRABAJOS\Colegios\Arzobispo Crescente Errazuriz\2010\agenda 2
010\Agenda 2009\tapas 2009
20,7 MB 29-12-2008 15:12:32
----------------------------------------------------------------------------------------------------------------------------------------------------1.tif F:\TRABAJOS\Colegios\Arzobispo Crescente Errazuriz\2009\Agenda 2009\tapa
s 2009\tapas montaje
4,54 MB 20-01-2009 16:39:18
1.tif F:\TRABAJOS\Colegios\Arzobispo Crescente Errazuriz\2010\agenda 2010\Agen
da 2009\tapas 2009\tapas montaje
4,54 MB 20-01-2009 16:39:18
----------------------------------------------------------------------------------------------------------------------------------------------------2.tif F:\TRABAJOS\Colegios\Arzobispo Crescente Errazuriz\2009\Agenda 2009\tapa
s 2009\tapas montaje
4,54 MB 20-01-2009 16:39:10
2.tif F:\TRABAJOS\Colegios\Arzobispo Crescente Errazuriz\2010\agenda 2010\Agen
da 2009\tapas 2009\tapas montaje
4,54 MB 20-01-2009 16:39:10
----------------------------------------------------------------------------------------------------------------------------------------------------3.tif F:\TRABAJOS\Colegios\Arzobispo Crescente Errazuriz\2009\Agenda 2009\tapa
s 2009\tapas montaje
4,54 MB 20-01-2009 16:39:02
3.tif F:\TRABAJOS\Colegios\Arzobispo Crescente Errazuriz\2010\agenda 2010\Agen
da 2009\tapas 2009\tapas montaje
4,54 MB 20-01-2009 16:39:02
----------------------------------------------------------------------------------------------------------------------------------------------------4.tif F:\TRABAJOS\Colegios\Arzobispo Crescente Errazuriz\2009\Agenda 2009\tapa
s 2009\tapas montaje
4,54 MB 20-01-2009 16:38:54
4.tif F:\TRABAJOS\Colegios\Arzobispo Crescente Errazuriz\2010\agenda 2010\Agen
da 2009\tapas 2009\tapas montaje
4,54 MB 20-01-2009 16:38:54
--------------------------------------------------------------------------------

---------------------------------------------------------------------5.tif F:\TRABAJOS\Colegios\Arzobispo Crescente Errazuriz\2009\Agenda 2009\tapa


s 2009\tapas montaje
4,54 MB 20-01-2009 16:38:46
5.tif F:\TRABAJOS\Colegios\Arzobispo Crescente Errazuriz\2010\agenda 2010\Agen
da 2009\tapas 2009\tapas montaje
4,54 MB 20-01-2009 16:38:46
----------------------------------------------------------------------------------------------------------------------------------------------------7.tif F:\TRABAJOS\Colegios\Arzobispo Crescente Errazuriz\2009\Agenda 2009\tapa
s 2009\tapas montaje
4,54 MB 20-01-2009 16:38:38
7.tif F:\TRABAJOS\Colegios\Arzobispo Crescente Errazuriz\2010\agenda 2010\Agen
da 2009\tapas 2009\tapas montaje
4,54 MB 20-01-2009 16:38:38
----------------------------------------------------------------------------------------------------------------------------------------------------basica.tif
F:\TRABAJOS\Colegios\Arzobispo Crescente Errazuriz\2009\Agenda 2
009\tapas 2009\tapas montaje
4,02 MB 20-01-2009 16:38:30
basica.tif
F:\TRABAJOS\Colegios\Arzobispo Crescente Errazuriz\2010\agenda 2
010\Agenda 2009\tapas 2009\tapas montaje
4,02 MB 20-01-2009 16:38:30
----------------------------------------------------------------------------------------------------------------------------------------------------media.tif
F:\TRABAJOS\Colegios\Arzobispo Crescente Errazuriz\2009\Agenda 2
009\tapas 2009\tapas montaje
5,25 MB 20-01-2009 16:38:22
media.tif
F:\TRABAJOS\Colegios\Arzobispo Crescente Errazuriz\2010\agenda 2
010\Agenda 2009\tapas 2009\tapas montaje
5,25 MB 20-01-2009 16:38:22
----------------------------------------------------------------------------------------------------------------------------------------------------prekinder.tif F:\TRABAJOS\Colegios\Arzobispo Crescente Errazuriz\2009\Agenda 2
009\tapas 2009\tapas montaje
4,68 MB 20-01-2009 16:39:24
prekinder.tif F:\TRABAJOS\Colegios\Arzobispo Crescente Errazuriz\2010\agenda 2
010\Agenda 2009\tapas 2009\tapas montaje
4,68 MB 20-01-2009 16:39:24
----------------------------------------------------------------------------------------------------------------------------------------------------tapas.FH11
F:\TRABAJOS\Colegios\Arzobispo Crescente Errazuriz\2009\Agenda 2
009\tapas 2009 1,24 MB 29-12-2008 20:23:38
tapas.FH11
F:\TRABAJOS\Colegios\Arzobispo Crescente Errazuriz\2010\agenda 2
010\Agenda 2009\tapas 2009
1,24 MB 29-12-2008 20:23:38
----------------------------------------------------------------------------------------------------------------------------------------------------bullyng gris.tif
F:\TRABAJOS\Colegios\bullyng\tapa bullyng
5,06 MB
15-09-2008 14:16:38
bullyng gris.tif
F:\TRABAJOS\Colegios\bullyng\tapa bullyng\montaje
5,06 MB 15-09-2008 14:16:38
bullyng gris.tif
F:\TRABAJOS\Colegios\bullyng\tapa bullyng\tapa final
5,06 MB 15-09-2008 14:16:38
----------------------------------------------------------------------------------------------------------------------------------------------------bullyng.tif
F:\TRABAJOS\Colegios\bullyng\tapa bullyng
14,9 MB 15-09-20
08 14:15:56
bullyng.tif
F:\TRABAJOS\Colegios\bullyng\tapa bullyng\montaje
14,9 MB
15-09-2008 14:15:56
bullyng.tif
F:\TRABAJOS\Colegios\bullyng\tapa bullyng\tapa final
14,9 MB
15-09-2008 14:15:56
----------------------------------------------------------------------------------------------------------------------------------------------------DSC00524.JPG
F:\TRABAJOS\Colegios\Cardenal Jos Mara Caro\agenda 2009\tapa\tiber
iades 11-12-08 1,08 MB 11-12-2008 17:49:30
DSC00524.JPG
F:\TRABAJOS\Colegios\Cardenal Ral Silva Henrquez\Agenda 2009\tapa\
tiberiades 11-12-08
1,08 MB 11-12-2008 17:49:30
----------------------------------------------------------------------------------------------------------------------------------------------------DSC00551.JPG
F:\TRABAJOS\Colegios\Cardenal Jos Mara Caro\agenda 2009\tapa\tiber

iades 11-12-08 1,07 MB 11-12-2008 17:51:50


DSC00551.JPG
F:\TRABAJOS\Colegios\Cardenal Ral Silva Henrquez\Agenda 2009\tapa\
tiberiades 11-12-08
1,07 MB 11-12-2008 17:51:50
----------------------------------------------------------------------------------------------------------------------------------------------------DSC00567.JPG
F:\TRABAJOS\Colegios\Cardenal Jos Mara Caro\agenda 2009\tapa\tiber
iades 11-12-08 1,17 MB 11-12-2008 17:52:16
DSC00567.JPG
F:\TRABAJOS\Colegios\Cardenal Ral Silva Henrquez\Agenda 2009\tapa\
tiberiades 11-12-08
1,17 MB 11-12-2008 17:52:16
----------------------------------------------------------------------------------------------------------------------------------------------------IMG_0069.JPG
F:\TRABAJOS\Colegios\Cardenal Jos Mara Caro\agenda 2009\tapa\tiber
iades 11-12-08 1,08 MB 11-12-2008 17:52:44
IMG_0069.JPG
F:\TRABAJOS\Colegios\Cardenal Ral Silva Henrquez\Agenda 2009\tapa\
tiberiades 11-12-08
1,08 MB 11-12-2008 17:52:44
----------------------------------------------------------------------------------------------------------------------------------------------------IMG_0707.JPG
F:\TRABAJOS\Colegios\Cardenal Jos Mara Caro\agenda 2009\tapa\tiber
iades 11-12-08 1,28 MB 11-12-2008 17:53:08
IMG_0707.JPG
F:\TRABAJOS\Colegios\Cardenal Ral Silva Henrquez\Agenda 2009\tapa\
tiberiades 11-12-08
1,28 MB 11-12-2008 17:53:08
----------------------------------------------------------------------------------------------------------------------------------------------------PB180001.JPG
F:\TRABAJOS\Colegios\Cardenal Jos Mara Caro\agenda 2009\tapa\tiber
iades 11-12-08 1,43 MB 11-12-2008 17:53:28
PB180001.JPG
F:\TRABAJOS\Colegios\Cardenal Ral Silva Henrquez\Agenda 2009\tapa\
tiberiades 11-12-08
1,43 MB 11-12-2008 17:53:28
----------------------------------------------------------------------------------------------------------------------------------------------------PB180038.JPG
F:\TRABAJOS\Colegios\Cardenal Jos Mara Caro\agenda 2009\tapa\tiber
iades 11-12-08 1,31 MB 11-12-2008 17:53:48
PB180038.JPG
F:\TRABAJOS\Colegios\Cardenal Ral Silva Henrquez\Agenda 2009\tapa\
tiberiades 11-12-08
1,31 MB 11-12-2008 17:53:48
----------------------------------------------------------------------------------------------------------------------------------------------------PB180049.JPG
F:\TRABAJOS\Colegios\Cardenal Jos Mara Caro\agenda 2009\tapa\tiber
iades 11-12-08 1,26 MB 11-12-2008 17:54:08
PB180049.JPG
F:\TRABAJOS\Colegios\Cardenal Ral Silva Henrquez\Agenda 2009\tapa\
tiberiades 11-12-08
1,26 MB 11-12-2008 17:54:08
----------------------------------------------------------------------------------------------------------------------------------------------------PB180053.JPG
F:\TRABAJOS\Colegios\Cardenal Jos Mara Caro\agenda 2009\tapa\tiber
iades 11-12-08 1,33 MB 11-12-2008 17:59:22
PB180053.JPG
F:\TRABAJOS\Colegios\Cardenal Ral Silva Henrquez\Agenda 2009\tapa\
tiberiades 11-12-08
1,33 MB 11-12-2008 17:59:22
----------------------------------------------------------------------------------------------------------------------------------------------------PB180054.JPG
F:\TRABAJOS\Colegios\Cardenal Jos Mara Caro\agenda 2009\tapa\tiber
iades 11-12-08 1,37 MB 11-12-2008 17:54:26
PB180054.JPG
F:\TRABAJOS\Colegios\Cardenal Ral Silva Henrquez\Agenda 2009\tapa\
tiberiades 11-12-08
1,37 MB 11-12-2008 17:54:26
----------------------------------------------------------------------------------------------------------------------------------------------------TAPA FINAL.tif F:\TRABAJOS\Colegios\Cardenal Jos Mara Caro\agenda 2009\tapa\tiber
iades 12-12-08 42,4 MB 12-12-2008 16:08:32
TAPA FINAL.tif F:\TRABAJOS\Colegios\Cardenal Ral Silva Henrquez\Agenda 2009\tapa\
tiberiades 12-12-08
42,4 MB 12-12-2008 16:08:32
----------------------------------------------------------------------------------------------------------------------------------------------------IMG_0045.JPG
F:\TRABAJOS\Colegios\Cardenal Ral Silva Henrquez\2009\Fotos Colegi

o\agenda
1,63 MB 15-05-2008 22:00:10
IMG_0045.JPG
F:\TRABAJOS\Colegios\Cardenal Ral Silva Henrquez\Agenda 2009\Fotos
Colegio\agenda 1,63 MB 15-05-2008 22:00:10
----------------------------------------------------------------------------------------------------------------------------------------------------IMG_0050.JPG
F:\TRABAJOS\Colegios\Cardenal Ral Silva Henrquez\2009\Fotos Colegi
o\agenda
1,83 MB 15-05-2008 22:02:28
IMG_0050.JPG
F:\TRABAJOS\Colegios\Cardenal Ral Silva Henrquez\Agenda 2009\Fotos
Colegio\agenda 1,83 MB 15-05-2008 22:02:28
----------------------------------------------------------------------------------------------------------------------------------------------------IMG_0061.JPG
F:\TRABAJOS\Colegios\Cardenal Ral Silva Henrquez\2009\Fotos Colegi
o\agenda
1,86 MB 16-05-2008 14:45:10
IMG_0061.JPG
F:\TRABAJOS\Colegios\Cardenal Ral Silva Henrquez\Agenda 2009\Fotos
Colegio\agenda 1,86 MB 16-05-2008 14:45:10
----------------------------------------------------------------------------------------------------------------------------------------------------IMG_0064.JPG
F:\TRABAJOS\Colegios\Cardenal Ral Silva Henrquez\2009\Fotos Colegi
o\agenda
2,15 MB 16-05-2008 14:46:24
IMG_0064.JPG
F:\TRABAJOS\Colegios\Cardenal Ral Silva Henrquez\Agenda 2009\Fotos
Colegio\agenda 2,15 MB 16-05-2008 14:46:24
----------------------------------------------------------------------------------------------------------------------------------------------------IMG_0069.JPG
F:\TRABAJOS\Colegios\Cardenal Ral Silva Henrquez\2009\Fotos Colegi
o\agenda
1,91 MB 16-05-2008 14:56:34
IMG_0069.JPG
F:\TRABAJOS\Colegios\Cardenal Ral Silva Henrquez\Agenda 2009\Fotos
Colegio\agenda 1,91 MB 16-05-2008 14:56:34
----------------------------------------------------------------------------------------------------------------------------------------------------IMG_0514.JPG
F:\TRABAJOS\Colegios\Cardenal Ral Silva Henrquez\2009\Fotos Colegi
o\agenda
2,15 MB 25-06-2008 18:32:48
IMG_0514.JPG
F:\TRABAJOS\Colegios\Cardenal Ral Silva Henrquez\Agenda 2009\Fotos
Colegio\agenda 2,15 MB 25-06-2008 18:32:48
----------------------------------------------------------------------------------------------------------------------------------------------------IMG_0533.JPG
F:\TRABAJOS\Colegios\Cardenal Ral Silva Henrquez\2009\Fotos Colegi
o\agenda
1,54 MB 26-06-2008 18:04:20
IMG_0533.JPG
F:\TRABAJOS\Colegios\Cardenal Ral Silva Henrquez\Agenda 2009\Fotos
Colegio\agenda 1,54 MB 26-06-2008 18:04:20
----------------------------------------------------------------------------------------------------------------------------------------------------IMG_0685.JPG
F:\TRABAJOS\Colegios\Cardenal Ral Silva Henrquez\2009\Fotos Colegi
o\agenda
1,37 MB 01-08-2008 16:49:26
IMG_0685.JPG
F:\TRABAJOS\Colegios\Cardenal Ral Silva Henrquez\Agenda 2009\Fotos
Colegio\agenda 1,37 MB 01-08-2008 16:49:26
----------------------------------------------------------------------------------------------------------------------------------------------------IMG_0707.JPG
F:\TRABAJOS\Colegios\Cardenal Ral Silva Henrquez\2009\Fotos Colegi
o\agenda
1,47 MB 06-08-2008 19:51:34
IMG_0707.JPG
F:\TRABAJOS\Colegios\Cardenal Ral Silva Henrquez\Agenda 2009\Fotos
Colegio\agenda 1,47 MB 06-08-2008 19:51:34
----------------------------------------------------------------------------------------------------------------------------------------------------IMG_0757.JPG
F:\TRABAJOS\Colegios\Cardenal Ral Silva Henrquez\2009\Fotos Colegi
o\agenda
1,48 MB 20-08-2008 15:11:38
IMG_0757.JPG
F:\TRABAJOS\Colegios\Cardenal Ral Silva Henrquez\Agenda 2009\Fotos
Colegio\agenda 1,48 MB 20-08-2008 15:11:38
----------------------------------------------------------------------------------------------------------------------------------------------------IMG_0766.JPG
F:\TRABAJOS\Colegios\Cardenal Ral Silva Henrquez\2009\Fotos Colegi

o\agenda
1,77 MB 20-08-2008 15:16:30
IMG_0766.JPG
F:\TRABAJOS\Colegios\Cardenal Ral Silva Henrquez\Agenda 2009\Fotos
Colegio\agenda 1,77 MB 20-08-2008 15:16:30
----------------------------------------------------------------------------------------------------------------------------------------------------IMG_0782.JPG
F:\TRABAJOS\Colegios\Cardenal Ral Silva Henrquez\2009\Fotos Colegi
o\agenda
1,64 MB 20-08-2008 15:44:18
IMG_0782.JPG
F:\TRABAJOS\Colegios\Cardenal Ral Silva Henrquez\Agenda 2009\Fotos
Colegio\agenda 1,64 MB 20-08-2008 15:44:18
----------------------------------------------------------------------------------------------------------------------------------------------------IMG_0788.JPG
F:\TRABAJOS\Colegios\Cardenal Ral Silva Henrquez\2009\Fotos Colegi
o\agenda
1,54 MB 20-08-2008 16:18:36
IMG_0788.JPG
F:\TRABAJOS\Colegios\Cardenal Ral Silva Henrquez\Agenda 2009\Fotos
Colegio\agenda 1,54 MB 20-08-2008 16:18:36
----------------------------------------------------------------------------------------------------------------------------------------------------IMG_0790.JPG
F:\TRABAJOS\Colegios\Cardenal Ral Silva Henrquez\2009\Fotos Colegi
o\agenda
1,71 MB 20-08-2008 16:19:12
IMG_0790.JPG
F:\TRABAJOS\Colegios\Cardenal Ral Silva Henrquez\Agenda 2009\Fotos
Colegio\agenda 1,71 MB 20-08-2008 16:19:12
----------------------------------------------------------------------------------------------------------------------------------------------------IMG_0794.JPG
F:\TRABAJOS\Colegios\Cardenal Ral Silva Henrquez\2009\Fotos Colegi
o\agenda
1,65 MB 20-08-2008 16:20:26
IMG_0794.JPG
F:\TRABAJOS\Colegios\Cardenal Ral Silva Henrquez\Agenda 2009\Fotos
Colegio\agenda 1,65 MB 20-08-2008 16:20:26
----------------------------------------------------------------------------------------------------------------------------------------------------IMG_0808.JPG
F:\TRABAJOS\Colegios\Cardenal Ral Silva Henrquez\2009\Fotos Colegi
o\agenda
1,49 MB 22-08-2008 14:22:32
IMG_0808.JPG
F:\TRABAJOS\Colegios\Cardenal Ral Silva Henrquez\Agenda 2009\Fotos
Colegio\agenda 1,49 MB 22-08-2008 14:22:32
----------------------------------------------------------------------------------------------------------------------------------------------------IMG_0820.JPG
F:\TRABAJOS\Colegios\Cardenal Ral Silva Henrquez\2009\Fotos Colegi
o\agenda
1,44 MB 22-08-2008 14:41:06
IMG_0820.JPG
F:\TRABAJOS\Colegios\Cardenal Ral Silva Henrquez\Agenda 2009\Fotos
Colegio\agenda 1,44 MB 22-08-2008 14:41:06
----------------------------------------------------------------------------------------------------------------------------------------------------IMG_0821.JPG
F:\TRABAJOS\Colegios\Cardenal Ral Silva Henrquez\2009\Fotos Colegi
o\agenda
1,67 MB 22-08-2008 14:45:34
IMG_0821.JPG
F:\TRABAJOS\Colegios\Cardenal Ral Silva Henrquez\Agenda 2009\Fotos
Colegio\agenda 1,67 MB 22-08-2008 14:45:34
----------------------------------------------------------------------------------------------------------------------------------------------------IMG_0828.JPG
F:\TRABAJOS\Colegios\Cardenal Ral Silva Henrquez\2009\Fotos Colegi
o\agenda
1,44 MB 22-08-2008 14:58:08
IMG_0828.JPG
F:\TRABAJOS\Colegios\Cardenal Ral Silva Henrquez\Agenda 2009\Fotos
Colegio\agenda 1,44 MB 22-08-2008 14:58:08
----------------------------------------------------------------------------------------------------------------------------------------------------IMG_0832.JPG
F:\TRABAJOS\Colegios\Cardenal Ral Silva Henrquez\2009\Fotos Colegi
o\agenda
1,51 MB 22-08-2008 14:59:34
IMG_0832.JPG
F:\TRABAJOS\Colegios\Cardenal Ral Silva Henrquez\Agenda 2009\Fotos
Colegio\agenda 1,51 MB 22-08-2008 14:59:34
----------------------------------------------------------------------------------------------------------------------------------------------------IMG_0835.JPG
F:\TRABAJOS\Colegios\Cardenal Ral Silva Henrquez\2009\Fotos Colegi

o\agenda
1,55 MB 22-08-2008 15:00:32
IMG_0835.JPG
F:\TRABAJOS\Colegios\Cardenal Ral Silva Henrquez\Agenda 2009\Fotos
Colegio\agenda 1,55 MB 22-08-2008 15:00:32
----------------------------------------------------------------------------------------------------------------------------------------------------IMG_0836.JPG
F:\TRABAJOS\Colegios\Cardenal Ral Silva Henrquez\2009\Fotos Colegi
o\agenda
1,34 MB 22-08-2008 15:00:46
IMG_0836.JPG
F:\TRABAJOS\Colegios\Cardenal Ral Silva Henrquez\Agenda 2009\Fotos
Colegio\agenda 1,34 MB 22-08-2008 15:00:46
----------------------------------------------------------------------------------------------------------------------------------------------------IMG_0838.JPG
F:\TRABAJOS\Colegios\Cardenal Ral Silva Henrquez\2009\Fotos Colegi
o\agenda
1,72 MB 22-08-2008 15:01:38
IMG_0838.JPG
F:\TRABAJOS\Colegios\Cardenal Ral Silva Henrquez\Agenda 2009\Fotos
Colegio\agenda 1,72 MB 22-08-2008 15:01:38
----------------------------------------------------------------------------------------------------------------------------------------------------IMG_0849.JPG
F:\TRABAJOS\Colegios\Cardenal Ral Silva Henrquez\2009\Fotos Colegi
o\agenda
1,75 MB 22-08-2008 15:09:22
IMG_0849.JPG
F:\TRABAJOS\Colegios\Cardenal Ral Silva Henrquez\Agenda 2009\Fotos
Colegio\agenda 1,75 MB 22-08-2008 15:09:22
----------------------------------------------------------------------------------------------------------------------------------------------------IMG_0853.JPG
F:\TRABAJOS\Colegios\Cardenal Ral Silva Henrquez\2009\Fotos Colegi
o\agenda
1,58 MB 22-08-2008 15:11:08
IMG_0853.JPG
F:\TRABAJOS\Colegios\Cardenal Ral Silva Henrquez\Agenda 2009\Fotos
Colegio\agenda 1,58 MB 22-08-2008 15:11:08
----------------------------------------------------------------------------------------------------------------------------------------------------IMG_0861.JPG
F:\TRABAJOS\Colegios\Cardenal Ral Silva Henrquez\2009\Fotos Colegi
o\agenda
1,66 MB 22-08-2008 15:30:50
IMG_0861.JPG
F:\TRABAJOS\Colegios\Cardenal Ral Silva Henrquez\Agenda 2009\Fotos
Colegio\agenda 1,66 MB 22-08-2008 15:30:50
----------------------------------------------------------------------------------------------------------------------------------------------------IMG_0872.JPG
F:\TRABAJOS\Colegios\Cardenal Ral Silva Henrquez\2009\Fotos Colegi
o\agenda
1,65 MB 22-08-2008 19:23:04
IMG_0872.JPG
F:\TRABAJOS\Colegios\Cardenal Ral Silva Henrquez\Agenda 2009\Fotos
Colegio\agenda 1,65 MB 22-08-2008 19:23:04
----------------------------------------------------------------------------------------------------------------------------------------------------IMG_1074.JPG
F:\TRABAJOS\Colegios\Cardenal Ral Silva Henrquez\2009\Fotos Colegi
o\agenda
1,07 MB 27-08-2008 14:51:32
IMG_1074.JPG
F:\TRABAJOS\Colegios\Cardenal Ral Silva Henrquez\Agenda 2009\Fotos
Colegio\agenda 1,07 MB 27-08-2008 14:51:32
----------------------------------------------------------------------------------------------------------------------------------------------------IMG_1077.JPG
F:\TRABAJOS\Colegios\Cardenal Ral Silva Henrquez\2009\Fotos Colegi
o\agenda
1,00 MB 27-08-2008 14:52:46
IMG_1077.JPG
F:\TRABAJOS\Colegios\Cardenal Ral Silva Henrquez\Agenda 2009\Fotos
Colegio\agenda 1,00 MB 27-08-2008 14:52:46
----------------------------------------------------------------------------------------------------------------------------------------------------IMG_1080.JPG
F:\TRABAJOS\Colegios\Cardenal Ral Silva Henrquez\2009\Fotos Colegi
o\agenda
1,02 MB 27-08-2008 14:53:52
IMG_1080.JPG
F:\TRABAJOS\Colegios\Cardenal Ral Silva Henrquez\Agenda 2009\Fotos
Colegio\agenda 1,02 MB 27-08-2008 14:53:52
----------------------------------------------------------------------------------------------------------------------------------------------------IMG_1082.JPG
F:\TRABAJOS\Colegios\Cardenal Ral Silva Henrquez\2009\Fotos Colegi

o\agenda
1,08 MB 27-08-2008 15:03:08
IMG_1082.JPG
F:\TRABAJOS\Colegios\Cardenal Ral Silva Henrquez\Agenda 2009\Fotos
Colegio\agenda 1,08 MB 27-08-2008 15:03:08
----------------------------------------------------------------------------------------------------------------------------------------------------IMG_1083.JPG
F:\TRABAJOS\Colegios\Cardenal Ral Silva Henrquez\2009\Fotos Colegi
o\agenda
1,28 MB 27-08-2008 15:03:58
IMG_1083.JPG
F:\TRABAJOS\Colegios\Cardenal Ral Silva Henrquez\Agenda 2009\Fotos
Colegio\agenda 1,28 MB 27-08-2008 15:03:58
----------------------------------------------------------------------------------------------------------------------------------------------------IMG_1088.JPG
F:\TRABAJOS\Colegios\Cardenal Ral Silva Henrquez\2009\Fotos Colegi
o\agenda
1,37 MB 27-08-2008 15:10:50
IMG_1088.JPG
F:\TRABAJOS\Colegios\Cardenal Ral Silva Henrquez\Agenda 2009\Fotos
Colegio\agenda 1,37 MB 27-08-2008 15:10:50
----------------------------------------------------------------------------------------------------------------------------------------------------IMG_1139.JPG
F:\TRABAJOS\Colegios\Cardenal Ral Silva Henrquez\2009\Fotos Colegi
o\agenda
1,82 MB 08-05-2008 15:09:38
IMG_1139.JPG
F:\TRABAJOS\Colegios\Cardenal Ral Silva Henrquez\Agenda 2009\Fotos
Colegio\agenda 1,82 MB 08-05-2008 15:09:38
----------------------------------------------------------------------------------------------------------------------------------------------------IMG_1141.JPG
F:\TRABAJOS\Colegios\Cardenal Ral Silva Henrquez\2009\Fotos Colegi
o\agenda
1,58 MB 08-05-2008 15:10:18
IMG_1141.JPG
F:\TRABAJOS\Colegios\Cardenal Ral Silva Henrquez\Agenda 2009\Fotos
Colegio\agenda 1,58 MB 08-05-2008 15:10:18
----------------------------------------------------------------------------------------------------------------------------------------------------IMG_1145.JPG
F:\TRABAJOS\Colegios\Cardenal Ral Silva Henrquez\2009\Fotos Colegi
o\agenda
1,45 MB 08-05-2008 15:11:44
IMG_1145.JPG
F:\TRABAJOS\Colegios\Cardenal Ral Silva Henrquez\Agenda 2009\Fotos
Colegio\agenda 1,45 MB 08-05-2008 15:11:44
----------------------------------------------------------------------------------------------------------------------------------------------------IMG_1148.JPG
F:\TRABAJOS\Colegios\Cardenal Ral Silva Henrquez\2009\Fotos Colegi
o\agenda
1,34 MB 08-05-2008 15:14:32
IMG_1148.JPG
F:\TRABAJOS\Colegios\Cardenal Ral Silva Henrquez\Agenda 2009\Fotos
Colegio\agenda 1,34 MB 08-05-2008 15:14:32
----------------------------------------------------------------------------------------------------------------------------------------------------IMG_1149.JPG
F:\TRABAJOS\Colegios\Cardenal Ral Silva Henrquez\2009\Fotos Colegi
o\agenda
1,69 MB 08-05-2008 15:15:18
IMG_1149.JPG
F:\TRABAJOS\Colegios\Cardenal Ral Silva Henrquez\Agenda 2009\Fotos
Colegio\agenda 1,69 MB 08-05-2008 15:15:18
----------------------------------------------------------------------------------------------------------------------------------------------------IMG_1151.JPG
F:\TRABAJOS\Colegios\Cardenal Ral Silva Henrquez\2009\Fotos Colegi
o\agenda
1,19 MB 08-05-2008 15:17:10
IMG_1151.JPG
F:\TRABAJOS\Colegios\Cardenal Ral Silva Henrquez\Agenda 2009\Fotos
Colegio\agenda 1,19 MB 08-05-2008 15:17:10
----------------------------------------------------------------------------------------------------------------------------------------------------IMG_1153.JPG
F:\TRABAJOS\Colegios\Cardenal Ral Silva Henrquez\2009\Fotos Colegi
o\agenda
1,03 MB 11-05-2008 23:27:54
IMG_1153.JPG
F:\TRABAJOS\Colegios\Cardenal Ral Silva Henrquez\Agenda 2009\Fotos
Colegio\agenda 1,03 MB 11-05-2008 23:27:54
----------------------------------------------------------------------------------------------------------------------------------------------------IMG_1154.JPG
F:\TRABAJOS\Colegios\Cardenal Ral Silva Henrquez\2009\Fotos Colegi

o\agenda
1,11 MB 08-05-2008 15:18:16
IMG_1154.JPG
F:\TRABAJOS\Colegios\Cardenal Ral Silva Henrquez\Agenda 2009\Fotos
Colegio\agenda 1,11 MB 08-05-2008 15:18:16
----------------------------------------------------------------------------------------------------------------------------------------------------IMG_1155.JPG
F:\TRABAJOS\Colegios\Cardenal Ral Silva Henrquez\2009\Fotos Colegi
o\agenda
1,19 MB 08-05-2008 15:18:22
IMG_1155.JPG
F:\TRABAJOS\Colegios\Cardenal Ral Silva Henrquez\Agenda 2009\Fotos
Colegio\agenda 1,19 MB 08-05-2008 15:18:22
----------------------------------------------------------------------------------------------------------------------------------------------------IMG_1296.JPG
F:\TRABAJOS\Colegios\Cardenal Ral Silva Henrquez\2009\Fotos Colegi
o\agenda
1,46 MB 08-09-2008 14:05:56
IMG_1296.JPG
F:\TRABAJOS\Colegios\Cardenal Ral Silva Henrquez\Agenda 2009\Fotos
Colegio\agenda 1,46 MB 08-09-2008 14:05:56
----------------------------------------------------------------------------------------------------------------------------------------------------IMG_1303.JPG
F:\TRABAJOS\Colegios\Cardenal Ral Silva Henrquez\2009\Fotos Colegi
o\agenda
1,42 MB 09-09-2008 15:29:18
IMG_1303.JPG
F:\TRABAJOS\Colegios\Cardenal Ral Silva Henrquez\Agenda 2009\Fotos
Colegio\agenda 1,42 MB 09-09-2008 15:29:18
----------------------------------------------------------------------------------------------------------------------------------------------------IMG_1347.JPG
F:\TRABAJOS\Colegios\Cardenal Ral Silva Henrquez\2009\Fotos Colegi
o\agenda
1,80 MB 12-09-2008 14:19:58
IMG_1347.JPG
F:\TRABAJOS\Colegios\Cardenal Ral Silva Henrquez\Agenda 2009\Fotos
Colegio\agenda 1,80 MB 12-09-2008 14:19:58
----------------------------------------------------------------------------------------------------------------------------------------------------IMG_1349.JPG
F:\TRABAJOS\Colegios\Cardenal Ral Silva Henrquez\2009\Fotos Colegi
o\agenda
1,85 MB 12-09-2008 14:22:16
IMG_1349.JPG
F:\TRABAJOS\Colegios\Cardenal Ral Silva Henrquez\Agenda 2009\Fotos
Colegio\agenda 1,85 MB 12-09-2008 14:22:16
----------------------------------------------------------------------------------------------------------------------------------------------------IMG_1366.JPG
F:\TRABAJOS\Colegios\Cardenal Ral Silva Henrquez\2009\Fotos Colegi
o\agenda
1,26 MB 12-09-2008 14:48:16
IMG_1366.JPG
F:\TRABAJOS\Colegios\Cardenal Ral Silva Henrquez\Agenda 2009\Fotos
Colegio\agenda 1,26 MB 12-09-2008 14:48:16
----------------------------------------------------------------------------------------------------------------------------------------------------15.jpg F:\TRABAJOS\Colegios\Cardenal Ral Silva Henrquez\2009\Nueva carpeta
5,19 MB 26-08-2008 14:32:37
15.jpg F:\TRABAJOS\Colegios\Santa Teresa\2008\Agenda Santa Teresa 2008\Interior
5,19 MB 26-08-2008 14:32:37
----------------------------------------------------------------------------------------------------------------------------------------------------16.jpg F:\TRABAJOS\Colegios\Cardenal Ral Silva Henrquez\2009\Nueva carpeta
2,19 MB 26-08-2008 14:35:27
16.jpg F:\TRABAJOS\Colegios\Santa Teresa\2008\Agenda Santa Teresa 2008\Interior
2,19 MB 26-08-2008 14:35:27
----------------------------------------------------------------------------------------------------------------------------------------------------18.jpg F:\TRABAJOS\Colegios\Cardenal Ral Silva Henrquez\2009\Nueva carpeta
2,96 MB 26-08-2008 14:52:15
18.jpg F:\TRABAJOS\Colegios\Santa Teresa\2008\Agenda Santa Teresa 2008\Interior
2,96 MB 26-08-2008 14:52:15
----------------------------------------------------------------------------------------------------------------------------------------------------20.jpg F:\TRABAJOS\Colegios\Cardenal Ral Silva Henrquez\2009\Nueva carpeta

3,57 MB 26-08-2008 15:00:31


20.jpg F:\TRABAJOS\Colegios\Santa Teresa\2008\Agenda Santa Teresa 2008\Interior
3,57 MB 26-08-2008 15:00:31
----------------------------------------------------------------------------------------------------------------------------------------------------21.jpg F:\TRABAJOS\Colegios\Cardenal Ral Silva Henrquez\2009\Nueva carpeta
4,56 MB 26-08-2008 15:09:46
21.jpg F:\TRABAJOS\Colegios\Santa Teresa\2008\Agenda Santa Teresa 2008\Interior
4,56 MB 26-08-2008 15:09:46
----------------------------------------------------------------------------------------------------------------------------------------------------22.jpg F:\TRABAJOS\Colegios\Cardenal Ral Silva Henrquez\2009\Nueva carpeta
2,33 MB 26-08-2008 15:13:44
22.jpg F:\TRABAJOS\Colegios\Santa Teresa\2008\Agenda Santa Teresa 2008\Interior
2,33 MB 26-08-2008 15:13:44
----------------------------------------------------------------------------------------------------------------------------------------------------23.jpg F:\TRABAJOS\Colegios\Cardenal Ral Silva Henrquez\2009\Nueva carpeta
2,67 MB 26-08-2008 15:17:21
23.jpg F:\TRABAJOS\Colegios\Santa Teresa\2008\Agenda Santa Teresa 2008\Interior
2,67 MB 26-08-2008 15:17:21
----------------------------------------------------------------------------------------------------------------------------------------------------25.jpg F:\TRABAJOS\Colegios\Cardenal Ral Silva Henrquez\2009\Nueva carpeta
1,23 MB 26-08-2008 15:29:42
25.jpg F:\TRABAJOS\Colegios\Santa Teresa\2008\Agenda Santa Teresa 2008\Interior
1,23 MB 26-08-2008 15:29:42
----------------------------------------------------------------------------------------------------------------------------------------------------26.jpg F:\TRABAJOS\Colegios\Cardenal Ral Silva Henrquez\2009\Nueva carpeta
1,31 MB 26-08-2008 15:34:04
26.jpg F:\TRABAJOS\Colegios\Santa Teresa\2008\Agenda Santa Teresa 2008\Interior
1,31 MB 26-08-2008 15:34:04
----------------------------------------------------------------------------------------------------------------------------------------------------29.jpg F:\TRABAJOS\Colegios\Cardenal Ral Silva Henrquez\2009\Nueva carpeta
1,39 MB 29-08-2008 21:56:44
29.jpg F:\TRABAJOS\Colegios\Santa Teresa\2008\Agenda Santa Teresa 2008\Interior
1,39 MB 29-08-2008 21:56:44
----------------------------------------------------------------------------------------------------------------------------------------------------DSC03879.psd
F:\TRABAJOS\Colegios\Cardenal Ral Silva Henrquez\2009\Nueva carpet
a
9,70 MB 26-08-2008 16:04:10
DSC03879.psd
F:\TRABAJOS\Colegios\Santa Teresa\2008\Agenda Santa Teresa 2008\
Interior
9,70 MB 26-08-2008 16:04:10
----------------------------------------------------------------------------------------------------------------------------------------------------foto 1.jpg
F:\TRABAJOS\Colegios\Cardenal Ral Silva Henrquez\2009\Nueva carpet
a
1,23 MB 20-08-2008 21:13:38
foto 1.jpg
F:\TRABAJOS\Colegios\Santa Teresa\2008\Agenda Santa Teresa 2008\
Interior
1,23 MB 20-08-2008 21:13:38
----------------------------------------------------------------------------------------------------------------------------------------------------foto 10.jpg
F:\TRABAJOS\Colegios\Cardenal Ral Silva Henrquez\2009\Nueva carpet
a
2,20 MB 20-08-2008 22:10:54
foto 10.jpg
F:\TRABAJOS\Colegios\Santa Teresa\2008\Agenda Santa Teresa 2008\
Interior
2,20 MB 20-08-2008 22:10:54
----------------------------------------------------------------------------------------------------------------------------------------------------foto 11.jpg
F:\TRABAJOS\Colegios\Cardenal Ral Silva Henrquez\2009\Nueva carpet

a
2,70 MB 20-08-2008 22:14:35
foto 11.jpg
F:\TRABAJOS\Colegios\Santa Teresa\2008\Agenda Santa Teresa 2008\
Interior
2,70 MB 20-08-2008 22:14:35
----------------------------------------------------------------------------------------------------------------------------------------------------foto 3.jpg
F:\TRABAJOS\Colegios\Cardenal Ral Silva Henrquez\2009\Nueva carpet
a
2,23 MB 20-08-2008 21:29:41
foto 3.jpg
F:\TRABAJOS\Colegios\Santa Teresa\2008\Agenda Santa Teresa 2008\
Interior
2,23 MB 20-08-2008 21:29:41
----------------------------------------------------------------------------------------------------------------------------------------------------foto 6.jpg
F:\TRABAJOS\Colegios\Cardenal Ral Silva Henrquez\2009\Nueva carpet
a
2,62 MB 20-08-2008 21:49:24
foto 6.jpg
F:\TRABAJOS\Colegios\Santa Teresa\2008\Agenda Santa Teresa 2008\
Interior
2,62 MB 20-08-2008 21:49:24
----------------------------------------------------------------------------------------------------------------------------------------------------foto 8.jpg
F:\TRABAJOS\Colegios\Cardenal Ral Silva Henrquez\2009\Nueva carpet
a
1,15 MB 20-08-2008 21:59:44
foto 8.jpg
F:\TRABAJOS\Colegios\Santa Teresa\2008\Agenda Santa Teresa 2008\
Interior
1,15 MB 20-08-2008 21:59:44
----------------------------------------------------------------------------------------------------------------------------------------------------montaje 2.jpg F:\TRABAJOS\Colegios\Cardenal Ral Silva Henrquez\2009\Nueva carpet
a
1,18 MB 21-08-2008 14:05:23
montaje 2.jpg F:\TRABAJOS\Colegios\Santa Teresa\2008\Agenda Santa Teresa 2008\
Interior
1,18 MB 21-08-2008 14:05:23
----------------------------------------------------------------------------------------------------------------------------------------------------montaje final.jpg
F:\TRABAJOS\Colegios\Cardenal Ral Silva Henrquez\2009\Nuev
a carpeta
1,47 MB 27-08-2008 21:46:47
montaje final.jpg
F:\TRABAJOS\Colegios\San Fransisco de Machali\2008\calen
dario 1,47 MB 27-08-2008 21:46:47
montaje final.jpg
F:\TRABAJOS\Colegios\Santa Teresa\2008\Agenda Santa Tere
sa 2008\Interior
1,47 MB 27-08-2008 21:46:47
----------------------------------------------------------------------------------------------------------------------------------------------------P8140005.psd
F:\TRABAJOS\Colegios\Cardenal Ral Silva Henrquez\2009\Nueva carpet
a
7,36 MB 26-08-2008 16:04:16
P8140005.psd
F:\TRABAJOS\Colegios\Santa Teresa\2008\Agenda Santa Teresa 2008\
Interior
7,36 MB 26-08-2008 16:04:16
P8140005.psd
F:\TRABAJOS\Colegios\Santa Teresa\2008\fotos Santa Teresa
7,36 MB 26-08-2008 16:04:16
----------------------------------------------------------------------------------------------------------------------------------------------------1.jpg F:\TRABAJOS\Colegios\Cardenal Ral Silva Henrquez\2011\Collage Contraportad
a
5,95 MB 03-01-2011 20:17:05
1.jpg F:\TRABAJOS\Colegios\Cardenal Ral Silva Henrquez\2011\Collage Contraportad
a\Nueva carpeta 5,95 MB 03-01-2011 20:17:05
----------------------------------------------------------------------------------------------------------------------------------------------------2.jpg F:\TRABAJOS\Colegios\Cardenal Ral Silva Henrquez\2011\Collage Contraportad
a
5,03 MB 03-01-2011 20:16:47
2.jpg F:\TRABAJOS\Colegios\Cardenal Ral Silva Henrquez\2011\Collage Contraportad
a\Nueva carpeta 5,03 MB 03-01-2011 20:16:47
----------------------------------------------------------------------------------------------------------------------------------------------------5.jpg F:\TRABAJOS\Colegios\Cardenal Ral Silva Henrquez\2011\Collage Contraportad
a
3,19 MB 03-01-2011 20:22:49
5.jpg F:\TRABAJOS\Colegios\Cardenal Ral Silva Henrquez\2011\Collage Contraportad

a\Nueva carpeta 3,19 MB 03-01-2011 20:22:49


----------------------------------------------------------------------------------------------------------------------------------------------------7.jpg F:\TRABAJOS\Colegios\Cardenal Ral Silva Henrquez\2011\Collage Contraportad
a
4,51 MB 03-01-2011 20:17:25
7.jpg F:\TRABAJOS\Colegios\Cardenal Ral Silva Henrquez\2011\Collage Contraportad
a\Nueva carpeta 4,51 MB 03-01-2011 20:17:25
----------------------------------------------------------------------------------------------------------------------------------------------------Cancin del colegio.jpg F:\TRABAJOS\Colegios\Cardenal Ral Silva Henrquez\2011\Foto
s Interior Agenda
4,88 MB 13-12-2010 19:23:24
Cancin del colegio.jpg F:\TRABAJOS\Colegios\Cardenal Ral Silva Henrquez\2011\Foto
s Interior Agenda\interior
4,88 MB 13-12-2010 19:23:24
----------------------------------------------------------------------------------------------------------------------------------------------------Misin y A nuestros Alumnos.jpg F:\TRABAJOS\Colegios\Cardenal Ral Silva Henrquez\2
011\Fotos Interior Agenda\interior
5,11 MB 13-12-2010 19:26:08
Misin y A nuestros Alumnos.jpg F:\TRABAJOS\Colegios\Cardenal Ral Silva Henrquez\2
011\Fotos Interior Agenda
5,11 MB 13-12-2010 19:26:08
----------------------------------------------------------------------------------------------------------------------------------------------------PUBLICIDAD 2 Talleres Deportivos.jpg
F:\TRABAJOS\Colegios\Cardenal Ral Silva H
enrquez\2011\Fotos Interior Agenda\interior
4,88 MB 13-12-2010 19:24:58
PUBLICIDAD 2 Talleres Deportivos.jpg
F:\TRABAJOS\Colegios\Cardenal Ral Silva H
enrquez\2011\Fotos Interior Agenda
4,88 MB 13-12-2010 19:24:58
----------------------------------------------------------------------------------------------------------------------------------------------------FOTOS.doc
F:\TRABAJOS\Colegios\Cardenal Ral Silva Henrquez\Agenda 2007\Agend
a Silva H-2007 MontajeHojas
5,25 MB 16-02-2007 11:37:38
FOTOS.doc
F:\TRABAJOS\Colegios\Cardenal Ral Silva Henrquez\Agenda 2007
5,25 MB 16-02-2007 11:37:38
----------------------------------------------------------------------------------------------------------------------------------------------------Tapa Ral Silva H.tif F:\TRABAJOS\Colegios\Cardenal Ral Silva Henrquez\Agenda 20
07\Montaje Tapas-Silva y jose 40,8 MB 04-04-2007 21:00:20
Tapa Ral Silva H.tif F:\TRABAJOS\Colegios\Cardenal Ral Silva Henrquez\Agenda 20
07
40,8 MB 04-04-2007 21:00:20
----------------------------------------------------------------------------------------------------------------------------------------------------Abril.jpg
F:\TRABAJOS\Colegios\Carmen Teresiano\2013\calendario 2013\jpg s
antos 4,44 MB 05-03-2012 16:45:22
Abril.jpg
F:\TRABAJOS\Colegios\Carmen Teresiano\La reina\2012\Agenda\Carpe
ta Agenda Carmen teresiano la reina\Links
4,44 MB 05-03-2012 16:45:22
Abril.jpg
F:\TRABAJOS\Colegios\Carmen Teresiano\La reina\2012\Agenda\img a
genda 4,44 MB 05-03-2012 16:45:22
----------------------------------------------------------------------------------------------------------------------------------------------------Agosto.jpg
F:\TRABAJOS\Colegios\Carmen Teresiano\2013\calendario 2013\jpg s
antos 2,01 MB 05-03-2012 14:39:49
Agosto.jpg
F:\TRABAJOS\Colegios\Carmen Teresiano\La reina\2012\Agenda\Carpe
ta Agenda Carmen teresiano la reina\Links
2,01 MB 05-03-2012 14:39:49
Agosto.jpg
F:\TRABAJOS\Colegios\Carmen Teresiano\La reina\2012\Agenda\img a
genda 2,01 MB 05-03-2012 14:39:49
Agosto.jpg
F:\TRABAJOS\Colegios\Carmen Teresiano\La reina\2014\Agenda\image
nes
2,01 MB 05-03-2012 14:39:49
----------------------------------------------------------------------------------------------------------------------------------------------------Diciembre2.jpg F:\TRABAJOS\Colegios\Carmen Teresiano\2013\calendario 2013\jpg s
antos 1,78 MB 05-03-2012 16:11:47
Diciembre2.jpg F:\TRABAJOS\Colegios\Carmen Teresiano\La reina\2012\Agenda\img a

genda 1,78 MB 05-03-2012 16:11:47


Diciembre2.jpg F:\TRABAJOS\Colegios\Carmen Teresiano\La reina\2014\Agenda\image
nes
1,78 MB 05-03-2012 16:11:47
----------------------------------------------------------------------------------------------------------------------------------------------------DSC_0121.jpg
F:\TRABAJOS\Colegios\Carmen Teresiano\2013\calendario 2013\jpg s
antos 5,94 MB 05-03-2012 13:46:16
DSC_0121.jpg
F:\TRABAJOS\Colegios\Carmen Teresiano\La reina\2012\Agenda\img a
genda 5,94 MB 05-03-2012 13:46:16
----------------------------------------------------------------------------------------------------------------------------------------------------DSC_0121.psd
F:\TRABAJOS\Colegios\Carmen Teresiano\2013\calendario 2013\jpg s
antos 56,0 MB 05-03-2012 13:52:25
DSC_0121.psd
F:\TRABAJOS\Colegios\Carmen Teresiano\La reina\2012\Agenda\Carpe
ta Agenda Carmen teresiano la reina\Links
56,0 MB 05-03-2012 13:52:25
DSC_0121.psd
F:\TRABAJOS\Colegios\Carmen Teresiano\La reina\2012\Agenda\img a
genda 56,0 MB 05-03-2012 13:52:25
----------------------------------------------------------------------------------------------------------------------------------------------------DSC_0152.jpg
F:\TRABAJOS\Colegios\Carmen Teresiano\2013\calendario 2013\jpg s
antos 4,17 MB 26-10-2011 0:17:06
DSC_0152.jpg
F:\TRABAJOS\Colegios\Carmen Teresiano\La reina\Teresiano
4,17 MB 26-10-2011 0:17:06
----------------------------------------------------------------------------------------------------------------------------------------------------DSC_0154.jpg
F:\TRABAJOS\Colegios\Carmen Teresiano\2013\calendario 2013\jpg s
antos 4,52 MB 26-10-2011 0:24:46
DSC_0154.jpg
F:\TRABAJOS\Colegios\Carmen Teresiano\La reina\Teresiano
4,52 MB 26-10-2011 0:24:46
----------------------------------------------------------------------------------------------------------------------------------------------------final.jpg
F:\TRABAJOS\Colegios\Carmen Teresiano\2013\calendario 2013\jpg s
antos 7,02 MB 05-03-2012 17:42:25
final.jpg
F:\TRABAJOS\Colegios\Carmen Teresiano\La reina\2012\Agenda\Carpe
ta Agenda Carmen teresiano la reina\Links
7,02 MB 05-03-2012 17:42:25
final.jpg
F:\TRABAJOS\Colegios\Carmen Teresiano\La reina\2012\Agenda\img a
genda 7,02 MB 05-03-2012 17:42:25
----------------------------------------------------------------------------------------------------------------------------------------------------final.psd
F:\TRABAJOS\Colegios\Carmen Teresiano\2013\calendario 2013\jpg s
antos 55,8 MB 05-03-2012 17:46:07
final.psd
F:\TRABAJOS\Colegios\Carmen Teresiano\La reina\2012\Agenda\img a
genda 55,8 MB 05-03-2012 17:46:07
----------------------------------------------------------------------------------------------------------------------------------------------------Junio.jpg
F:\TRABAJOS\Colegios\Carmen Teresiano\2013\calendario 2013\jpg s
antos 1,99 MB 05-03-2012 13:31:55
Junio.jpg
F:\TRABAJOS\Colegios\Carmen Teresiano\La reina\2012\Agenda\Carpe
ta Agenda Carmen teresiano la reina\Links
1,99 MB 05-03-2012 13:31:55
Junio.jpg
F:\TRABAJOS\Colegios\Carmen Teresiano\La reina\2012\Agenda\img a
genda 1,99 MB 05-03-2012 13:31:55
Junio.jpg
F:\TRABAJOS\Colegios\Carmen Teresiano\La reina\2014\Agenda\image
nes
1,99 MB 05-03-2012 13:31:55
----------------------------------------------------------------------------------------------------------------------------------------------------Mayo2.jpg
F:\TRABAJOS\Colegios\Carmen Teresiano\2013\calendario 2013\jpg s
antos 5,97 MB 05-03-2012 13:39:52
Mayo2.jpg
F:\TRABAJOS\Colegios\Carmen Teresiano\La reina\2012\Agenda\Carpe
ta Agenda Carmen teresiano la reina\Links
5,97 MB 05-03-2012 13:39:52
Mayo2.jpg
F:\TRABAJOS\Colegios\Carmen Teresiano\La reina\2012\Agenda\img a

genda 5,97 MB 05-03-2012 13:39:52


Mayo2.jpg
F:\TRABAJOS\Colegios\Carmen Teresiano\La reina\2014\Agenda\image
nes
5,97 MB 05-03-2012 13:39:52
----------------------------------------------------------------------------------------------------------------------------------------------------Septiembre 2.jpg
F:\TRABAJOS\Colegios\Carmen Teresiano\2013\calendario 20
13\jpg santos 1,29 MB 05-03-2012 16:35:42
Septiembre 2.jpg
F:\TRABAJOS\Colegios\Carmen Teresiano\La reina\2012\Agen
da\Carpeta Agenda Carmen teresiano la reina\Links
1,29 MB 05-03-2012 16:35
:42
Septiembre 2.jpg
F:\TRABAJOS\Colegios\Carmen Teresiano\La reina\2012\Agen
da\img agenda 1,29 MB 05-03-2012 16:35:42
----------------------------------------------------------------------------------------------------------------------------------------------------stellamaris.jpg F:\TRABAJOS\Colegios\Carmen Teresiano\2013\calendario 2013\jpg s
antos 6,28 MB 05-03-2012 13:29:07
stellamaris.jpg F:\TRABAJOS\Colegios\Carmen Teresiano\La reina\2012\Agenda\Carpe
ta Agenda Carmen teresiano la reina\Links
6,28 MB 05-03-2012 13:29:07
stellamaris.jpg F:\TRABAJOS\Colegios\Carmen Teresiano\La reina\2012\Agenda\img a
genda 6,28 MB 05-03-2012 13:29:07
----------------------------------------------------------------------------------------------------------------------------------------------------1x4m Pendon admision.ai F:\TRABAJOS\Colegios\Carmen Teresiano\La reina\2014
3,08 MB 08-05-2013 14:01:10
1x4m Pendon admision.ai F:\TRABAJOS\Colegios\Carmen Teresiano\La reina\2014\Pend
on
3,08 MB 08-05-2013 14:01:10
----------------------------------------------------------------------------------------------------------------------------------------------------S_M COLOR (1).jpg
F:\TRABAJOS\Colegios\Carmen Teresiano\La reina\2014\Agen
da\imagenes
6,79 MB 24-09-2013 13:53:06
S_M COLOR (1).jpg
F:\TRABAJOS\Colegios\Cordillera puente alto\2014\Agenda\
Tapa
6,79 MB 24-09-2013 13:53:06
----------------------------------------------------------------------------------------------------------------------------------------------------S_M COLOR (10).jpg
F:\TRABAJOS\Colegios\Carmen Teresiano\La reina\2014\Agen
da\imagenes
3,83 MB 31-01-2014 22:08:30
S_M COLOR (10).jpg
F:\TRABAJOS\Colegios\Josefino Santisima Trinidad\2014\Ag
enda\Agenda Josefino Santisima Trinidad\Links 3,83 MB 31-01-2014 22:08:30
S_M COLOR (10).jpg
F:\TRABAJOS\Colegios\Sagrado Corazon de Talagante\2014\A
genda\Carpeta Agenda sagrado corazon p1\Links 3,83 MB 31-01-2014 22:08:30
S_M COLOR (10).jpg
F:\TRABAJOS\Colegios\Sagrado Corazon de Talagante\2014\A
genda\fondos paginas
3,83 MB 31-01-2014 22:08:30
S_M COLOR (10).jpg
F:\TRABAJOS\Colegios\Sagrado Corazon de Talagante\2014\A
genda\Tapa\fotos tapa\fotos sagrado corazon agenda
3,83 MB 31-01-2014 22:08
:30
S_M COLOR (10).jpg
F:\TRABAJOS\Colegios\San Antonio\2014\Agenda
3,83 MB
31-01-2014 22:08:30
----------------------------------------------------------------------------------------------------------------------------------------------------S_M COLOR (11).jpg
F:\TRABAJOS\Colegios\Carmen Teresiano\La reina\2014\Agen
da\imagenes
4,16 MB 31-01-2014 22:18:53
S_M COLOR (11).jpg
F:\TRABAJOS\Colegios\Josefino Santisima Trinidad\2014\Ag
enda\Agenda Josefino Santisima Trinidad\Links 4,16 MB 31-01-2014 22:18:53
S_M COLOR (11).jpg
F:\TRABAJOS\Colegios\Sagrado Corazon de Talagante\2014\A
genda\Carpeta Agenda sagrado corazon p1\Links 4,16 MB 31-01-2014 22:18:53
S_M COLOR (11).jpg
F:\TRABAJOS\Colegios\Sagrado Corazon de Talagante\2014\A
genda\fondos paginas
4,16 MB 31-01-2014 22:18:53
S_M COLOR (11).jpg
F:\TRABAJOS\Colegios\Sagrado Corazon de Talagante\2014\A
genda\Tapa\fotos tapa\fotos sagrado corazon agenda
4,16 MB 31-01-2014 22:18
:53

S_M COLOR (11).jpg


F:\TRABAJOS\Colegios\San Antonio\2014\Agenda
4,16 MB
31-01-2014 22:18:53
----------------------------------------------------------------------------------------------------------------------------------------------------S_M COLOR (3).jpg
F:\TRABAJOS\Colegios\Carmen Teresiano\La reina\2014\Agen
da\imagenes
5,47 MB 24-09-2013 14:11:35
S_M COLOR (3).jpg
F:\TRABAJOS\Colegios\Cordillera puente alto\2014\Agenda\
Tapa
5,47 MB 24-09-2013 14:11:35
S_M COLOR (3).jpg
F:\TRABAJOS\Colegios\instituto talagante\2014\Agenda 201
4
5,47 MB 24-09-2013 14:11:35
----------------------------------------------------------------------------------------------------------------------------------------------------S_M COLOR (6).jpg
F:\TRABAJOS\Colegios\Carmen Teresiano\La reina\2014\Agen
da\imagenes
4,77 MB 24-09-2013 14:19:00
S_M COLOR (6).jpg
F:\TRABAJOS\Colegios\Cordillera puente alto\2014\Agenda\
Tapa
4,77 MB 24-09-2013 14:19:00
----------------------------------------------------------------------------------------------------------------------------------------------------S_M COLOR (7).jpg
F:\TRABAJOS\Colegios\Carmen Teresiano\La reina\2014\Agen
da\imagenes
6,57 MB 24-09-2013 14:18:33
S_M COLOR (7).jpg
F:\TRABAJOS\Colegios\Cordillera puente alto\2014\Agenda\
Tapa
6,57 MB 24-09-2013 14:18:33
----------------------------------------------------------------------------------------------------------------------------------------------------S_M COLOR (8).jpg
F:\TRABAJOS\Colegios\Carmen Teresiano\La reina\2014\Agen
da\imagenes
10,6 MB 24-09-2013 14:17:33
S_M COLOR (8).jpg
F:\TRABAJOS\Colegios\Cordillera puente alto\2014\Agenda\
Tapa
10,6 MB 24-09-2013 14:17:33
----------------------------------------------------------------------------------------------------------------------------------------------------S_M COLOR (9).jpg
F:\TRABAJOS\Colegios\Carmen Teresiano\La reina\2014\Agen
da\imagenes
4,79 MB 31-01-2014 22:07:48
S_M COLOR (9).jpg
F:\TRABAJOS\Colegios\Deutsche Schule Punta Arenas\2014\C
arpeta Deutsche Schule Agenda\Links
4,79 MB 31-01-2014 22:07:48
S_M COLOR (9).jpg
F:\TRABAJOS\Colegios\Josefino Santisima Trinidad\2014\Ag
enda\Agenda Josefino Santisima Trinidad\Links 4,79 MB 31-01-2014 22:07:48
S_M COLOR (9).jpg
F:\TRABAJOS\Colegios\Sagrado Corazon de Talagante\2014\A
genda\Carpeta Agenda sagrado corazon p1\Links 4,79 MB 31-01-2014 22:07:48
S_M COLOR (9).jpg
F:\TRABAJOS\Colegios\Sagrado Corazon de Talagante\2014\A
genda\fondos paginas
4,79 MB 31-01-2014 22:07:48
S_M COLOR (9).jpg
F:\TRABAJOS\Colegios\Sagrado Corazon de Talagante\2014\A
genda\Tapa\fotos tapa\fotos sagrado corazon agenda
4,79 MB 31-01-2014 22:07
:48
S_M COLOR (9).jpg
F:\TRABAJOS\Colegios\San Antonio\2014\Agenda
4,79 MB
31-01-2014 22:07:48
----------------------------------------------------------------------------------------------------------------------------------------------------S_M COLOR.jpg F:\TRABAJOS\Colegios\Carmen Teresiano\La reina\2014\Agenda\image
nes
3,15 MB 31-01-2014 22:01:47
S_M COLOR.jpg F:\TRABAJOS\Colegios\Josefino Santisima Trinidad\2014\Agenda\Age
nda Josefino Santisima Trinidad\Links 3,15 MB 31-01-2014 22:01:47
S_M COLOR.jpg F:\TRABAJOS\Colegios\Sagrado Corazon de Talagante\2014\Agenda\Ca
rpeta Agenda sagrado corazon p2\Links 3,15 MB 31-01-2014 22:01:47
S_M COLOR.jpg F:\TRABAJOS\Colegios\Sagrado Corazon de Talagante\2014\Agenda\fo
ndos paginas
3,15 MB 31-01-2014 22:01:47
S_M COLOR.jpg F:\TRABAJOS\Colegios\Sagrado Corazon de Talagante\2014\Agenda\Ta
pa\fotos tapa\fotos sagrado corazon agenda
3,15 MB 31-01-2014 22:01:47
S_M COLOR.jpg F:\TRABAJOS\Colegios\San Antonio\2014\Agenda
3,15 MB 31-01-20
14 22:01:47
--------------------------------------------------------------------------------

---------------------------------------------------------------------Pendon admision.ai
F:\TRABAJOS\Colegios\Carmen Teresiano\La reina\2014\Pend
on
6,34 MB 03-05-2013 22:56:02
Pendon admision.ai
F:\TRABAJOS\Colegios\Carmen Teresiano\La reina\2014
6,34 MB 03-05-2013 22:56:02
----------------------------------------------------------------------------------------------------------------------------------------------------colegio.jpg
F:\TRABAJOS\Colegios\Carmen Teresiano\La reina\2014\Volante
12,3 MB 22-07-2013 18:22:55
colegio.jpg
F:\TRABAJOS\Colegios\Carmen Teresiano\Volantes 2013 Impresin
12,3 MB 22-07-2013 18:22:55
----------------------------------------------------------------------------------------------------------------------------------------------------DSC_0109.jpg
F:\TRABAJOS\Colegios\Carmen Teresiano\La reina\2014\Volante
8,44 MB 17-06-2013 19:13:57
DSC_0109.jpg
F:\TRABAJOS\Colegios\Carmen Teresiano\Volantes 2013 Impresin
8,44 MB 17-06-2013 19:13:57
----------------------------------------------------------------------------------------------------------------------------------------------------DSC_0126.jpg
F:\TRABAJOS\Colegios\Carmen Teresiano\La reina\fotos colegio
4,59 MB 25-10-2011 23:53:16
DSC_0126.jpg
F:\TRABAJOS\Colegios\Carmen Teresiano\La reina\Teresiano
4,59 MB 25-10-2011 23:53:16
----------------------------------------------------------------------------------------------------------------------------------------------------DSC_0132.jpg
F:\TRABAJOS\Colegios\Carmen Teresiano\La reina\fotos colegio
4,65 MB 25-10-2011 23:55:18
DSC_0132.jpg
F:\TRABAJOS\Colegios\Carmen Teresiano\La reina\Teresiano
4,65 MB 25-10-2011 23:55:18
----------------------------------------------------------------------------------------------------------------------------------------------------DSC_0015-2.jpg F:\TRABAJOS\Colegios\Carmen Teresiano\Vitacura\2012\Volante
6,94 MB 31-05-2012 14:26:55
DSC_0015-2.jpg F:\TRABAJOS\Colegios\Carmen Teresiano\Vitacura\2013\Volante
6,94 MB 31-05-2012 14:26:55
----------------------------------------------------------------------------------------------------------------------------------------------------DSC_0017.jpg
F:\TRABAJOS\Colegios\Carmen Teresiano\Vitacura\2012\Volante
4,21 MB 31-05-2012 14:46:09
DSC_0017.jpg
F:\TRABAJOS\Colegios\Carmen Teresiano\Vitacura\2013\Volante
4,21 MB 31-05-2012 14:46:09
----------------------------------------------------------------------------------------------------------------------------------------------------DSC_0017.psd
F:\TRABAJOS\Colegios\Carmen Teresiano\Vitacura\2012\Volante
68,1 MB 31-05-2012 14:45:54
DSC_0017.psd
F:\TRABAJOS\Colegios\Carmen Teresiano\Vitacura\2013\Volante
68,1 MB 31-05-2012 14:45:54
----------------------------------------------------------------------------------------------------------------------------------------------------DSC_0018-2.jpg F:\TRABAJOS\Colegios\Carmen Teresiano\Vitacura\2012\Volante
7,05 MB 31-05-2012 14:36:35
DSC_0018-2.jpg F:\TRABAJOS\Colegios\Carmen Teresiano\Vitacura\2013\Volante
7,05 MB 31-05-2012 14:36:35
----------------------------------------------------------------------------------------------------------------------------------------------------DSC_0021-2.jpg F:\TRABAJOS\Colegios\Carmen Teresiano\Vitacura\2012\Volante
5,52 MB 30-05-2012 18:48:08
DSC_0021-2.jpg F:\TRABAJOS\Colegios\Carmen Teresiano\Vitacura\2013\agenda 2013\
Tapa
5,52 MB 30-05-2012 18:48:08
DSC_0021-2.jpg F:\TRABAJOS\Colegios\Carmen Teresiano\Vitacura\2013\Volante

5,52 MB 30-05-2012 18:48:08


----------------------------------------------------------------------------------------------------------------------------------------------------DSC_0021-2.psd F:\TRABAJOS\Colegios\Carmen Teresiano\Vitacura\2012\Volante
44,7 MB 30-05-2012 18:57:11
DSC_0021-2.psd F:\TRABAJOS\Colegios\Carmen Teresiano\Vitacura\2013\Volante
44,7 MB 30-05-2012 18:57:11
----------------------------------------------------------------------------------------------------------------------------------------------------Publicacin1.pub
F:\TRABAJOS\Colegios\Carmen Teresiano\Vitacura\2012\Volante
20,8 MB 25-05-2012 14:05:34
Publicacin1.pub
F:\TRABAJOS\Colegios\Carmen Teresiano\Vitacura\2013\Volante
20,8 MB 25-05-2012 14:05:34
----------------------------------------------------------------------------------------------------------------------------------------------------Volante admision-01.jpg F:\TRABAJOS\Colegios\Carmen Teresiano\Vitacura\2012\Vola
nte
3,18 MB 07-06-2012 22:08:28
Volante admision-01.jpg F:\TRABAJOS\Colegios\Carmen Teresiano\Vitacura\2013\Vola
nte
3,18 MB 07-06-2012 22:08:28
----------------------------------------------------------------------------------------------------------------------------------------------------Volante admision-02.jpg F:\TRABAJOS\Colegios\Carmen Teresiano\Vitacura\2012\Vola
nte
3,34 MB 07-06-2012 22:08:29
Volante admision-02.jpg F:\TRABAJOS\Colegios\Carmen Teresiano\Vitacura\2013\Vola
nte
3,34 MB 07-06-2012 22:08:29
----------------------------------------------------------------------------------------------------------------------------------------------------Volante admision.ai
F:\TRABAJOS\Colegios\Carmen Teresiano\Vitacura\2012\Vola
nte
88,9 MB 15-06-2012 15:10:41
Volante admision.ai
F:\TRABAJOS\Colegios\Carmen Teresiano\Vitacura\2013\Vola
nte
88,9 MB 15-06-2012 15:10:41
----------------------------------------------------------------------------------------------------------------------------------------------------DSC_0021(02).jpg
F:\TRABAJOS\Colegios\Carmen Teresiano\Vitacura\2013\agen
da 2013\Tapa
9,35 MB 22-02-2013 15:35:51
DSC_0021(02).jpg
F:\TRABAJOS\Colegios\Carmen Teresiano\Vitacura\2014\Vola
nte
9,35 MB 22-02-2013 15:35:51
DSC_0021(02).jpg
F:\TRABAJOS\Colegios\Carmen Teresiano\Volantes 2013 Impr
esin 9,35 MB 22-02-2013 15:35:51
----------------------------------------------------------------------------------------------------------------------------------------------------07.jpg F:\TRABAJOS\Colegios\Cordillera puente alto\2007\Agenda 2007\Ao pasado
1,01 MB 17-02-2006 16:11:24
07.jpg F:\TRABAJOS\Colegios\Cordillera puente alto\2008\Agenda 2008\varios\Foto
s 2007\GRIS
1,01 MB 17-02-2006 16:11:24
----------------------------------------------------------------------------------------------------------------------------------------------------A.jpg F:\TRABAJOS\Colegios\Cordillera puente alto\2007\Agenda 2007\Ao pasado
1,20 MB 28-02-2006 14:53:54
A.jpg F:\TRABAJOS\Colegios\Cordillera puente alto\2008\Agenda 2008\varios\Foto
s 2007\GRIS
1,20 MB 28-02-2006 14:53:54
----------------------------------------------------------------------------------------------------------------------------------------------------B.jpg F:\TRABAJOS\Colegios\Cordillera puente alto\2007\Agenda 2007\Ao pasado
2,09 MB 28-02-2006 14:53:26
B.jpg F:\TRABAJOS\Colegios\Cordillera puente alto\2008\Agenda 2008\varios\Foto
s 2007\GRIS
2,09 MB 28-02-2006 14:53:26
----------------------------------------------------------------------------------------------------------------------------------------------------biblioteca.jpg F:\TRABAJOS\Colegios\Cordillera puente alto\2007\Agenda 2007\Ao

pasado 1,13 MB 23-03-2004 22:37:34


biblioteca.jpg F:\TRABAJOS\Colegios\Cordillera puente alto\2008\Agenda 2008\var
ios\Fotos 2007\GRIS
1,13 MB 23-03-2004 22:37:34
----------------------------------------------------------------------------------------------------------------------------------------------------D.jpg F:\TRABAJOS\Colegios\Cordillera puente alto\2007\Agenda 2007\Ao pasado
1,60 MB 22-02-2006 0:03:02
D.jpg F:\TRABAJOS\Colegios\Cordillera puente alto\2008\Agenda 2008\varios\Foto
s 2007\GRIS
1,60 MB 22-02-2006 0:03:02
----------------------------------------------------------------------------------------------------------------------------------------------------E.jpg F:\TRABAJOS\Colegios\Cordillera puente alto\2007\Agenda 2007\Ao pasado
2,10 MB 28-02-2006 15:40:04
E.jpg F:\TRABAJOS\Colegios\Cordillera puente alto\2008\Agenda 2008\varios\Foto
s 2007\GRIS
2,10 MB 28-02-2006 15:40:04
----------------------------------------------------------------------------------------------------------------------------------------------------F.jpg F:\TRABAJOS\Colegios\Cordillera puente alto\2007\Agenda 2007\Ao pasado
1,42 MB 28-02-2006 15:39:40
F.jpg F:\TRABAJOS\Colegios\Cordillera puente alto\2008\Agenda 2008\varios\Foto
s 2007\GRIS
1,42 MB 28-02-2006 15:39:40
----------------------------------------------------------------------------------------------------------------------------------------------------fachada 2.jpg F:\TRABAJOS\Colegios\Cordillera puente alto\2007\Agenda 2007\Ao
pasado 1,05 MB 23-03-2004 23:21:12
fachada 2.jpg F:\TRABAJOS\Colegios\Cordillera puente alto\2008\Agenda 2008\var
ios\Fotos 2007\GRIS
1,05 MB 23-03-2004 23:21:12
----------------------------------------------------------------------------------------------------------------------------------------------------G.jpg F:\TRABAJOS\Colegios\Cordillera puente alto\2007\Agenda 2007\Ao pasado
1,23 MB 28-02-2006 15:35:00
G.jpg F:\TRABAJOS\Colegios\Cordillera puente alto\2008\Agenda 2008\Interior 20
08\imagenes 2008
1,23 MB 28-02-2006 15:35:00
G.jpg F:\TRABAJOS\Colegios\Cordillera puente alto\2008\Agenda 2008\varios\Foto
s 2007\GRIS
1,23 MB 28-02-2006 15:35:00
----------------------------------------------------------------------------------------------------------------------------------------------------H.jpg F:\TRABAJOS\Colegios\Cordillera puente alto\2007\Agenda 2007\Ao pasado
1,46 MB 22-02-2006 0:00:46
H.jpg F:\TRABAJOS\Colegios\Cordillera puente alto\2008\Agenda 2008\varios\Foto
s 2007\GRIS
1,46 MB 22-02-2006 0:00:46
----------------------------------------------------------------------------------------------------------------------------------------------------H2.jpg F:\TRABAJOS\Colegios\Cordillera puente alto\2007\Agenda 2007\Ao pasado
1,53 MB 28-02-2006 15:34:10
H2.jpg F:\TRABAJOS\Colegios\Cordillera puente alto\2008\Agenda 2008\varios\Foto
s 2007\GRIS
1,53 MB 28-02-2006 15:34:10
----------------------------------------------------------------------------------------------------------------------------------------------------I.jpg F:\TRABAJOS\Colegios\Cordillera puente alto\2007\Agenda 2007\Ao pasado
1,34 MB 22-02-2006 0:05:28
I.jpg F:\TRABAJOS\Colegios\Cordillera puente alto\2008\Agenda 2008\varios\Foto
s 2007\GRIS
1,34 MB 22-02-2006 0:05:28
----------------------------------------------------------------------------------------------------------------------------------------------------I2.jpg F:\TRABAJOS\Colegios\Cordillera puente alto\2007\Agenda 2007\Ao pasado
1,30 MB 28-02-2006 15:14:32
I2.jpg F:\TRABAJOS\Colegios\Cordillera puente alto\2008\Agenda 2008\varios\Foto
s 2007\GRIS
1,30 MB 28-02-2006 15:14:32
--------------------------------------------------------------------------------

---------------------------------------------------------------------J.jpg F:\TRABAJOS\Colegios\Cordillera puente alto\2007\Agenda 2007\Ao pasado


1,22 MB 28-02-2006 14:55:22
J.jpg F:\TRABAJOS\Colegios\Cordillera puente alto\2008\Agenda 2008\varios\Foto
s 2007\GRIS
1,22 MB 28-02-2006 14:55:22
----------------------------------------------------------------------------------------------------------------------------------------------------Nias-Computadores.jpg F:\TRABAJOS\Colegios\Cordillera puente alto\2007\Agenda
2007\Ao pasado
1,33 MB 28-02-2006 14:54:54
Nias-Computadores.jpg F:\TRABAJOS\Colegios\Cordillera puente alto\2008\Agenda
2008\varios\Fotos 2007\GRIS
1,33 MB 28-02-2006 14:54:54
----------------------------------------------------------------------------------------------------------------------------------------------------Nios-baile.jpg F:\TRABAJOS\Colegios\Cordillera puente alto\2007\Agenda 2007\Ao
pasado 1,00 MB 28-02-2006 14:54:24
Nios-baile.jpg F:\TRABAJOS\Colegios\Cordillera puente alto\2008\Agenda 2008\var
ios\Fotos 2007\GRIS
1,00 MB 28-02-2006 14:54:24
----------------------------------------------------------------------------------------------------------------------------------------------------PIC_0040 GRIS.jpg
F:\TRABAJOS\Colegios\Cordillera puente alto\2007\Agenda
2007\Ao pasado
1,27 MB 14-06-2005 21:50:34
PIC_0040 GRIS.jpg
F:\TRABAJOS\Colegios\Cordillera puente alto\2007\Agenda
2007\Interior\GRIS
1,27 MB 14-06-2005 21:50:34
PIC_0040 GRIS.jpg
F:\TRABAJOS\Colegios\Cordillera puente alto\2008\Agenda
2008\varios\Fotos 2007\GRIS
1,27 MB 14-06-2005 21:50:34
----------------------------------------------------------------------------------------------------------------------------------------------------PIC_0041 GRIS.jpg
F:\TRABAJOS\Colegios\Cordillera puente alto\2007\Agenda
2007\Ao pasado
1,49 MB 14-06-2005 22:15:50
PIC_0041 GRIS.jpg
F:\TRABAJOS\Colegios\Cordillera puente alto\2007\Agenda
2007\Interior\GRIS
1,49 MB 14-06-2005 22:15:50
PIC_0041 GRIS.jpg
F:\TRABAJOS\Colegios\Cordillera puente alto\2008\Agenda
2008\varios\Fotos 2007\GRIS
1,49 MB 14-06-2005 22:15:50
----------------------------------------------------------------------------------------------------------------------------------------------------PIC_0049 GRIS.jpg
F:\TRABAJOS\Colegios\Cordillera puente alto\2007\Agenda
2007\Ao pasado
1,21 MB 14-06-2005 21:26:18
PIC_0049 GRIS.jpg
F:\TRABAJOS\Colegios\Cordillera puente alto\2008\Agenda
2008\varios\Fotos 2007\GRIS
1,21 MB 14-06-2005 21:26:18
----------------------------------------------------------------------------------------------------------------------------------------------------PIC_0049 GRIS.psd
F:\TRABAJOS\Colegios\Cordillera puente alto\2007\Agenda
2007\Ao pasado
8,24 MB 24-03-2007 1:03:44
PIC_0049 GRIS.psd
F:\TRABAJOS\Colegios\Cordillera puente alto\2008\Agenda
2008\varios\Fotos 2007\GRIS
8,24 MB 24-03-2007 1:03:44
----------------------------------------------------------------------------------------------------------------------------------------------------PIC_0051 GRIS.jpg
F:\TRABAJOS\Colegios\Cordillera puente alto\2007\Agenda
2007\Ao pasado
1,25 MB 14-06-2005 21:49:44
PIC_0051 GRIS.jpg
F:\TRABAJOS\Colegios\Cordillera puente alto\2007\Agenda
2007\Interior\GRIS
1,25 MB 14-06-2005 21:49:44
PIC_0051 GRIS.jpg
F:\TRABAJOS\Colegios\Cordillera puente alto\2008\Agenda
2008\varios\Fotos 2007\GRIS
1,25 MB 14-06-2005 21:49:44
PIC_0051 GRIS.jpg
F:\TRABAJOS\Colegios\Cordillera puente alto\2010\agenda
2010
1,25 MB 14-06-2005 21:49:44
PIC_0051 GRIS.jpg
F:\TRABAJOS\Colegios\Cordillera puente alto\2012\Agenda
2012
1,25 MB 14-06-2005 21:49:44
PIC_0051 GRIS.jpg
F:\TRABAJOS\Colegios\Cordillera puente alto\2013\agenda
2013\id1
1,25 MB 14-06-2005 21:49:44
--------------------------------------------------------------------------------

---------------------------------------------------------------------DSC03917.JPG
F:\TRABAJOS\Colegios\Cordillera puente alto\2007\Agenda 2007\In
terior\GRIS
1,00 MB 23-03-2007 22:51:32
DSC03917.JPG
F:\TRABAJOS\Colegios\Cordillera puente alto\2008\Agenda 2008\var
ios\Fotos 2007\GRIS
1,00 MB 23-03-2007 22:51:32
DSC03917.JPG
F:\TRABAJOS\Colegios\Cordillera puente alto\2008\Agenda 2008\var
ios\Interior\fotos interior
1,00 MB 23-03-2007 22:51:32
----------------------------------------------------------------------------------------------------------------------------------------------------DSC03926.JPG
F:\TRABAJOS\Colegios\Cordillera puente alto\2007\Agenda 2007\In
terior\GRIS
1,20 MB 23-03-2007 22:50:50
DSC03926.JPG
F:\TRABAJOS\Colegios\Cordillera puente alto\2008\Agenda 2008\var
ios\Fotos 2007\GRIS
1,20 MB 23-03-2007 22:50:50
----------------------------------------------------------------------------------------------------------------------------------------------------DSC03927.JPG
F:\TRABAJOS\Colegios\Cordillera puente alto\2007\Agenda 2007\In
terior\GRIS
1,06 MB 23-03-2007 22:50:46
DSC03927.JPG
F:\TRABAJOS\Colegios\Cordillera puente alto\2008\Agenda 2008\var
ios\Fotos 2007\GRIS
1,06 MB 23-03-2007 22:50:46
----------------------------------------------------------------------------------------------------------------------------------------------------DSC03928.JPG
F:\TRABAJOS\Colegios\Cordillera puente alto\2007\Agenda 2007\In
terior\GRIS
1,11 MB 23-03-2007 22:50:40
DSC03928.JPG
F:\TRABAJOS\Colegios\Cordillera puente alto\2008\Agenda 2008\var
ios\Fotos 2007\GRIS
1,11 MB 23-03-2007 22:50:40
----------------------------------------------------------------------------------------------------------------------------------------------------DSC03929.JPG
F:\TRABAJOS\Colegios\Cordillera puente alto\2007\Agenda 2007\In
terior\GRIS
1,04 MB 23-03-2007 22:50:34
DSC03929.JPG
F:\TRABAJOS\Colegios\Cordillera puente alto\2008\Agenda 2008\var
ios\Fotos 2007\GRIS
1,04 MB 23-03-2007 22:50:34
----------------------------------------------------------------------------------------------------------------------------------------------------DSC03930.JPG
F:\TRABAJOS\Colegios\Cordillera puente alto\2007\Agenda 2007\In
terior\GRIS
1,02 MB 23-03-2007 22:51:38
DSC03930.JPG
F:\TRABAJOS\Colegios\Cordillera puente alto\2008\Agenda 2008\Int
erior 2008\imagenes 2008
1,02 MB 23-03-2007 22:51:38
DSC03930.JPG
F:\TRABAJOS\Colegios\Cordillera puente alto\2008\Agenda 2008\var
ios\Fotos 2007\GRIS
1,02 MB 23-03-2007 22:51:38
----------------------------------------------------------------------------------------------------------------------------------------------------DSC03931.JPG
F:\TRABAJOS\Colegios\Cordillera puente alto\2007\Agenda 2007\In
terior\GRIS
1,17 MB 23-03-2007 22:52:58
DSC03931.JPG
F:\TRABAJOS\Colegios\Cordillera puente alto\2008\Agenda 2008\var
ios\Fotos 2007\GRIS
1,17 MB 23-03-2007 22:52:58
----------------------------------------------------------------------------------------------------------------------------------------------------DSC03932.JPG
F:\TRABAJOS\Colegios\Cordillera puente alto\2007\Agenda 2007\In
terior\GRIS
1,05 MB 23-03-2007 22:52:54
DSC03932.JPG
F:\TRABAJOS\Colegios\Cordillera puente alto\2008\Agenda 2008\var
ios\Fotos 2007\GRIS
1,05 MB 23-03-2007 22:52:54
----------------------------------------------------------------------------------------------------------------------------------------------------DSC03933.JPG
F:\TRABAJOS\Colegios\Cordillera puente alto\2007\Agenda 2007\In
terior\GRIS
1,03 MB 23-03-2007 22:52:48
DSC03933.JPG
F:\TRABAJOS\Colegios\Cordillera puente alto\2008\Agenda 2008\var
ios\Fotos 2007\GRIS
1,03 MB 23-03-2007 22:52:48
----------------------------------------------------------------------------------------------------------------------------------------------------DSC03934.JPG
F:\TRABAJOS\Colegios\Cordillera puente alto\2007\Agenda 2007\In

terior\GRIS
1,17 MB 23-03-2007 22:52:42
DSC03934.JPG
F:\TRABAJOS\Colegios\Cordillera puente alto\2008\Agenda 2008\var
ios\Fotos 2007\GRIS
1,17 MB 23-03-2007 22:52:42
----------------------------------------------------------------------------------------------------------------------------------------------------DSC03935.JPG
F:\TRABAJOS\Colegios\Cordillera puente alto\2007\Agenda 2007\In
terior\GRIS
1,05 MB 23-03-2007 22:52:36
DSC03935.JPG
F:\TRABAJOS\Colegios\Cordillera puente alto\2008\Agenda 2008\var
ios\Fotos 2007\GRIS
1,05 MB 23-03-2007 22:52:36
----------------------------------------------------------------------------------------------------------------------------------------------------DSC03937.JPG
F:\TRABAJOS\Colegios\Cordillera puente alto\2007\Agenda 2007\In
terior\GRIS
1,08 MB 23-03-2007 22:52:26
DSC03937.JPG
F:\TRABAJOS\Colegios\Cordillera puente alto\2008\Agenda 2008\var
ios\Fotos 2007\GRIS
1,08 MB 23-03-2007 22:52:26
----------------------------------------------------------------------------------------------------------------------------------------------------DSC03939.JPG
F:\TRABAJOS\Colegios\Cordillera puente alto\2007\Agenda 2007\In
terior\GRIS
1,15 MB 23-03-2007 22:52:16
DSC03939.JPG
F:\TRABAJOS\Colegios\Cordillera puente alto\2008\Agenda 2008\var
ios\Fotos 2007\GRIS
1,15 MB 23-03-2007 22:52:16
----------------------------------------------------------------------------------------------------------------------------------------------------DSC03943.JPG
F:\TRABAJOS\Colegios\Cordillera puente alto\2007\Agenda 2007\In
terior\GRIS
1,00 MB 23-03-2007 22:54:12
DSC03943.JPG
F:\TRABAJOS\Colegios\Cordillera puente alto\2008\Agenda 2008\var
ios\Fotos 2007\GRIS
1,00 MB 23-03-2007 22:54:12
----------------------------------------------------------------------------------------------------------------------------------------------------sep.jpg F:\TRABAJOS\Colegios\Cordillera puente alto\2007\Agenda 2007\Interior\G
RIS
1,10 MB 24-03-2007 1:04:00
sep.jpg F:\TRABAJOS\Colegios\Cordillera puente alto\2008\Agenda 2008\Interior 20
08\imagenes 2008
1,10 MB 24-03-2007 1:04:00
sep.jpg F:\TRABAJOS\Colegios\Cordillera puente alto\2008\Agenda 2008\varios\Foto
s 2007\GRIS
1,10 MB 24-03-2007 1:04:00
sep.jpg F:\TRABAJOS\Colegios\Cordillera puente alto\2008\Agenda 2008\varios\Inte
rior\fotos interior
1,10 MB 24-03-2007 1:04:00
----------------------------------------------------------------------------------------------------------------------------------------------------tapa.psd
F:\TRABAJOS\Colegios\Cordillera puente alto\2007\Agenda 2007
109 MB 30-03-2007 13:08:02
tapa.psd
F:\TRABAJOS\Colegios\Cordillera puente alto\2008\Agenda 2008\var
ios
109 MB 30-03-2007 13:08:02
----------------------------------------------------------------------------------------------------------------------------------------------------fachada colegio.jpg
F:\TRABAJOS\Colegios\Cordillera puente alto\2008\Agenda
2008\Interior 2008\imagenes 2008
1,25 MB 14-06-2005 21:49:44
fachada colegio.jpg
F:\TRABAJOS\Colegios\Cordillera puente alto\2008\Agenda
2008\varios\Interior\fotos interior
1,25 MB 14-06-2005 21:49:44
----------------------------------------------------------------------------------------------------------------------------------------------------P3280268.JPG
F:\TRABAJOS\Colegios\Cordillera puente alto\2008\Agenda 2008\var
ios\2008
5,01 MB 28-03-2008 13:57:10
P3280268.JPG
F:\TRABAJOS\Colegios\Cordillera puente alto\2009\Admision 2009\2
008
5,01 MB 28-03-2008 13:57:10
----------------------------------------------------------------------------------------------------------------------------------------------------P3280270.JPG
F:\TRABAJOS\Colegios\Cordillera puente alto\2008\Agenda 2008\var
ios\2008
3,69 MB 28-03-2008 13:57:44
P3280270.JPG
F:\TRABAJOS\Colegios\Cordillera puente alto\2009\Admision 2009\2

008
3,69 MB 28-03-2008 13:57:44
----------------------------------------------------------------------------------------------------------------------------------------------------P3280271.JPG
F:\TRABAJOS\Colegios\Cordillera puente alto\2008\Agenda 2008\var
ios\2008
3,85 MB 28-03-2008 13:59:28
P3280271.JPG
F:\TRABAJOS\Colegios\Cordillera puente alto\2009\Admision 2009\2
008
3,85 MB 28-03-2008 13:59:28
----------------------------------------------------------------------------------------------------------------------------------------------------P3280272.JPG
F:\TRABAJOS\Colegios\Cordillera puente alto\2008\Agenda 2008\var
ios\2008
3,79 MB 28-03-2008 13:59:48
P3280272.JPG
F:\TRABAJOS\Colegios\Cordillera puente alto\2009\Admision 2009\2
008
3,79 MB 28-03-2008 13:59:48
----------------------------------------------------------------------------------------------------------------------------------------------------P3280273.JPG
F:\TRABAJOS\Colegios\Cordillera puente alto\2008\Agenda 2008\var
ios\2008
4,78 MB 28-03-2008 14:00:38
P3280273.JPG
F:\TRABAJOS\Colegios\Cordillera puente alto\2009\Admision 2009\2
008
4,78 MB 28-03-2008 14:00:38
----------------------------------------------------------------------------------------------------------------------------------------------------P3280274.JPG
F:\TRABAJOS\Colegios\Cordillera puente alto\2008\Agenda 2008\var
ios\2008
3,82 MB 28-03-2008 14:00:52
P3280274.JPG
F:\TRABAJOS\Colegios\Cordillera puente alto\2009\Admision 2009\2
008
3,82 MB 28-03-2008 14:00:52
----------------------------------------------------------------------------------------------------------------------------------------------------P3280275.JPG
F:\TRABAJOS\Colegios\Cordillera puente alto\2008\Agenda 2008\var
ios\2008
4,74 MB 28-03-2008 14:01:36
P3280275.JPG
F:\TRABAJOS\Colegios\Cordillera puente alto\2009\Admision 2009\2
008
4,74 MB 28-03-2008 14:01:36
----------------------------------------------------------------------------------------------------------------------------------------------------P3280276.JPG
F:\TRABAJOS\Colegios\Cordillera puente alto\2008\Agenda 2008\var
ios\2008
4,88 MB 28-03-2008 14:01:40
P3280276.JPG
F:\TRABAJOS\Colegios\Cordillera puente alto\2009\Admision 2009\2
008
4,88 MB 28-03-2008 14:01:40
----------------------------------------------------------------------------------------------------------------------------------------------------P3280277.JPG
F:\TRABAJOS\Colegios\Cordillera puente alto\2008\Agenda 2008\var
ios\2008
4,73 MB 28-03-2008 14:01:46
P3280277.JPG
F:\TRABAJOS\Colegios\Cordillera puente alto\2009\Admision 2009\2
008
4,73 MB 28-03-2008 14:01:46
----------------------------------------------------------------------------------------------------------------------------------------------------P3280278.JPG
F:\TRABAJOS\Colegios\Cordillera puente alto\2008\Agenda 2008\var
ios\2008
4,80 MB 28-03-2008 14:02:02
P3280278.JPG
F:\TRABAJOS\Colegios\Cordillera puente alto\2009\Admision 2009\2
008
4,80 MB 28-03-2008 14:02:02
----------------------------------------------------------------------------------------------------------------------------------------------------P3280279.JPG
F:\TRABAJOS\Colegios\Cordillera puente alto\2008\Agenda 2008\var
ios\2008
4,79 MB 28-03-2008 14:02:14
P3280279.JPG
F:\TRABAJOS\Colegios\Cordillera puente alto\2009\Admision 2009\2
008
4,79 MB 28-03-2008 14:02:14
----------------------------------------------------------------------------------------------------------------------------------------------------P3280280.JPG
F:\TRABAJOS\Colegios\Cordillera puente alto\2008\Agenda 2008\var
ios\2008
4,22 MB 28-03-2008 14:02:56
P3280280.JPG
F:\TRABAJOS\Colegios\Cordillera puente alto\2009\Admision 2009\2

008
4,22 MB 28-03-2008 14:02:56
----------------------------------------------------------------------------------------------------------------------------------------------------P3280281.JPG
F:\TRABAJOS\Colegios\Cordillera puente alto\2008\Agenda 2008\var
ios\2008
4,57 MB 28-03-2008 14:03:08
P3280281.JPG
F:\TRABAJOS\Colegios\Cordillera puente alto\2009\Admision 2009\2
008
4,57 MB 28-03-2008 14:03:08
----------------------------------------------------------------------------------------------------------------------------------------------------P3280282.JPG
F:\TRABAJOS\Colegios\Cordillera puente alto\2008\Agenda 2008\var
ios\2008
4,54 MB 28-03-2008 14:04:14
P3280282.JPG
F:\TRABAJOS\Colegios\Cordillera puente alto\2009\Admision 2009\2
008
4,54 MB 28-03-2008 14:04:14
----------------------------------------------------------------------------------------------------------------------------------------------------P3280283.JPG
F:\TRABAJOS\Colegios\Cordillera puente alto\2008\Agenda 2008\var
ios\2008
4,59 MB 28-03-2008 14:04:22
P3280283.JPG
F:\TRABAJOS\Colegios\Cordillera puente alto\2009\Admision 2009\2
008
4,59 MB 28-03-2008 14:04:22
----------------------------------------------------------------------------------------------------------------------------------------------------P3280284.JPG
F:\TRABAJOS\Colegios\Cordillera puente alto\2008\Agenda 2008\var
ios\2008
4,65 MB 28-03-2008 14:04:32
P3280284.JPG
F:\TRABAJOS\Colegios\Cordillera puente alto\2009\Admision 2009\2
008
4,65 MB 28-03-2008 14:04:32
----------------------------------------------------------------------------------------------------------------------------------------------------P3280285.JPG
F:\TRABAJOS\Colegios\Cordillera puente alto\2008\Agenda 2008\var
ios\2008
4,91 MB 28-03-2008 14:04:46
P3280285.JPG
F:\TRABAJOS\Colegios\Cordillera puente alto\2009\Admision 2009\2
008
4,91 MB 28-03-2008 14:04:46
----------------------------------------------------------------------------------------------------------------------------------------------------P3280286.JPG
F:\TRABAJOS\Colegios\Cordillera puente alto\2008\Agenda 2008\var
ios\2008
4,61 MB 28-03-2008 14:05:10
P3280286.JPG
F:\TRABAJOS\Colegios\Cordillera puente alto\2009\Admision 2009\2
008
4,61 MB 28-03-2008 14:05:10
----------------------------------------------------------------------------------------------------------------------------------------------------retiro 2.jpg
F:\TRABAJOS\Colegios\Cordillera puente alto\2008\montaje photosh
op
1,61 MB 07-10-2008 20:28:14
retiro 2.jpg
F:\TRABAJOS\Colegios\Cordillera puente alto\2008\muestra
1,61 MB 07-10-2008 20:28:14
retiro 2.jpg
F:\TRABAJOS\Colegios\Cordillera puente alto\2008\Volante final
1,61 MB 07-10-2008 20:28:14
----------------------------------------------------------------------------------------------------------------------------------------------------volante cordillera retiro 2.jpg F:\TRABAJOS\Colegios\Cordillera puente alto\2008
\montaje photoshop
2,17 MB 07-10-2008 19:22:22
volante cordillera retiro 2.jpg F:\TRABAJOS\Colegios\Cordillera puente alto\2008
\Volante final 2,17 MB 07-10-2008 19:22:22
----------------------------------------------------------------------------------------------------------------------------------------------------DSC03935 copia.jpg
F:\TRABAJOS\Colegios\Cordillera puente alto\2009\Admisio
n 2009 5,08 MB 03-10-2008 21:17:18
DSC03935 copia.jpg
F:\TRABAJOS\Colegios\Cordillera puente alto\2009\Admisio
n 2009\Tela Taller Q
5,08 MB 03-10-2008 21:17:18
----------------------------------------------------------------------------------------------------------------------------------------------------imagenes cordiller PA.rar
F:\TRABAJOS\Colegios\Cordillera puente alto\2012

\Agenda 2012\Fotos
32,5 MB 09-12-2011 21:27:37
imagenes cordiller PA.rar
F:\TRABAJOS\Colegios\Cordillera puente alto\2013
\volante\Fotos 32,5 MB 09-12-2011 21:27:37
----------------------------------------------------------------------------------------------------------------------------------------------------PB290104.jpg
F:\TRABAJOS\Colegios\Cordillera puente alto\2012\Agenda 2012\Fot
os
5,73 MB 01-12-2011 18:24:28
PB290104.jpg
F:\TRABAJOS\Colegios\Cordillera puente alto\2013\volante\Fotos
5,73 MB 01-12-2011 18:24:28
----------------------------------------------------------------------------------------------------------------------------------------------------PB290112-2.jpg F:\TRABAJOS\Colegios\Cordillera puente alto\2012\Agenda 2012\Fot
os
7,82 MB 09-12-2011 21:22:16
PB290112-2.jpg F:\TRABAJOS\Colegios\Cordillera puente alto\2013\volante\Fotos
7,82 MB 09-12-2011 21:22:16
----------------------------------------------------------------------------------------------------------------------------------------------------PB290119.jpg
F:\TRABAJOS\Colegios\Cordillera puente alto\2012\Agenda 2012\Fot
os
7,13 MB 02-12-2011 20:17:55
PB290119.jpg
F:\TRABAJOS\Colegios\Cordillera puente alto\2013\volante\Fotos
7,13 MB 02-12-2011 20:17:55
----------------------------------------------------------------------------------------------------------------------------------------------------PB290138.jpg
F:\TRABAJOS\Colegios\Cordillera puente alto\2012\Agenda 2012\Fot
os
6,19 MB 02-12-2011 16:11:29
PB290138.jpg
F:\TRABAJOS\Colegios\Cordillera puente alto\2013\volante\Fotos
6,19 MB 02-12-2011 16:11:29
----------------------------------------------------------------------------------------------------------------------------------------------------PB290146.jpg
F:\TRABAJOS\Colegios\Cordillera puente alto\2012\Agenda 2012\Fot
os
6,14 MB 02-12-2011 15:53:12
PB290146.jpg
F:\TRABAJOS\Colegios\Cordillera puente alto\2013\volante\Fotos
6,14 MB 02-12-2011 15:53:12
----------------------------------------------------------------------------------------------------------------------------------------------------DSC03059.JPG
F:\TRABAJOS\Colegios\Cordillera puente alto\Malloco-Cordillera\F
otos Malloco
1,34 MB 01-02-2006 13:54:02
DSC03059.JPG
F:\TRABAJOS\Colegios\IER\Malloco\2006\2006 Agenda\Malloco-Cordil
lera\Fotos Malloco
1,34 MB 01-02-2006 13:54:02
----------------------------------------------------------------------------------------------------------------------------------------------------DSC03136.JPG
F:\TRABAJOS\Colegios\Cordillera puente alto\Malloco-Cordillera\F
otos Malloco
1,32 MB 01-02-2006 13:52:50
DSC03136.JPG
F:\TRABAJOS\Colegios\IER\Malloco\2006\2006 Agenda\Malloco-Cordil
lera\Fotos Malloco
1,32 MB 01-02-2006 13:52:50
----------------------------------------------------------------------------------------------------------------------------------------------------P1260028.JPG
F:\TRABAJOS\Colegios\Cordillera puente alto\Malloco-Cordillera\F
otos Malloco
1,20 MB 01-02-2006 13:52:32
P1260028.JPG
F:\TRABAJOS\Colegios\IER\Malloco\2006\2006 Agenda\Malloco-Cordil
lera\Fotos Malloco
1,20 MB 01-02-2006 13:52:32
----------------------------------------------------------------------------------------------------------------------------------------------------001.jpg F:\TRABAJOS\Colegios\Deutsche Schule Punta Arenas\2013\Agenda\Agenda 201
3 Deutsche Schule\Links 6,22 MB 11-03-2013 17:51:18
001.jpg F:\TRABAJOS\Colegios\Deutsche Schule Punta Arenas\2013\Agenda\info\image
nes
6,22 MB 11-03-2013 17:51:18
----------------------------------------------------------------------------------------------------------------------------------------------------006.jpg F:\TRABAJOS\Colegios\Deutsche Schule Punta Arenas\2013\Agenda\Agenda 201

3 Deutsche Schule\Links 7,58 MB 12-03-2013 16:53:21


006.jpg F:\TRABAJOS\Colegios\Deutsche Schule Punta Arenas\2013\Agenda\info\image
nes
7,58 MB 12-03-2013 16:53:21
----------------------------------------------------------------------------------------------------------------------------------------------------088.jpg F:\TRABAJOS\Colegios\Deutsche Schule Punta Arenas\2013\Agenda\Agenda 201
3 Deutsche Schule\Links 4,90 MB 12-03-2013 16:16:22
088.jpg F:\TRABAJOS\Colegios\Deutsche Schule Punta Arenas\2013\Agenda\info\image
nes
4,90 MB 12-03-2013 16:16:22
----------------------------------------------------------------------------------------------------------------------------------------------------174503main_image_feature_805_ys_full.jpg
F:\TRABAJOS\Colegios\Deutsche Sc
hule Punta Arenas\2013\Agenda\Agenda 2013 Deutsche Schule\Links 3,26 MB 11-03-20
13 14:05:33
174503main_image_feature_805_ys_full.jpg
F:\TRABAJOS\Colegios\Deutsche Sc
hule Punta Arenas\2013\Agenda\info\imagenes
3,26 MB 11-03-2013 14:05:33
----------------------------------------------------------------------------------------------------------------------------------------------------Alemania 1.jpg F:\TRABAJOS\Colegios\Deutsche Schule Punta Arenas\2013\Agenda\Ag
enda 2013 Deutsche Schule\Links 4,53 MB 12-03-2013 20:54:35
Alemania 1.jpg F:\TRABAJOS\Colegios\Deutsche Schule Punta Arenas\2013\Agenda\in
fo\imagenes
4,53 MB 12-03-2013 20:54:35
----------------------------------------------------------------------------------------------------------------------------------------------------Alemania 2.jpg F:\TRABAJOS\Colegios\Deutsche Schule Punta Arenas\2013\Agenda\Ag
enda 2013 Deutsche Schule\Links 5,56 MB 12-03-2013 20:54:11
Alemania 2.jpg F:\TRABAJOS\Colegios\Deutsche Schule Punta Arenas\2013\Agenda\in
fo\imagenes
5,56 MB 12-03-2013 20:54:11
----------------------------------------------------------------------------------------------------------------------------------------------------eddington_kelly_04.jpg F:\TRABAJOS\Colegios\Deutsche Schule Punta Arenas\2013\A
genda\Agenda 2013 Deutsche Schule\Links 21,9 MB 11-03-2013 22:46:30
eddington_kelly_04.jpg F:\TRABAJOS\Colegios\Deutsche Schule Punta Arenas\2013\A
genda\info\imagenes
21,9 MB 11-03-2013 22:46:30
----------------------------------------------------------------------------------------------------------------------------------------------------S_M COLOR (8).jpg
F:\TRABAJOS\Colegios\Deutsche Schule Punta Arenas\2014\C
arpeta Deutsche Schule Agenda\Links
6,43 MB 31-01-2014 22:06:47
S_M COLOR (8).jpg
F:\TRABAJOS\Colegios\Josefino Santisima Trinidad\2014\Ag
enda\Agenda Josefino Santisima Trinidad\Links 6,43 MB 31-01-2014 22:06:47
S_M COLOR (8).jpg
F:\TRABAJOS\Colegios\Sagrado Corazon de Talagante\2014\A
genda\Carpeta Agenda sagrado corazon p1\Links 6,43 MB 31-01-2014 22:06:47
S_M COLOR (8).jpg
F:\TRABAJOS\Colegios\Sagrado Corazon de Talagante\2014\A
genda\fondos paginas
6,43 MB 31-01-2014 22:06:47
S_M COLOR (8).jpg
F:\TRABAJOS\Colegios\Sagrado Corazon de Talagante\2014\A
genda\Tapa\fotos tapa\fotos sagrado corazon agenda
6,43 MB 31-01-2014 22:06
:47
S_M COLOR (8).jpg
F:\TRABAJOS\Colegios\San Antonio\2014\Agenda
6,43 MB
31-01-2014 22:06:47
----------------------------------------------------------------------------------------------------------------------------------------------------cancha.jpg
F:\TRABAJOS\Colegios\Emmanuel High School\Agenda 2006-Emmanuel\a
genda 2006
1,14 MB 28-02-2005 10:33:42
cancha.jpg
F:\TRABAJOS\Colegios\Emmanuel High School\Agenda Emanuel 2008\Ag
enda Emmanuel High School - 2008\Tapa 1,14 MB 28-02-2005 10:33:42
----------------------------------------------------------------------------------------------------------------------------------------------------fachada.jpg
F:\TRABAJOS\Colegios\Emmanuel High School\Agenda 2006-Emmanuel\a
genda 2006
1,18 MB 28-02-2005 9:18:18
fachada.jpg
F:\TRABAJOS\Colegios\Emmanuel High School\Agenda Emanuel 2008\Ag

enda Emmanuel High School - 2008\Tapa 1,18 MB 28-02-2005 9:18:18


----------------------------------------------------------------------------------------------------------------------------------------------------pasillo.jpg
F:\TRABAJOS\Colegios\Emmanuel High School\Agenda 2006-Emmanuel\a
genda 2006
1,02 MB 28-02-2005 12:32:04
pasillo.jpg
F:\TRABAJOS\Colegios\Emmanuel High School\Agenda Emanuel 2008\Ag
enda Emmanuel High School - 2008\Tapa 1,02 MB 28-02-2005 12:32:04
----------------------------------------------------------------------------------------------------------------------------------------------------Varios.jpg
F:\TRABAJOS\Colegios\Emmanuel High School\Agenda 2006-Emmanuel\F
otos Emmanuel High School
2,58 MB 22-03-2006 9:28:46
Varios.jpg
F:\TRABAJOS\Colegios\Emmanuel High School\Agenda Emanuel 2008\Ag
enda Emmanuel High School - 2008\Tapa 2,58 MB 22-03-2006 9:28:46
----------------------------------------------------------------------------------------------------------------------------------------------------Hojas 02.FH11 F:\TRABAJOS\Colegios\Emmanuel High School\Agenda Emanuel 2008\In
terior 6,17 MB 08-04-2008 20:00:12
Hojas 02.FH11 F:\TRABAJOS\Colegios\Francisco Encina\2008\2008 Agenda Fracisco
Encina\Interior 6,17 MB 08-04-2008 20:00:12
----------------------------------------------------------------------------------------------------------------------------------------------------Hojas 03.FH11 F:\TRABAJOS\Colegios\Emmanuel High School\Agenda Emanuel 2008\In
terior 6,17 MB 08-04-2008 18:22:56
Hojas 03.FH11 F:\TRABAJOS\Colegios\Francisco Encina\2008\2008 Agenda Fracisco
Encina\Interior 6,17 MB 08-04-2008 18:22:56
Hojas 03.FH11 F:\TRABAJOS\Colegios\Francisco Encina\2011\Agenda-f-e-2011\ANTIG
UOS
6,17 MB 08-04-2008 18:22:56
----------------------------------------------------------------------------------------------------------------------------------------------------Hojas 04.FH11 F:\TRABAJOS\Colegios\Emmanuel High School\Agenda Emanuel 2008\In
terior 4,64 MB 08-04-2008 18:27:38
Hojas 04.FH11 F:\TRABAJOS\Colegios\Francisco Encina\2008\2008 Agenda Fracisco
Encina\Interior 4,64 MB 08-04-2008 18:27:38
Hojas 04.FH11 F:\TRABAJOS\Colegios\Francisco Encina\2011\Agenda-f-e-2011\ANTIG
UOS
4,64 MB 08-04-2008 18:27:38
----------------------------------------------------------------------------------------------------------------------------------------------------Hojas 05.FH11 F:\TRABAJOS\Colegios\Emmanuel High School\Agenda Emanuel 2008\In
terior 3,53 MB 08-04-2008 18:27:30
Hojas 05.FH11 F:\TRABAJOS\Colegios\Francisco Encina\2008\2008 Agenda Fracisco
Encina\Interior 3,53 MB 08-04-2008 18:27:30
Hojas 05.FH11 F:\TRABAJOS\Colegios\Francisco Encina\2011\Agenda-f-e-2011\ANTIG
UOS
3,53 MB 08-04-2008 18:27:30
----------------------------------------------------------------------------------------------------------------------------------------------------Hojas 06.FH11 F:\TRABAJOS\Colegios\Emmanuel High School\Agenda Emanuel 2008\In
terior 3,03 MB 08-04-2008 19:37:44
Hojas 06.FH11 F:\TRABAJOS\Colegios\Francisco Encina\2008\2008 Agenda Fracisco
Encina\Interior 3,03 MB 08-04-2008 19:37:44
Hojas 06.FH11 F:\TRABAJOS\Colegios\Francisco Encina\2011\Agenda-f-e-2011\ANTIG
UOS
3,03 MB 08-04-2008 19:37:44
----------------------------------------------------------------------------------------------------------------------------------------------------Hojas 07.FH11 F:\TRABAJOS\Colegios\Emmanuel High School\Agenda Emanuel 2008\In
terior 3,03 MB 08-04-2008 18:31:42
Hojas 07.FH11 F:\TRABAJOS\Colegios\Francisco Encina\2008\2008 Agenda Fracisco
Encina\Interior 3,03 MB 08-04-2008 18:31:42
Hojas 07.FH11 F:\TRABAJOS\Colegios\Francisco Encina\2011\Agenda-f-e-2011\ANTIG
UOS
3,03 MB 08-04-2008 18:31:42
--------------------------------------------------------------------------------

---------------------------------------------------------------------DSC_0003.jpg
F:\TRABAJOS\Colegios\Esjelavi\2013\agenda\idd\Carpeta Agenda 201
3\Links 6,24 MB 04-12-2012 15:01:53
DSC_0003.jpg
F:\TRABAJOS\Colegios\Esjelavi\2013\agenda\psd 6,24 MB 04-12-20
12 15:01:53
----------------------------------------------------------------------------------------------------------------------------------------------------DSC_0007.jpg
F:\TRABAJOS\Colegios\Esjelavi\2013\agenda\idd\Carpeta Agenda 201
3\Links 12,0 MB 03-12-2012 13:46:48
DSC_0007.jpg
F:\TRABAJOS\Colegios\Esjelavi\2013\agenda\psd\nios
12,0 MB
03-12-2012 13:46:48
----------------------------------------------------------------------------------------------------------------------------------------------------DSC_0016.jpg
F:\TRABAJOS\Colegios\Esjelavi\2013\agenda\idd\Carpeta Agenda 201
3\Links 5,50 MB 04-12-2012 17:34:10
DSC_0016.jpg
F:\TRABAJOS\Colegios\Esjelavi\2013\agenda\psd\nios
5,50 MB
04-12-2012 17:34:10
----------------------------------------------------------------------------------------------------------------------------------------------------DSC_0018.jpg
F:\TRABAJOS\Colegios\Esjelavi\2013\agenda\idd\Carpeta Agenda 201
3\Links 11,1 MB 03-12-2012 13:45:47
DSC_0018.jpg
F:\TRABAJOS\Colegios\Esjelavi\2013\agenda\psd\nios
11,1 MB
03-12-2012 13:45:47
----------------------------------------------------------------------------------------------------------------------------------------------------DSC_0047.jpg
F:\TRABAJOS\Colegios\Esjelavi\2013\agenda\idd\Carpeta Agenda 201
3\Links 11,7 MB 03-12-2012 13:40:08
DSC_0047.jpg
F:\TRABAJOS\Colegios\Esjelavi\2013\agenda\psd\nios
11,7 MB
03-12-2012 13:40:08
----------------------------------------------------------------------------------------------------------------------------------------------------DSC_0062.jpg
F:\TRABAJOS\Colegios\Esjelavi\2013\agenda\idd\Carpeta Agenda 201
3\Links 10,3 MB 03-12-2012 13:51:59
DSC_0062.jpg
F:\TRABAJOS\Colegios\Esjelavi\2013\agenda\psd\nios
10,3 MB
03-12-2012 13:51:59
----------------------------------------------------------------------------------------------------------------------------------------------------DSC_0070.psd
F:\TRABAJOS\Colegios\Esjelavi\2013\agenda\idd\Carpeta Agenda 201
3\Links 60,4 MB 04-12-2012 15:06:54
DSC_0070.psd
F:\TRABAJOS\Colegios\Esjelavi\2013\agenda\psd\nios
60,4 MB
04-12-2012 15:06:54
----------------------------------------------------------------------------------------------------------------------------------------------------DSC_0077.jpg
F:\TRABAJOS\Colegios\Esjelavi\2013\agenda\idd\Carpeta Agenda 201
3\Links 10,9 MB 03-12-2012 13:38:56
DSC_0077.jpg
F:\TRABAJOS\Colegios\Esjelavi\2013\agenda\psd\nios
10,9 MB
03-12-2012 13:38:56
----------------------------------------------------------------------------------------------------------------------------------------------------DSC_0082.jpg
F:\TRABAJOS\Colegios\Esjelavi\2013\agenda\idd\Carpeta Agenda 201
3\Links 10,5 MB 03-12-2012 16:47:54
DSC_0082.jpg
F:\TRABAJOS\Colegios\Esjelavi\2013\agenda\psd\nios
10,5 MB
03-12-2012 16:47:54
----------------------------------------------------------------------------------------------------------------------------------------------------DSC_0088.jpg
F:\TRABAJOS\Colegios\Esjelavi\2013\agenda\idd\Carpeta Agenda 201
3\Links 5,10 MB 04-12-2012 17:31:36
DSC_0088.jpg
F:\TRABAJOS\Colegios\Esjelavi\2013\agenda\psd\nios
5,10 MB
04-12-2012 17:31:36
--------------------------------------------------------------------------------

---------------------------------------------------------------------DSC_0100.jpg
F:\TRABAJOS\Colegios\Esjelavi\2013\agenda\idd\Carpeta Agenda 201
3\Links 5,53 MB 04-12-2012 17:29:30
DSC_0100.jpg
F:\TRABAJOS\Colegios\Esjelavi\2013\agenda\psd\nios
5,53 MB
04-12-2012 17:29:30
----------------------------------------------------------------------------------------------------------------------------------------------------DSC_0102.jpg
F:\TRABAJOS\Colegios\Esjelavi\2013\agenda\idd\Carpeta Agenda 201
3\Links 10,7 MB 03-12-2012 13:38:34
DSC_0102.jpg
F:\TRABAJOS\Colegios\Esjelavi\2013\agenda\psd\nios
10,7 MB
03-12-2012 13:38:34
----------------------------------------------------------------------------------------------------------------------------------------------------Fotos.zip
F:\TRABAJOS\Colegios\Francisco Encina\2007\2007 diptico admisin\P
elicula-Diptico 1,51 MB 08-08-2006 11:09:56
Fotos.zip
F:\TRABAJOS\Colegios\Francisco Encina\2008\2008 diptico admisin\P
elicula-Diptico 1,51 MB 08-08-2006 11:09:56
Fotos.zip
F:\TRABAJOS\Colegios\Francisco Encina\2009\2009 diptico admisin\P
elicula-Diptico 1,51 MB 08-08-2006 11:09:56
----------------------------------------------------------------------------------------------------------------------------------------------------Hojas 01.FH11 F:\TRABAJOS\Colegios\Francisco Encina\2008\2008 Agenda Fracisco
Encina\Interior 3,98 MB 08-04-2008 18:08:46
Hojas 01.FH11 F:\TRABAJOS\Colegios\Francisco Encina\2011\Agenda-f-e-2011\ANTIG
UOS
3,98 MB 08-04-2008 18:08:46
----------------------------------------------------------------------------------------------------------------------------------------------------P8210001.JPG
F:\TRABAJOS\Colegios\Francisco Encina\2008\fotos cfe\100OLYMP
1,09 MB 21-08-2008 15:23:46
P8210001.JPG
F:\TRABAJOS\Colegios\Paula Jaraquemada\FOTOS
1,09 MB 21-08-20
08 15:23:46
----------------------------------------------------------------------------------------------------------------------------------------------------P8210002.JPG
F:\TRABAJOS\Colegios\Francisco Encina\2008\fotos cfe\100OLYMP
1,15 MB 21-08-2008 15:23:54
P8210002.JPG
F:\TRABAJOS\Colegios\Paula Jaraquemada\FOTOS
1,15 MB 21-08-20
08 15:23:54
----------------------------------------------------------------------------------------------------------------------------------------------------papel.jpg
F:\TRABAJOS\Colegios\Francisco Encina\2010\2010 admision\Calenda
rio
2,33 MB 01-07-2009 17:24:10
papel.jpg
F:\TRABAJOS\Colegios\Francisco Encina\2010\2010 admision\volante
2,33 MB 01-07-2009 17:24:10
papel.jpg
F:\TRABAJOS\Colegios\Francisco Encina\2010\lienzo PSU 2,33 MB
01-07-2009 17:24:10
papel.jpg
F:\TRABAJOS\Colegios\Francisco Encina\2011\Agenda-f-e-2011\fotos
-2011 2,33 MB 01-07-2009 17:24:10
papel.jpg
F:\TRABAJOS\Colegios\Innova sur\lienzo nuevo
2,33 MB 01-07-20
09 17:24:10
papel.jpg
F:\TRABAJOS\Colegios\Innova sur\pruebas 2,33 MB 01-07-2009 17:24
:10
papel.jpg
F:\TRABAJOS\Colegios\Josefino Santisima Trinidad\2009\Trinitario
Lienzos
2,33 MB 01-07-2009 17:24:10
papel.jpg
F:\TRABAJOS\Colegios\Novo\Novo Horizonte\agenda 2010\agenda 2010
\tapa\fabricio 2,33 MB 01-07-2009 17:24:10
papel.jpg
F:\TRABAJOS\Colegios\Novo\Novo Horizonte\agenda 2010\agenda 2010
\tapa\Nueva carpeta
2,33 MB 01-07-2009 17:24:10
papel.jpg
F:\TRABAJOS\Colegios\Novo\Novo Horizonte\agenda 2010\agenda 2010
\tapa 2,33 MB 01-07-2009 17:24:10
papel.jpg
F:\TRABAJOS\Colegios\Novo\Novo Horizonte\calendario
2,33 MB

01-07-2009 17:24:10
papel.jpg
F:\TRABAJOS\Colegios\Novo\Novo Horizonte\diptico
2,33 MB
01-07-2009 17:24:10
papel.jpg
F:\TRABAJOS\Colegios\Novo\Novo Horizonte\imagenes\Fotos\fotos an
tiguas 2,33 MB 01-07-2009 17:24:10
papel.jpg
F:\TRABAJOS\Colegios\Novo\Novo Horizonte\imagenes
2,33 MB
01-07-2009 17:24:10
papel.jpg
F:\TRABAJOS\Colegios\Novo\Novo Horizonte\peliculas\montaje
2,33 MB 01-07-2009 17:24:10
papel.jpg
F:\TRABAJOS\Colegios\Novo\Novo Mundo\agenda 2010\tapa\fabricio
2,33 MB 01-07-2009 17:24:10
papel.jpg
F:\TRABAJOS\Colegios\Novo\Novo Mundo\agenda 2010\tapa 2,33 MB
01-07-2009 17:24:10
papel.jpg
F:\TRABAJOS\Colegios\SESF\Mirador\2011\pendon 2,33 MB 01-07-20
09 17:24:10
papel.jpg
F:\TRABAJOS\Trabajos\Bigbaner 2,33 MB 01-07-2009 17:24:10
----------------------------------------------------------------------------------------------------------------------------------------------------DSCN5663.psd
F:\TRABAJOS\Colegios\Francisco Encina\2010\2010 admision\volante
4,89 MB 17-07-2009 20:45:36
DSCN5663.psd
F:\TRABAJOS\Colegios\Francisco Encina\2011\Agenda-f-e-2011\fotos
-2011 4,89 MB 17-07-2009 20:45:36
----------------------------------------------------------------------------------------------------------------------------------------------------DSCN5812.psd
F:\TRABAJOS\Colegios\Francisco Encina\2010\2010 admision\volante
5,16 MB 22-07-2009 15:01:44
DSCN5812.psd
F:\TRABAJOS\Colegios\Francisco Encina\2011\Agenda-f-e-2011\fotos
-2011 5,16 MB 22-07-2009 15:01:44
----------------------------------------------------------------------------------------------------------------------------------------------------fondo CFE.jpg F:\TRABAJOS\Colegios\Francisco Encina\2010\2010 admision\volante
1,49 MB 22-07-2009 15:07:24
fondo CFE.jpg F:\TRABAJOS\Colegios\Francisco Encina\2011\Agenda-f-e-2011\fotos
-2011 1,49 MB 22-07-2009 15:07:24
----------------------------------------------------------------------------------------------------------------------------------------------------fondo volante angosto.psd
F:\TRABAJOS\Colegios\Francisco Encina\2010\2010
admision\volante
32,3 MB 22-07-2009 15:10:40
fondo volante angosto.psd
F:\TRABAJOS\Colegios\Francisco Encina\2011\Agend
a-f-e-2011\fotos-2011 32,3 MB 22-07-2009 15:10:40
----------------------------------------------------------------------------------------------------------------------------------------------------fondo.jpg
F:\TRABAJOS\Colegios\Francisco Encina\2010\2010 admision\volante
1,96 MB 20-07-2009 13:25:08
fondo.jpg
F:\TRABAJOS\Colegios\Francisco Encina\2011\Agenda-f-e-2011\fotos
-2011 1,96 MB 20-07-2009 13:25:08
----------------------------------------------------------------------------------------------------------------------------------------------------fondo.psd
F:\TRABAJOS\Colegios\Francisco Encina\2010\2010 admision\volante
17,4 MB 20-07-2009 13:30:42
fondo.psd
F:\TRABAJOS\Colegios\Francisco Encina\2011\Agenda-f-e-2011\fotos
-2011 17,4 MB 20-07-2009 13:30:42
----------------------------------------------------------------------------------------------------------------------------------------------------fondo2.jpg
F:\TRABAJOS\Colegios\Francisco Encina\2010\2010 admision\volante
1,96 MB 20-07-2009 13:30:58
fondo2.jpg
F:\TRABAJOS\Colegios\Francisco Encina\2011\Agenda-f-e-2011\fotos
-2011 1,96 MB 20-07-2009 13:30:58
-----------------------------------------------------------------------------------------------------------------------------------------------------

GRANJA LONQUN (102).psd


F:\TRABAJOS\Colegios\Francisco Encina\2010\2010 admision
\volante
5,94 MB 22-07-2009 14:55:42
GRANJA LONQUN (102).psd
F:\TRABAJOS\Colegios\Francisco Encina\2011\Agenda-f-e-20
11\fotos-2011 5,94 MB 22-07-2009 14:55:42
----------------------------------------------------------------------------------------------------------------------------------------------------P8210024.JPG
F:\TRABAJOS\Colegios\Francisco Encina\2010\2010 admision\volante
1,08 MB 22-07-2009 15:40:50
P8210024.JPG
F:\TRABAJOS\Colegios\Francisco Encina\2011\Agenda-f-e-2011\fotos
-2011 1,08 MB 22-07-2009 15:40:50
----------------------------------------------------------------------------------------------------------------------------------------------------P8210026.JPG
F:\TRABAJOS\Colegios\Francisco Encina\2010\2010 admision\volante
1,12 MB 21-08-2008 16:36:58
P8210026.JPG
F:\TRABAJOS\Colegios\Francisco Encina\2011\Agenda-f-e-2011\fotos
-2011 1,12 MB 21-08-2008 16:36:58
----------------------------------------------------------------------------------------------------------------------------------------------------P8210026.psd
F:\TRABAJOS\Colegios\Francisco Encina\2010\2010 admision\volante
49,1 MB 22-07-2009 14:57:50
P8210026.psd
F:\TRABAJOS\Colegios\Francisco Encina\2011\Agenda-f-e-2011\fotos
-2011 49,1 MB 22-07-2009 14:57:50
----------------------------------------------------------------------------------------------------------------------------------------------------P8210058.jpg
F:\TRABAJOS\Colegios\Francisco Encina\2010\2010 admision\volante
1,10 MB 22-07-2009 15:35:10
P8210058.jpg
F:\TRABAJOS\Colegios\Francisco Encina\2011\Agenda-f-e-2011\fotos
-2011 1,10 MB 22-07-2009 15:35:10
----------------------------------------------------------------------------------------------------------------------------------------------------Copia de FCO ENCINA 121.jpg
F:\TRABAJOS\Colegios\Francisco Encina\2011\Agend
a-f-e-2011\fotos 2011 agenda
1,95 MB 05-09-2010 4:50:21
Copia de FCO ENCINA 121.jpg
F:\TRABAJOS\Colegios\Francisco Encina\2011\fotos
2011 agenda
1,95 MB 05-09-2010 4:50:21
----------------------------------------------------------------------------------------------------------------------------------------------------FCO ENCINA 065.jpg
F:\TRABAJOS\Colegios\Francisco Encina\2011\Agenda-f-e-20
11\fotos 2011 agenda
1,21 MB 05-09-2010 4:46:06
FCO ENCINA 065.jpg
F:\TRABAJOS\Colegios\Francisco Encina\2011\fotos 2011 ag
enda
1,21 MB 05-09-2010 4:46:06
----------------------------------------------------------------------------------------------------------------------------------------------------FCO ENCINA 075.jpg
F:\TRABAJOS\Colegios\Francisco Encina\2011\Agenda-f-e-20
11\fotos 2011 agenda
1,75 MB 05-09-2010 4:46:48
FCO ENCINA 075.jpg
F:\TRABAJOS\Colegios\Francisco Encina\2011\fotos 2011 ag
enda
1,75 MB 05-09-2010 4:46:48
----------------------------------------------------------------------------------------------------------------------------------------------------FCO ENCINA 080.jpg
F:\TRABAJOS\Colegios\Francisco Encina\2011\Agenda-f-e-20
11\fotos 2011 agenda
1,61 MB 05-09-2010 4:47:09
FCO ENCINA 080.jpg
F:\TRABAJOS\Colegios\Francisco Encina\2011\fotos 2011 ag
enda
1,61 MB 05-09-2010 4:47:09
----------------------------------------------------------------------------------------------------------------------------------------------------FCO ENCINA 081.jpg
F:\TRABAJOS\Colegios\Francisco Encina\2011\Agenda-f-e-20
11\fotos 2011 agenda
1,81 MB 05-09-2010 4:47:13
FCO ENCINA 081.jpg
F:\TRABAJOS\Colegios\Francisco Encina\2011\fotos 2011 ag
enda
1,81 MB 05-09-2010 4:47:13
-----------------------------------------------------------------------------------------------------------------------------------------------------

FCO ENCINA 082.jpg


F:\TRABAJOS\Colegios\Francisco Encina\2011\Agenda-f-e-20
11\fotos 2011 agenda
2,18 MB 05-09-2010 4:47:18
FCO ENCINA 082.jpg
F:\TRABAJOS\Colegios\Francisco Encina\2011\fotos 2011 ag
enda
2,18 MB 05-09-2010 4:47:18
----------------------------------------------------------------------------------------------------------------------------------------------------FCO ENCINA 083.jpg
F:\TRABAJOS\Colegios\Francisco Encina\2011\Agenda-f-e-20
11\fotos 2011 agenda
2,19 MB 05-09-2010 4:47:23
FCO ENCINA 083.jpg
F:\TRABAJOS\Colegios\Francisco Encina\2011\fotos 2011 ag
enda
2,19 MB 05-09-2010 4:47:23
----------------------------------------------------------------------------------------------------------------------------------------------------FCO ENCINA 084.jpg
F:\TRABAJOS\Colegios\Francisco Encina\2011\Agenda-f-e-20
11\fotos 2011 agenda
2,16 MB 05-09-2010 4:47:28
FCO ENCINA 084.jpg
F:\TRABAJOS\Colegios\Francisco Encina\2011\fotos 2011 ag
enda
2,16 MB 05-09-2010 4:47:28
----------------------------------------------------------------------------------------------------------------------------------------------------FCO ENCINA 087.jpg
F:\TRABAJOS\Colegios\Francisco Encina\2011\Agenda-f-e-20
11\fotos 2011 agenda
1,71 MB 05-09-2010 4:47:42
FCO ENCINA 087.jpg
F:\TRABAJOS\Colegios\Francisco Encina\2011\fotos 2011 ag
enda
1,71 MB 05-09-2010 4:47:42
----------------------------------------------------------------------------------------------------------------------------------------------------FCO ENCINA 092.jpg
F:\TRABAJOS\Colegios\Francisco Encina\2011\Agenda-f-e-20
11\fotos 2011 agenda
1,94 MB 05-09-2010 4:48:06
FCO ENCINA 092.jpg
F:\TRABAJOS\Colegios\Francisco Encina\2011\fotos 2011 ag
enda
1,94 MB 05-09-2010 4:48:06
----------------------------------------------------------------------------------------------------------------------------------------------------FCO ENCINA 094.jpg
F:\TRABAJOS\Colegios\Francisco Encina\2011\Agenda-f-e-20
11\fotos 2011 agenda
1,88 MB 05-09-2010 4:48:17
FCO ENCINA 094.jpg
F:\TRABAJOS\Colegios\Francisco Encina\2011\fotos 2011 ag
enda
1,88 MB 05-09-2010 4:48:17
----------------------------------------------------------------------------------------------------------------------------------------------------FCO ENCINA 096.jpg
F:\TRABAJOS\Colegios\Francisco Encina\2011\Agenda-f-e-20
11\fotos 2011 agenda
2,05 MB 05-09-2010 4:48:26
FCO ENCINA 096.jpg
F:\TRABAJOS\Colegios\Francisco Encina\2011\fotos 2011 ag
enda
2,05 MB 05-09-2010 4:48:26
----------------------------------------------------------------------------------------------------------------------------------------------------FCO ENCINA 097.jpg
F:\TRABAJOS\Colegios\Francisco Encina\2011\Agenda-f-e-20
11\fotos 2011 agenda
1,96 MB 05-09-2010 4:48:31
FCO ENCINA 097.jpg
F:\TRABAJOS\Colegios\Francisco Encina\2011\fotos 2011 ag
enda
1,96 MB 05-09-2010 4:48:31
----------------------------------------------------------------------------------------------------------------------------------------------------FCO ENCINA 110.jpg
F:\TRABAJOS\Colegios\Francisco Encina\2011\Agenda-f-e-20
11\fotos 2011 agenda
1,82 MB 05-09-2010 4:49:33
FCO ENCINA 110.jpg
F:\TRABAJOS\Colegios\Francisco Encina\2011\fotos 2011 ag
enda
1,82 MB 05-09-2010 4:49:33
----------------------------------------------------------------------------------------------------------------------------------------------------FCO ENCINA 132.jpg
F:\TRABAJOS\Colegios\Francisco Encina\2011\Agenda-f-e-20
11\fotos 2011 agenda
1,52 MB 05-09-2010 4:51:08
FCO ENCINA 132.jpg
F:\TRABAJOS\Colegios\Francisco Encina\2011\fotos 2011 ag
enda
1,52 MB 05-09-2010 4:51:08
-----------------------------------------------------------------------------------------------------------------------------------------------------

FCO ENCINA 2010 094.jpg F:\TRABAJOS\Colegios\Francisco Encina\2011\Agenda-f-e-20


11\fotos 2011 agenda
2,11 MB 09-03-2010 15:10:29
FCO ENCINA 2010 094.jpg F:\TRABAJOS\Colegios\Francisco Encina\2011\fotos 2011 ag
enda
2,11 MB 09-03-2010 15:10:29
----------------------------------------------------------------------------------------------------------------------------------------------------GRADUACION FCO ENCINA 123.jpg F:\TRABAJOS\Colegios\Francisco Encina\2011\Agend
a-f-e-2011\fotos 2011 agenda
1,00 MB 04-12-2010 5:10:31
GRADUACION FCO ENCINA 123.jpg F:\TRABAJOS\Colegios\Francisco Encina\2011\fotos
2011 agenda
1,00 MB 04-12-2010 5:10:31
----------------------------------------------------------------------------------------------------------------------------------------------------GRADUACION FCO ENCINA 125.jpg F:\TRABAJOS\Colegios\Francisco Encina\2011\Agend
a-f-e-2011\fotos 2011 agenda
1,01 MB 04-12-2010 5:10:37
GRADUACION FCO ENCINA 125.jpg F:\TRABAJOS\Colegios\Francisco Encina\2011\fotos
2011 agenda
1,01 MB 04-12-2010 5:10:37
----------------------------------------------------------------------------------------------------------------------------------------------------GRADUACION FCO ENCINA 126.jpg F:\TRABAJOS\Colegios\Francisco Encina\2011\Agend
a-f-e-2011\fotos 2011 agenda
1,02 MB 04-12-2010 5:10:41
GRADUACION FCO ENCINA 126.jpg F:\TRABAJOS\Colegios\Francisco Encina\2011\fotos
2011 agenda
1,02 MB 04-12-2010 5:10:41
----------------------------------------------------------------------------------------------------------------------------------------------------GRADUACION FCO ENCINA 127.jpg F:\TRABAJOS\Colegios\Francisco Encina\2011\Agend
a-f-e-2011\fotos 2011 agenda
1,02 MB 04-12-2010 5:10:44
GRADUACION FCO ENCINA 127.jpg F:\TRABAJOS\Colegios\Francisco Encina\2011\fotos
2011 agenda
1,02 MB 04-12-2010 5:10:44
----------------------------------------------------------------------------------------------------------------------------------------------------GRADUACION FCO ENCINA 128.jpg F:\TRABAJOS\Colegios\Francisco Encina\2011\Agend
a-f-e-2011\fotos 2011 agenda
1,03 MB 04-12-2010 5:10:47
GRADUACION FCO ENCINA 128.jpg F:\TRABAJOS\Colegios\Francisco Encina\2011\fotos
2011 agenda
1,03 MB 04-12-2010 5:10:47
----------------------------------------------------------------------------------------------------------------------------------------------------Imagen 038.jpg F:\TRABAJOS\Colegios\Francisco Encina\2011\Agenda-f-e-2011\fotos
2011 agenda
1,06 MB 16-12-2010 11:02:19
Imagen 038.jpg F:\TRABAJOS\Colegios\Francisco Encina\2011\fotos 2011 agenda
1,06 MB 16-12-2010 11:02:19
----------------------------------------------------------------------------------------------------------------------------------------------------Imagen 043.jpg F:\TRABAJOS\Colegios\Francisco Encina\2011\Agenda-f-e-2011\fotos
2011 agenda
1,05 MB 16-12-2010 11:40:24
Imagen 043.jpg F:\TRABAJOS\Colegios\Francisco Encina\2011\fotos 2011 agenda
1,05 MB 16-12-2010 11:40:24
----------------------------------------------------------------------------------------------------------------------------------------------------Imagen 045.jpg F:\TRABAJOS\Colegios\Francisco Encina\2011\Agenda-f-e-2011\fotos
2011 agenda
1,33 MB 16-12-2010 10:40:19
Imagen 045.jpg F:\TRABAJOS\Colegios\Francisco Encina\2011\fotos 2011 agenda
1,33 MB 16-12-2010 10:40:19
----------------------------------------------------------------------------------------------------------------------------------------------------LORETOFCO ENCINA 049.jpg
F:\TRABAJOS\Colegios\Francisco Encina\2011\Agend
a-f-e-2011\fotos 2011 agenda
2,01 MB 09-03-2010 1:28:16
LORETOFCO ENCINA 049.jpg
F:\TRABAJOS\Colegios\Francisco Encina\2011\fotos
2011 agenda
2,01 MB 09-03-2010 1:28:16
-----------------------------------------------------------------------------------------------------------------------------------------------------

P1030050.JPG
F:\TRABAJOS\Colegios\Francisco Encina\2011\Agenda-f-e-2011\fotos
2011 agenda
2,24 MB 26-03-2010 14:45:00
P1030050.JPG
F:\TRABAJOS\Colegios\Francisco Encina\2011\fotos 2011 agenda
2,24 MB 26-03-2010 14:45:00
P1030050.JPG
F:\TRABAJOS\Colegios\Francisco Encina\2011\FOTOS COLEGIO\FOTOS C
OLEGIO 2010\FOTOS COLEGIO
2,24 MB 26-03-2010 14:45:00
----------------------------------------------------------------------------------------------------------------------------------------------------P1030051.JPG
F:\TRABAJOS\Colegios\Francisco Encina\2011\Agenda-f-e-2011\fotos
2011 agenda
2,31 MB 26-03-2010 14:46:00
P1030051.JPG
F:\TRABAJOS\Colegios\Francisco Encina\2011\FOTOS COLEGIO\FOTOS C
OLEGIO 2010\FOTOS COLEGIO
2,31 MB 26-03-2010 14:46:00
----------------------------------------------------------------------------------------------------------------------------------------------------P1030052.JPG
F:\TRABAJOS\Colegios\Francisco Encina\2011\Agenda-f-e-2011\fotos
2011 agenda
2,31 MB 26-03-2010 14:46:08
P1030052.JPG
F:\TRABAJOS\Colegios\Francisco Encina\2011\FOTOS COLEGIO\FOTOS C
OLEGIO 2010\FOTOS COLEGIO
2,31 MB 26-03-2010 14:46:08
----------------------------------------------------------------------------------------------------------------------------------------------------P1030053.JPG
F:\TRABAJOS\Colegios\Francisco Encina\2011\Agenda-f-e-2011\fotos
2011 agenda
2,31 MB 26-03-2010 14:46:22
P1030053.JPG
F:\TRABAJOS\Colegios\Francisco Encina\2011\FOTOS COLEGIO\FOTOS C
OLEGIO 2010\FOTOS COLEGIO
2,31 MB 26-03-2010 14:46:22
----------------------------------------------------------------------------------------------------------------------------------------------------P1030057.JPG
F:\TRABAJOS\Colegios\Francisco Encina\2011\Agenda-f-e-2011\fotos
2011 agenda
2,02 MB 26-03-2010 14:47:48
P1030057.JPG
F:\TRABAJOS\Colegios\Francisco Encina\2011\fotos 2011 agenda
2,02 MB 26-03-2010 14:47:48
P1030057.JPG
F:\TRABAJOS\Colegios\Francisco Encina\2011\FOTOS COLEGIO\FOTOS C
OLEGIO 2010\FOTOS COLEGIO
2,02 MB 26-03-2010 14:47:48
----------------------------------------------------------------------------------------------------------------------------------------------------P1030063.JPG
F:\TRABAJOS\Colegios\Francisco Encina\2011\Agenda-f-e-2011\fotos
2011 agenda
2,35 MB 26-03-2010 14:49:30
P1030063.JPG
F:\TRABAJOS\Colegios\Francisco Encina\2011\fotos 2011 agenda
2,35 MB 26-03-2010 14:49:30
P1030063.JPG
F:\TRABAJOS\Colegios\Francisco Encina\2011\FOTOS COLEGIO\FOTOS C
OLEGIO 2010\FOTOS COLEGIO
2,35 MB 26-03-2010 14:49:30
----------------------------------------------------------------------------------------------------------------------------------------------------P1030067.JPG
F:\TRABAJOS\Colegios\Francisco Encina\2011\Agenda-f-e-2011\fotos
2011 agenda
2,32 MB 26-03-2010 14:52:56
P1030067.JPG
F:\TRABAJOS\Colegios\Francisco Encina\2011\fotos 2011 agenda
2,32 MB 26-03-2010 14:52:56
P1030067.JPG
F:\TRABAJOS\Colegios\Francisco Encina\2011\FOTOS COLEGIO\FOTOS C
OLEGIO 2010\FOTOS COLEGIO
2,32 MB 26-03-2010 14:52:56
----------------------------------------------------------------------------------------------------------------------------------------------------P1030072.JPG
F:\TRABAJOS\Colegios\Francisco Encina\2011\Agenda-f-e-2011\fotos
2011 agenda
2,24 MB 26-03-2010 14:54:10
P1030072.JPG
F:\TRABAJOS\Colegios\Francisco Encina\2011\fotos 2011 agenda
2,24 MB 26-03-2010 14:54:10
P1030072.JPG
F:\TRABAJOS\Colegios\Francisco Encina\2011\FOTOS COLEGIO\FOTOS C
OLEGIO 2010\FOTOS COLEGIO
2,24 MB 26-03-2010 14:54:10
----------------------------------------------------------------------------------------------------------------------------------------------------P1030073.JPG
F:\TRABAJOS\Colegios\Francisco Encina\2011\Agenda-f-e-2011\fotos
2011 agenda
2,32 MB 26-03-2010 15:00:00

P1030073.JPG
F:\TRABAJOS\Colegios\Francisco Encina\2011\fotos 2011 agenda
2,32 MB 26-03-2010 15:00:00
P1030073.JPG
F:\TRABAJOS\Colegios\Francisco Encina\2011\FOTOS COLEGIO\FOTOS C
OLEGIO 2010\FOTOS COLEGIO
2,32 MB 26-03-2010 15:00:00
----------------------------------------------------------------------------------------------------------------------------------------------------P1030075.JPG
F:\TRABAJOS\Colegios\Francisco Encina\2011\Agenda-f-e-2011\fotos
2011 agenda
2,33 MB 26-03-2010 15:00:10
P1030075.JPG
F:\TRABAJOS\Colegios\Francisco Encina\2011\fotos 2011 agenda
2,33 MB 26-03-2010 15:00:10
P1030075.JPG
F:\TRABAJOS\Colegios\Francisco Encina\2011\FOTOS COLEGIO\FOTOS C
OLEGIO 2010\FOTOS COLEGIO
2,33 MB 26-03-2010 15:00:10
----------------------------------------------------------------------------------------------------------------------------------------------------P1030076.JPG
F:\TRABAJOS\Colegios\Francisco Encina\2011\Agenda-f-e-2011\fotos
2011 agenda
2,25 MB 26-03-2010 15:00:22
P1030076.JPG
F:\TRABAJOS\Colegios\Francisco Encina\2011\fotos 2011 agenda
2,25 MB 26-03-2010 15:00:22
P1030076.JPG
F:\TRABAJOS\Colegios\Francisco Encina\2011\FOTOS COLEGIO\FOTOS C
OLEGIO 2010\FOTOS COLEGIO
2,25 MB 26-03-2010 15:00:22
----------------------------------------------------------------------------------------------------------------------------------------------------P1030077.JPG
F:\TRABAJOS\Colegios\Francisco Encina\2011\Agenda-f-e-2011\fotos
2011 agenda
2,31 MB 26-03-2010 15:00:26
P1030077.JPG
F:\TRABAJOS\Colegios\Francisco Encina\2011\fotos 2011 agenda
2,31 MB 26-03-2010 15:00:26
P1030077.JPG
F:\TRABAJOS\Colegios\Francisco Encina\2011\FOTOS COLEGIO\FOTOS C
OLEGIO 2010\FOTOS COLEGIO
2,31 MB 26-03-2010 15:00:26
----------------------------------------------------------------------------------------------------------------------------------------------------P1030078.JPG
F:\TRABAJOS\Colegios\Francisco Encina\2011\Agenda-f-e-2011\fotos
2011 agenda
2,32 MB 26-03-2010 15:00:40
P1030078.JPG
F:\TRABAJOS\Colegios\Francisco Encina\2011\fotos 2011 agenda
2,32 MB 26-03-2010 15:00:40
P1030078.JPG
F:\TRABAJOS\Colegios\Francisco Encina\2011\FOTOS COLEGIO\FOTOS C
OLEGIO 2010\FOTOS COLEGIO
2,32 MB 26-03-2010 15:00:40
----------------------------------------------------------------------------------------------------------------------------------------------------P1030079.JPG
F:\TRABAJOS\Colegios\Francisco Encina\2011\Agenda-f-e-2011\fotos
2011 agenda
2,36 MB 26-03-2010 15:00:48
P1030079.JPG
F:\TRABAJOS\Colegios\Francisco Encina\2011\fotos 2011 agenda
2,36 MB 26-03-2010 15:00:48
P1030079.JPG
F:\TRABAJOS\Colegios\Francisco Encina\2011\FOTOS COLEGIO\FOTOS C
OLEGIO 2010\FOTOS COLEGIO
2,36 MB 26-03-2010 15:00:48
----------------------------------------------------------------------------------------------------------------------------------------------------P1030080.JPG
F:\TRABAJOS\Colegios\Francisco Encina\2011\Agenda-f-e-2011\fotos
2011 agenda
2,31 MB 26-03-2010 15:01:06
P1030080.JPG
F:\TRABAJOS\Colegios\Francisco Encina\2011\fotos 2011 agenda
2,31 MB 26-03-2010 15:01:06
P1030080.JPG
F:\TRABAJOS\Colegios\Francisco Encina\2011\FOTOS COLEGIO\FOTOS C
OLEGIO 2010\FOTOS COLEGIO
2,31 MB 26-03-2010 15:01:06
----------------------------------------------------------------------------------------------------------------------------------------------------n uevo interior-n.FH11 F:\TRABAJOS\Colegios\Francisco Encina\2011\Agenda-f-e-20
11\Interiores 2,25 MB 05-03-2011 13:33:50
n uevo interior-n.FH11 F:\TRABAJOS\Colegios\San Fransisco de Machali\2011\agend
a2011\Interiores
2,25 MB 05-03-2011 13:33:50
-----------------------------------------------------------------------------------------------------------------------------------------------------

montaje-01-02-B.FH10
F:\TRABAJOS\Colegios\Francisco Encina\2011\Agenda-f-e-20
11\montaje-montaje\fh10\fh10
5,95 MB 17-03-2011 19:54:28
montaje-01-02-B.FH10
F:\TRABAJOS\Colegios\San Fransisco de Machali\2011\agend
a2011\Interiores\fh10 5,95 MB 17-03-2011 19:54:28
----------------------------------------------------------------------------------------------------------------------------------------------------montaje-03-04.FH10
F:\TRABAJOS\Colegios\Francisco Encina\2011\Agenda-f-e-20
11\montaje-montaje\fh10\fh10
6,75 MB 17-03-2011 19:55:18
montaje-03-04.FH10
F:\TRABAJOS\Colegios\San Fransisco de Machali\2011\agend
a2011\Interiores\fh10 6,75 MB 17-03-2011 19:55:18
----------------------------------------------------------------------------------------------------------------------------------------------------montaje-05-06.FH10
F:\TRABAJOS\Colegios\Francisco Encina\2011\Agenda-f-e-20
11\montaje-montaje\fh10\fh10
5,10 MB 17-03-2011 20:19:40
montaje-05-06.FH10
F:\TRABAJOS\Colegios\San Fransisco de Machali\2011\agend
a2011\Interiores\fh10 5,10 MB 17-03-2011 20:19:40
----------------------------------------------------------------------------------------------------------------------------------------------------montaje-07-08.FH10
F:\TRABAJOS\Colegios\Francisco Encina\2011\Agenda-f-e-20
11\montaje-montaje\fh10\fh10
3,62 MB 17-03-2011 20:01:04
montaje-07-08.FH10
F:\TRABAJOS\Colegios\San Fransisco de Machali\2011\agend
a2011\Interiores\fh10 3,62 MB 17-03-2011 20:01:04
----------------------------------------------------------------------------------------------------------------------------------------------------montaje-09-10.FH10
F:\TRABAJOS\Colegios\Francisco Encina\2011\Agenda-f-e-20
11\montaje-montaje\fh10\fh10
3,62 MB 17-03-2011 20:05:21
montaje-09-10.FH10
F:\TRABAJOS\Colegios\San Fransisco de Machali\2011\agend
a2011\Interiores\fh10 3,62 MB 17-03-2011 20:05:21
----------------------------------------------------------------------------------------------------------------------------------------------------montaje-11-12.FH10
F:\TRABAJOS\Colegios\Francisco Encina\2011\Agenda-f-e-20
11\montaje-montaje\fh10\fh10
3,64 MB 17-03-2011 20:13:04
montaje-11-12.FH10
F:\TRABAJOS\Colegios\San Fransisco de Machali\2011\agend
a2011\Interiores\fh10 3,64 MB 17-03-2011 20:13:04
----------------------------------------------------------------------------------------------------------------------------------------------------montaje-13-14.FH10
F:\TRABAJOS\Colegios\Francisco Encina\2011\Agenda-f-e-20
11\montaje-montaje\fh10\fh10
3,63 MB 17-03-2011 20:10:28
montaje-13-14.FH10
F:\TRABAJOS\Colegios\San Fransisco de Machali\2011\agend
a2011\Interiores\fh10 3,63 MB 17-03-2011 20:10:28
----------------------------------------------------------------------------------------------------------------------------------------------------montaje-15-16.FH10
F:\TRABAJOS\Colegios\Francisco Encina\2011\Agenda-f-e-20
11\montaje-montaje\fh10\fh10
6,22 MB 17-03-2011 20:07:49
montaje-15-16.FH10
F:\TRABAJOS\Colegios\San Fransisco de Machali\2011\agend
a2011\Interiores\fh10 6,22 MB 17-03-2011 20:07:49
----------------------------------------------------------------------------------------------------------------------------------------------------montaje-17-18.FH10
F:\TRABAJOS\Colegios\Francisco Encina\2011\Agenda-f-e-20
11\montaje-montaje\fh10\fh10
2,64 MB 17-03-2011 20:16:33
montaje-17-18.FH10
F:\TRABAJOS\Colegios\San Fransisco de Machali\2011\agend
a2011\Interiores\fh10 2,64 MB 17-03-2011 20:16:33
----------------------------------------------------------------------------------------------------------------------------------------------------OPCIONES DE PORTADA.zip F:\TRABAJOS\Colegios\Francisco Encina\2011\Agenda-f-e-20
11\OPCIONES-JPEG
8,38 MB 23-02-2011 21:36:25
OPCIONES DE PORTADA.zip F:\TRABAJOS\Colegios\San Fransisco de Machali\2011\agend
a2011\parecido a\OPCIONES-JPEG 8,38 MB 23-02-2011 21:36:25
-----------------------------------------------------------------------------------------------------------------------------------------------------

tapa-SF-final-01.jpg
F:\TRABAJOS\Colegios\Francisco Encina\2011\Agenda-f-e-20
11\OPCIONES-JPEG\REDUCXIDAS
1,85 MB 23-02-2011 21:34:59
tapa-SF-final-01.jpg
F:\TRABAJOS\Colegios\San Fransisco de Machali\2011\agend
a2011\parecido a\OPCIONES-JPEG\REDUCXIDAS
1,85 MB 23-02-2011 21:34:59
----------------------------------------------------------------------------------------------------------------------------------------------------tapa-SF-final-02.jpg
F:\TRABAJOS\Colegios\Francisco Encina\2011\Agenda-f-e-20
11\OPCIONES-JPEG\REDUCXIDAS
1,84 MB 23-02-2011 21:35:21
tapa-SF-final-02.jpg
F:\TRABAJOS\Colegios\San Fransisco de Machali\2011\agend
a2011\parecido a\OPCIONES-JPEG\REDUCXIDAS
1,84 MB 23-02-2011 21:35:21
----------------------------------------------------------------------------------------------------------------------------------------------------tapa-SF-final-05.jpg
F:\TRABAJOS\Colegios\Francisco Encina\2011\Agenda-f-e-20
11\OPCIONES-JPEG\REDUCXIDAS
1,84 MB 23-02-2011 21:35:06
tapa-SF-final-05.jpg
F:\TRABAJOS\Colegios\San Fransisco de Machali\2011\agend
a2011\parecido a\OPCIONES-JPEG\REDUCXIDAS
1,84 MB 23-02-2011 21:35:06
----------------------------------------------------------------------------------------------------------------------------------------------------tapa-SF-final-07.jpg
F:\TRABAJOS\Colegios\Francisco Encina\2011\Agenda-f-e-20
11\OPCIONES-JPEG\REDUCXIDAS
1,99 MB 23-02-2011 21:34:41
tapa-SF-final-07.jpg
F:\TRABAJOS\Colegios\San Fransisco de Machali\2011\agend
a2011\parecido a\OPCIONES-JPEG\REDUCXIDAS
1,99 MB 23-02-2011 21:34:41
----------------------------------------------------------------------------------------------------------------------------------------------------tapa-SF-final-08.jpg
F:\TRABAJOS\Colegios\Francisco Encina\2011\Agenda-f-e-20
11\OPCIONES-JPEG\REDUCXIDAS
1,85 MB 23-02-2011 21:34:53
tapa-SF-final-08.jpg
F:\TRABAJOS\Colegios\San Fransisco de Machali\2011\agend
a2011\parecido a\OPCIONES-JPEG\REDUCXIDAS
1,85 MB 23-02-2011 21:34:53
----------------------------------------------------------------------------------------------------------------------------------------------------tapa-SF-final-01.jpg
F:\TRABAJOS\Colegios\Francisco Encina\2011\Agenda-f-e-20
11\OPCIONES-JPEG
7,17 MB 23-02-2011 21:24:56
tapa-SF-final-01.jpg
F:\TRABAJOS\Colegios\San Fransisco de Machali\2011\agend
a2011\parecido a\OPCIONES-JPEG 7,17 MB 23-02-2011 21:24:56
----------------------------------------------------------------------------------------------------------------------------------------------------tapa-SF-final-02.jpg
F:\TRABAJOS\Colegios\Francisco Encina\2011\Agenda-f-e-20
11\OPCIONES-JPEG
7,08 MB 23-02-2011 21:26:26
tapa-SF-final-02.jpg
F:\TRABAJOS\Colegios\San Fransisco de Machali\2011\agend
a2011\parecido a\OPCIONES-JPEG 7,08 MB 23-02-2011 21:26:26
----------------------------------------------------------------------------------------------------------------------------------------------------tapa-SF-final-05.jpg
F:\TRABAJOS\Colegios\Francisco Encina\2011\Agenda-f-e-20
11\OPCIONES-JPEG
7,00 MB 23-02-2011 21:31:56
tapa-SF-final-05.jpg
F:\TRABAJOS\Colegios\San Fransisco de Machali\2011\agend
a2011\parecido a\OPCIONES-JPEG 7,00 MB 23-02-2011 21:31:56
----------------------------------------------------------------------------------------------------------------------------------------------------tapa-SF-final-06.jpg
F:\TRABAJOS\Colegios\Francisco Encina\2011\Agenda-f-e-20
11\OPCIONES-JPEG
8,07 MB 23-02-2011 21:14:15
tapa-SF-final-06.jpg
F:\TRABAJOS\Colegios\San Fransisco de Machali\2011\agend
a2011\parecido a\OPCIONES-JPEG 8,07 MB 23-02-2011 21:14:15
----------------------------------------------------------------------------------------------------------------------------------------------------tapa-SF-final-07.jpg
F:\TRABAJOS\Colegios\Francisco Encina\2011\Agenda-f-e-20
11\OPCIONES-JPEG
8,08 MB 23-02-2011 21:16:07
tapa-SF-final-07.jpg
F:\TRABAJOS\Colegios\San Fransisco de Machali\2011\agend
a2011\parecido a\OPCIONES-JPEG 8,08 MB 23-02-2011 21:16:07
-----------------------------------------------------------------------------------------------------------------------------------------------------

tapa-SF-final-08.jpg
F:\TRABAJOS\Colegios\Francisco Encina\2011\Agenda-f-e-20
11\OPCIONES-JPEG
7,21 MB 23-02-2011 21:23:11
tapa-SF-final-08.jpg
F:\TRABAJOS\Colegios\San Fransisco de Machali\2011\agend
a2011\parecido a\OPCIONES-JPEG 7,21 MB 23-02-2011 21:23:11
----------------------------------------------------------------------------------------------------------------------------------------------------tapa-SF-final-05.psd
F:\TRABAJOS\Colegios\Francisco Encina\2011\Agenda-f-e-20
11
129 MB 23-02-2011 21:31:36
tapa-SF-final-05.psd
F:\TRABAJOS\Colegios\San Fransisco de Machali\2011\agend
a2011\parecido a
129 MB 23-02-2011 21:31:36
----------------------------------------------------------------------------------------------------------------------------------------------------DSC_0017.jpg
F:\TRABAJOS\Colegios\Francisco Encina\2011\Fotos 2011 4,10 MB
04-08-2011 4:56:42
DSC_0017.jpg
F:\TRABAJOS\Colegios\Francisco Encina\2013\carpeta colegio 2013\
fotos 4,10 MB 04-08-2011 4:56:42
----------------------------------------------------------------------------------------------------------------------------------------------------P1030061.psd
F:\TRABAJOS\Colegios\Francisco Encina\2011\FOTOS COLEGIO\FOTOS C
OLEGIO 2010\FOTOS COLEGIO
21,5 MB 21-02-2011 22:03:10
P1030061.psd
F:\TRABAJOS\Colegios\Francisco Encina\2012\diptico 2012 21,5 MB
21-02-2011 22:03:10
----------------------------------------------------------------------------------------------------------------------------------------------------2 medio (2) gris.jpg F:\TRABAJOS\Colegios\Francisco Encina\2012\Anuario\anuar
io 2012\Links 4,38 MB 04-10-2012 13:43:14
2 medio (2) gris.jpg F:\TRABAJOS\Colegios\Francisco Encina\2012\Anuario\ID\Ca
rpeta anuario\Links
4,38 MB 04-10-2012 13:43:14
2 medio (2) gris.jpg F:\TRABAJOS\Colegios\Francisco Encina\2012\Anuario\INFO\
Cursos\II Medio 4,38 MB 04-10-2012 13:43:14
----------------------------------------------------------------------------------------------------------------------------------------------------4 Bsico gris .jpg
F:\TRABAJOS\Colegios\Francisco Encina\2012\Anuario\anuario 2012\
Links 4,37 MB 04-10-2012 12:20:21
4 Bsico gris .jpg
F:\TRABAJOS\Colegios\Francisco Encina\2012\Anuario\ID\Carpeta an
uario\Links
4,37 MB 04-10-2012 12:20:21
4 Bsico gris .jpg
F:\TRABAJOS\Colegios\Francisco Encina\2012\Anuario\INFO\Cursos\4
to basico
4,37 MB 04-10-2012 12:20:21
----------------------------------------------------------------------------------------------------------------------------------------------------5to bsico (1)gris.jpg F:\TRABAJOS\Colegios\Francisco Encina\2012\Anuario\anuar
io 2012\Links 4,43 MB 29-10-2012 12:29:37
5to bsico (1)gris.jpg F:\TRABAJOS\Colegios\Francisco Encina\2012\Anuario\ID\Ca
rpeta anuario\Links
4,43 MB 29-10-2012 12:29:37
5to bsico (1)gris.jpg F:\TRABAJOS\Colegios\Francisco Encina\2012\Anuario\INFO\
Cursos\5to basico
4,43 MB 29-10-2012 12:29:37
----------------------------------------------------------------------------------------------------------------------------------------------------6 bsico gris.jpg
F:\TRABAJOS\Colegios\Francisco Encina\2012\Anuario\anuario 2012\
Links 4,58 MB 29-10-2012 12:32:43
6 bsico gris.jpg
F:\TRABAJOS\Colegios\Francisco Encina\2012\Anuario\ID\Carpeta an
uario\Links
4,58 MB 29-10-2012 12:32:43
6 bsico gris.jpg
F:\TRABAJOS\Colegios\Francisco Encina\2012\Anuario\INFO\Cursos\6
to Basico
4,58 MB 29-10-2012 12:32:43
----------------------------------------------------------------------------------------------------------------------------------------------------8vo basico (2) gris.jpg F:\TRABAJOS\Colegios\Francisco Encina\2012\Anuario\anuar
io 2012\Links 4,21 MB 04-10-2012 13:13:31
8vo basico (2) gris.jpg F:\TRABAJOS\Colegios\Francisco Encina\2012\Anuario\ID\Ca
rpeta anuario\Links
4,21 MB 04-10-2012 13:13:31

8vo basico (2) gris.jpg F:\TRABAJOS\Colegios\Francisco Encina\2012\Anuario\INFO\


Cursos\8vo Basico
4,21 MB 04-10-2012 13:13:31
----------------------------------------------------------------------------------------------------------------------------------------------------Bastian Inostroza.jpg F:\TRABAJOS\Colegios\Francisco Encina\2012\Anuario\anuar
io 2012\Links 2,11 MB 05-10-2012 12:49:54
Bastian Inostroza.jpg F:\TRABAJOS\Colegios\Francisco Encina\2012\Anuario\Fotos
\Fotos IV Medio nios\psd
2,11 MB 05-10-2012 12:49:54
Bastian Inostroza.jpg F:\TRABAJOS\Colegios\Francisco Encina\2012\Anuario\ID\Ca
rpeta anuario\Links
2,11 MB 05-10-2012 12:49:54
----------------------------------------------------------------------------------------------------------------------------------------------------bastin inostroza guerrero copia.jpg
F:\TRABAJOS\Colegios\Francisco Encina\20
12\Anuario\anuario 2012\Links 1,13 MB 04-10-2012 16:49:08
bastin inostroza guerrero copia.jpg
F:\TRABAJOS\Colegios\Francisco Encina\20
12\Anuario\Fotos\001\IV medio\iv medio con nombre
1,13 MB 04-10-2012 16:49
:08
bastin inostroza guerrero copia.jpg
F:\TRABAJOS\Colegios\Francisco Encina\20
12\Anuario\ID\Carpeta anuario\Links
1,13 MB 04-10-2012 16:49:08
----------------------------------------------------------------------------------------------------------------------------------------------------Belen Lopez copia.jpg F:\TRABAJOS\Colegios\Francisco Encina\2012\Anuario\anuar
io 2012\Links 1,01 MB 05-10-2012 14:11:12
Belen Lopez copia.jpg F:\TRABAJOS\Colegios\Francisco Encina\2012\Anuario\Fotos
\Fotos IV Medio nios\psd
1,01 MB 05-10-2012 14:11:12
Belen Lopez copia.jpg F:\TRABAJOS\Colegios\Francisco Encina\2012\Anuario\ID\Ca
rpeta anuario\Links
1,01 MB 05-10-2012 14:11:12
----------------------------------------------------------------------------------------------------------------------------------------------------beln lpez assef copia.jpg
F:\TRABAJOS\Colegios\Francisco Encina\2012\Anuario\anuar
io 2012\Links 1,41 MB 04-10-2012 16:41:30
beln lpez assef copia.jpg
F:\TRABAJOS\Colegios\Francisco Encina\2012\Anuario\Fotos
\001\IV medio\iv medio con nombre
1,41 MB 04-10-2012 16:41:30
beln lpez assef copia.jpg
F:\TRABAJOS\Colegios\Francisco Encina\2012\Anuario\ID\Ca
rpeta anuario\Links
1,41 MB 04-10-2012 16:41:30
----------------------------------------------------------------------------------------------------------------------------------------------------bingo.psd
F:\TRABAJOS\Colegios\Francisco Encina\2012\Anuario\anuario 2012\
Links 2,94 MB 29-10-2012 12:53:09
bingo.psd
F:\TRABAJOS\Colegios\Francisco Encina\2012\Anuario\ID\Carpeta an
uario\Links
2,94 MB 29-10-2012 12:53:09
bingo.psd
F:\TRABAJOS\Colegios\Francisco Encina\2012\Anuario\jpg para tema
s
2,94 MB 29-10-2012 12:53:09
----------------------------------------------------------------------------------------------------------------------------------------------------Camila Araos Rojas copia.jpg
F:\TRABAJOS\Colegios\Francisco Encina\2012\Anuar
io\anuario 2012\Links 3,10 MB 04-10-2012 16:41:29
Camila Araos Rojas copia.jpg
F:\TRABAJOS\Colegios\Francisco Encina\2012\Anuar
io\Fotos\001\IV medio\iv medio con nombre
3,10 MB 04-10-2012 16:41:29
Camila Araos Rojas copia.jpg
F:\TRABAJOS\Colegios\Francisco Encina\2012\Anuar
io\ID\Carpeta anuario\Links
3,10 MB 04-10-2012 16:41:29
----------------------------------------------------------------------------------------------------------------------------------------------------Camila Araos Rojas copia_1.jpg F:\TRABAJOS\Colegios\Francisco Encina\2012\Anuar
io\anuario 2012\Links 1,36 MB 05-10-2012 14:10:04
Camila Araos Rojas copia_1.jpg F:\TRABAJOS\Colegios\Francisco Encina\2012\Anuar
io\ID\Carpeta anuario\Links
1,36 MB 05-10-2012 14:10:04
----------------------------------------------------------------------------------------------------------------------------------------------------Carolina Zapata copia.jpg
F:\TRABAJOS\Colegios\Francisco Encina\2012\Anuar

io\anuario 2012\Links 1,04 MB 05-10-2012 14:36:04


Carolina Zapata copia.jpg
F:\TRABAJOS\Colegios\Francisco Encina\2012\Anuar
io\Fotos\Fotos IV Medio nios\psd
1,04 MB 05-10-2012 14:36:04
Carolina Zapata copia.jpg
F:\TRABAJOS\Colegios\Francisco Encina\2012\Anuar
io\ID\Carpeta anuario\Links
1,04 MB 05-10-2012 14:36:04
----------------------------------------------------------------------------------------------------------------------------------------------------carolina zapata leiva copia.jpg F:\TRABAJOS\Colegios\Francisco Encina\2012\Anuar
io\anuario 2012\Links 1,46 MB 04-10-2012 16:41:27
carolina zapata leiva copia.jpg F:\TRABAJOS\Colegios\Francisco Encina\2012\Anuar
io\Fotos\001\IV medio\iv medio con nombre
1,46 MB 04-10-2012 16:41:27
carolina zapata leiva copia.jpg F:\TRABAJOS\Colegios\Francisco Encina\2012\Anuar
io\ID\Carpeta anuario\Links
1,46 MB 04-10-2012 16:41:27
----------------------------------------------------------------------------------------------------------------------------------------------------CAROLINA-SEPULVEDA.jpg F:\TRABAJOS\Colegios\Francisco Encina\2012\Anuario\anuar
io 2012\Links 1,64 MB 22-10-2012 20:30:48
CAROLINA-SEPULVEDA.jpg F:\TRABAJOS\Colegios\Francisco Encina\2012\Anuario\ID\Ca
rpeta anuario\Links
1,64 MB 22-10-2012 20:30:48
CAROLINA-SEPULVEDA.jpg F:\TRABAJOS\Colegios\Francisco Encina\2012\Anuario\INFO\
Nuestro equipo profesional\psd 1,64 MB 22-10-2012 20:30:48
----------------------------------------------------------------------------------------------------------------------------------------------------Catalina Segovia Olguin copia.jpg
F:\TRABAJOS\Colegios\Francisco Encina\20
12\Anuario\anuario 2012\Links 1,50 MB 04-10-2012 16:41:26
Catalina Segovia Olguin copia.jpg
F:\TRABAJOS\Colegios\Francisco Encina\20
12\Anuario\Fotos\001\IV medio\iv medio con nombre
1,50 MB 04-10-2012 16:41
:26
Catalina Segovia Olguin copia.jpg
F:\TRABAJOS\Colegios\Francisco Encina\20
12\Anuario\ID\Carpeta anuario\Links
1,50 MB 04-10-2012 16:41:26
----------------------------------------------------------------------------------------------------------------------------------------------------Chantal Clerc Soto copia.jpg
F:\TRABAJOS\Colegios\Francisco Encina\2012\Anuar
io\anuario 2012\Links 2,91 MB 04-10-2012 16:45:04
Chantal Clerc Soto copia.jpg
F:\TRABAJOS\Colegios\Francisco Encina\2012\Anuar
io\Fotos\001\IV medio\iv medio con nombre
2,91 MB 04-10-2012 16:45:04
Chantal Clerc Soto copia.jpg
F:\TRABAJOS\Colegios\Francisco Encina\2012\Anuar
io\ID\Carpeta anuario\Links
2,91 MB 04-10-2012 16:45:04
----------------------------------------------------------------------------------------------------------------------------------------------------Claudia Sepulveda copia.jpg
F:\TRABAJOS\Colegios\Francisco Encina\2012\Anuar
io\anuario 2012\Links 1,23 MB 05-10-2012 14:01:15
Claudia Sepulveda copia.jpg
F:\TRABAJOS\Colegios\Francisco Encina\2012\Anuar
io\Fotos\Fotos IV Medio nios\psd
1,23 MB 05-10-2012 14:01:15
Claudia Sepulveda copia.jpg
F:\TRABAJOS\Colegios\Francisco Encina\2012\Anuar
io\ID\Carpeta anuario\Links
1,23 MB 05-10-2012 14:01:15
----------------------------------------------------------------------------------------------------------------------------------------------------claudia seplveda pinto copia.jpg
F:\TRABAJOS\Colegios\Francisco Encina\2012\Anuar
io\anuario 2012\Links 1,45 MB 04-10-2012 16:41:23
claudia seplveda pinto copia.jpg
F:\TRABAJOS\Colegios\Francisco Encina\2012\Anuar
io\Fotos\001\IV medio\iv medio con nombre
1,45 MB 04-10-2012 16:41:23
claudia seplveda pinto copia.jpg
F:\TRABAJOS\Colegios\Francisco Encina\2012\Anuar
io\ID\Carpeta anuario\Links
1,45 MB 04-10-2012 16:41:23
----------------------------------------------------------------------------------------------------------------------------------------------------constanza mora moya copia.jpg F:\TRABAJOS\Colegios\Francisco Encina\2012\Anuar
io\anuario 2012\Links 1,64 MB 04-10-2012 16:41:21
constanza mora moya copia.jpg F:\TRABAJOS\Colegios\Francisco Encina\2012\Anuar
io\Fotos\001\IV medio\iv medio con nombre
1,64 MB 04-10-2012 16:41:21

constanza mora moya copia.jpg F:\TRABAJOS\Colegios\Francisco Encina\2012\Anuar


io\ID\Carpeta anuario\Links
1,64 MB 04-10-2012 16:41:21
----------------------------------------------------------------------------------------------------------------------------------------------------DANIEL-ALVAREZ.jpg
F:\TRABAJOS\Colegios\Francisco Encina\2012\Anuario\anuar
io 2012\Links 1,50 MB 22-10-2012 20:31:08
DANIEL-ALVAREZ.jpg
F:\TRABAJOS\Colegios\Francisco Encina\2012\Anuario\ID\Ca
rpeta anuario\Links
1,50 MB 22-10-2012 20:31:08
DANIEL-ALVAREZ.jpg
F:\TRABAJOS\Colegios\Francisco Encina\2012\Anuario\INFO\
Nuestro equipo profesional\psd 1,50 MB 22-10-2012 20:31:08
----------------------------------------------------------------------------------------------------------------------------------------------------dia-profe.jpg F:\TRABAJOS\Colegios\Francisco Encina\2012\Anuario\anuario 2012\
Links 3,19 MB 22-10-2012 16:49:05
dia-profe.jpg F:\TRABAJOS\Colegios\Francisco Encina\2012\Anuario\ID\Carpeta an
uario\Links
3,19 MB 22-10-2012 16:49:05
dia-profe.jpg F:\TRABAJOS\Colegios\Francisco Encina\2012\Anuario\INFO\dia del
profesor\psd
3,19 MB 22-10-2012 16:49:05
----------------------------------------------------------------------------------------------------------------------------------------------------diego oryan prez copia.jpg
F:\TRABAJOS\Colegios\Francisco Encina\2012\Anuar
io\anuario 2012\Links 3,43 MB 04-10-2012 16:41:19
diego oryan prez copia.jpg
F:\TRABAJOS\Colegios\Francisco Encina\2012\Anuar
io\Fotos\001\IV medio\iv medio con nombre
3,43 MB 04-10-2012 16:41:19
diego oryan prez copia.jpg
F:\TRABAJOS\Colegios\Francisco Encina\2012\Anuar
io\ID\Carpeta anuario\Links
3,43 MB 04-10-2012 16:41:19
----------------------------------------------------------------------------------------------------------------------------------------------------directora 2 color.jpg F:\TRABAJOS\Colegios\Francisco Encina\2012\Anuario\anuar
io 2012\Links 3,55 MB 14-11-2012 14:48:55
directora 2 color.jpg F:\TRABAJOS\Colegios\Francisco Encina\2012\Anuario\INFO\
Nuestro equipo profesional\psd 3,55 MB 14-11-2012 14:48:55
----------------------------------------------------------------------------------------------------------------------------------------------------Domingo Estadella copia.jpg
F:\TRABAJOS\Colegios\Francisco Encina\2012\Anuar
io\anuario 2012\Links 1,89 MB 05-10-2012 13:46:48
Domingo Estadella copia.jpg
F:\TRABAJOS\Colegios\Francisco Encina\2012\Anuar
io\Fotos\Fotos IV Medio nios\psd
1,89 MB 05-10-2012 13:46:48
Domingo Estadella copia.jpg
F:\TRABAJOS\Colegios\Francisco Encina\2012\Anuar
io\ID\Carpeta anuario\Links
1,89 MB 05-10-2012 13:46:48
----------------------------------------------------------------------------------------------------------------------------------------------------Domingo Estadella Ros copia.jpg
F:\TRABAJOS\Colegios\Francisco Encina\2012\Anuar
io\anuario 2012\Links 2,95 MB 04-10-2012 16:50:08
Domingo Estadella Ros copia.jpg
F:\TRABAJOS\Colegios\Francisco Encina\2012\Anuar
io\Fotos\001\IV medio\iv medio con nombre
2,95 MB 04-10-2012 16:50:08
Domingo Estadella Ros copia.jpg
F:\TRABAJOS\Colegios\Francisco Encina\2012\Anuar
io\ID\Carpeta anuario\Links
2,95 MB 04-10-2012 16:50:08
----------------------------------------------------------------------------------------------------------------------------------------------------etienne pascal menard alamos.jpg
F:\TRABAJOS\Colegios\Francisco Encina\20
12\Anuario\anuario 2012\Links 1,46 MB 04-10-2012 19:49:43
etienne pascal menard alamos.jpg
F:\TRABAJOS\Colegios\Francisco Encina\20
12\Anuario\Fotos\001\IV medio\iv medio con nombre
1,46 MB 04-10-2012 19:49
:43
etienne pascal menard alamos.jpg
F:\TRABAJOS\Colegios\Francisco Encina\20
12\Anuario\ID\Carpeta anuario\Links
1,46 MB 04-10-2012 19:49:43
----------------------------------------------------------------------------------------------------------------------------------------------------FCO ENCINA 2012 004.jpg F:\TRABAJOS\Colegios\Francisco Encina\2012\Anuario\anuar

io 2012\Links 1,95 MB 06-11-2012 20:11:13


FCO ENCINA 2012 004.jpg F:\TRABAJOS\Colegios\Francisco Encina\2012\Anuario\ID\Ca
rpeta anuario\Links
1,95 MB 06-11-2012 20:11:13
FCO ENCINA 2012 004.jpg F:\TRABAJOS\Colegios\Francisco Encina\2012\Anuario\INFO\
Fotos Pea\pea 2012 -2\PSD
1,95 MB 06-11-2012 20:11:13
----------------------------------------------------------------------------------------------------------------------------------------------------FCO ENCINA 2012 013.jpg F:\TRABAJOS\Colegios\Francisco Encina\2012\Anuario\anuar
io 2012\Links 1,74 MB 08-10-2012 17:45:39
FCO ENCINA 2012 013.jpg F:\TRABAJOS\Colegios\Francisco Encina\2012\Anuario\ID\Ca
rpeta anuario\Links
1,74 MB 08-10-2012 17:45:39
FCO ENCINA 2012 013.jpg F:\TRABAJOS\Colegios\Francisco Encina\2012\Anuario\INFO\
Fotos Pea\Pea 2012\psd
1,74 MB 08-10-2012 17:45:39
----------------------------------------------------------------------------------------------------------------------------------------------------FCO ENCINA 2012 016.jpg F:\TRABAJOS\Colegios\Francisco Encina\2012\Anuario\anuar
io 2012\Links 1,44 MB 31-10-2012 15:04:56
FCO ENCINA 2012 016.jpg F:\TRABAJOS\Colegios\Francisco Encina\2012\Anuario\ID\Ca
rpeta anuario\Links
1,44 MB 31-10-2012 15:04:56
FCO ENCINA 2012 016.jpg F:\TRABAJOS\Colegios\Francisco Encina\2012\Anuario\INFO\
hermanos menores\psd
1,44 MB 31-10-2012 15:04:56
----------------------------------------------------------------------------------------------------------------------------------------------------FCO ENCINA 2012 033.jpg F:\TRABAJOS\Colegios\Francisco Encina\2012\Anuario\anuar
io 2012\Links 1,76 MB 31-10-2012 15:13:47
FCO ENCINA 2012 033.jpg F:\TRABAJOS\Colegios\Francisco Encina\2012\Anuario\ID\Ca
rpeta anuario\Links
1,76 MB 31-10-2012 15:13:47
FCO ENCINA 2012 033.jpg F:\TRABAJOS\Colegios\Francisco Encina\2012\Anuario\INFO\
articulo\psd
1,76 MB 31-10-2012 15:13:47
----------------------------------------------------------------------------------------------------------------------------------------------------FCO ENCINA 2012 050.jpg F:\TRABAJOS\Colegios\Francisco Encina\2012\Anuario\anuar
io 2012\Links 1,35 MB 08-10-2012 17:44:13
FCO ENCINA 2012 050.jpg F:\TRABAJOS\Colegios\Francisco Encina\2012\Anuario\ID\Ca
rpeta anuario\Links
1,35 MB 08-10-2012 17:44:13
FCO ENCINA 2012 050.jpg F:\TRABAJOS\Colegios\Francisco Encina\2012\Anuario\INFO\
Fotos Pea\Pea 2012\psd
1,35 MB 08-10-2012 17:44:13
----------------------------------------------------------------------------------------------------------------------------------------------------FCO ENCINA 2012 108.jpg F:\TRABAJOS\Colegios\Francisco Encina\2012\Anuario\anuar
io 2012\Links 1,03 MB 06-11-2012 20:12:18
FCO ENCINA 2012 108.jpg F:\TRABAJOS\Colegios\Francisco Encina\2012\Anuario\ID\Ca
rpeta anuario\Links
1,03 MB 06-11-2012 20:12:18
FCO ENCINA 2012 108.jpg F:\TRABAJOS\Colegios\Francisco Encina\2012\Anuario\INFO\
Fotos Pea\pea 2012 -2\PSD
1,03 MB 06-11-2012 20:12:18
----------------------------------------------------------------------------------------------------------------------------------------------------FCO ENCINA 2012 118.jpg F:\TRABAJOS\Colegios\Francisco Encina\2012\Anuario\anuar
io 2012\Links 1,30 MB 10-10-2012 15:38:32
FCO ENCINA 2012 118.jpg F:\TRABAJOS\Colegios\Francisco Encina\2012\Anuario\ID\Ca
rpeta anuario\Links
1,30 MB 10-10-2012 15:38:32
FCO ENCINA 2012 118.jpg F:\TRABAJOS\Colegios\Francisco Encina\2012\Anuario\INFO\
Fotos Pea\pea 2012 -2\PSD
1,30 MB 10-10-2012 15:38:32
----------------------------------------------------------------------------------------------------------------------------------------------------FCO ENCINA 2012 208.jpg F:\TRABAJOS\Colegios\Francisco Encina\2012\Anuario\anuar
io 2012\Links 1,83 MB 30-10-2012 13:56:13
FCO ENCINA 2012 208.jpg F:\TRABAJOS\Colegios\Francisco Encina\2012\Anuario\ID\Ca
rpeta anuario\Links
1,83 MB 30-10-2012 13:56:13
FCO ENCINA 2012 208.jpg F:\TRABAJOS\Colegios\Francisco Encina\2012\Anuario\INFO\

vivencias\psd 1,83 MB 30-10-2012 13:56:13


----------------------------------------------------------------------------------------------------------------------------------------------------FCO ENCINA 2012 213.jpg F:\TRABAJOS\Colegios\Francisco Encina\2012\Anuario\anuar
io 2012\Links 1,68 MB 08-10-2012 17:46:23
FCO ENCINA 2012 213.jpg F:\TRABAJOS\Colegios\Francisco Encina\2012\Anuario\ID\Ca
rpeta anuario\Links
1,68 MB 08-10-2012 17:46:23
FCO ENCINA 2012 213.jpg F:\TRABAJOS\Colegios\Francisco Encina\2012\Anuario\INFO\
Fotos Pea\Pea 2012\psd
1,68 MB 08-10-2012 17:46:23
----------------------------------------------------------------------------------------------------------------------------------------------------Felice Gaschino copia.jpg
F:\TRABAJOS\Colegios\Francisco Encina\2012\Anuar
io\anuario 2012\Links 1,48 MB 05-10-2012 13:36:50
Felice Gaschino copia.jpg
F:\TRABAJOS\Colegios\Francisco Encina\2012\Anuar
io\Fotos\Fotos IV Medio nios\psd
1,48 MB 05-10-2012 13:36:50
Felice Gaschino copia.jpg
F:\TRABAJOS\Colegios\Francisco Encina\2012\Anuar
io\ID\Carpeta anuario\Links
1,48 MB 05-10-2012 13:36:50
----------------------------------------------------------------------------------------------------------------------------------------------------Felice Gaschino Ojeda copia.jpg F:\TRABAJOS\Colegios\Francisco Encina\2012\Anuar
io\anuario 2012\Links 1,91 MB 04-10-2012 19:56:49
Felice Gaschino Ojeda copia.jpg F:\TRABAJOS\Colegios\Francisco Encina\2012\Anuar
io\Fotos\001\IV medio\iv medio con nombre
1,91 MB 04-10-2012 19:56:49
Felice Gaschino Ojeda copia.jpg F:\TRABAJOS\Colegios\Francisco Encina\2012\Anuar
io\ID\Carpeta anuario\Links
1,91 MB 04-10-2012 19:56:49
----------------------------------------------------------------------------------------------------------------------------------------------------Francisca Martinez almeda copia.jpg
F:\TRABAJOS\Colegios\Francisco Encina\20
12\Anuario\anuario 2012\Links 1,00 MB 05-10-2012 13:32:35
Francisca Martinez almeda copia.jpg
F:\TRABAJOS\Colegios\Francisco Encina\20
12\Anuario\Fotos\Fotos IV Medio nios\psd
1,00 MB 05-10-2012 13:32:35
Francisca Martinez almeda copia.jpg
F:\TRABAJOS\Colegios\Francisco Encina\20
12\Anuario\ID\Carpeta anuario\Links
1,00 MB 05-10-2012 13:32:35
----------------------------------------------------------------------------------------------------------------------------------------------------francisca martnes olmedo.jpg F:\TRABAJOS\Colegios\Francisco Encina\2012\Anuar
io\anuario 2012\Links 1,37 MB 04-10-2012 16:41:04
francisca martnes olmedo.jpg F:\TRABAJOS\Colegios\Francisco Encina\2012\Anuar
io\Fotos\001\IV medio\iv medio con nombre
1,37 MB 04-10-2012 16:41:04
francisca martnes olmedo.jpg F:\TRABAJOS\Colegios\Francisco Encina\2012\Anuar
io\ID\Carpeta anuario\Links
1,37 MB 04-10-2012 16:41:04
----------------------------------------------------------------------------------------------------------------------------------------------------Francisca Sanchez M copia.jpg F:\TRABAJOS\Colegios\Francisco Encina\2012\Anuar
io\anuario 2012\Links 1,06 MB 05-10-2012 13:30:44
Francisca Sanchez M copia.jpg F:\TRABAJOS\Colegios\Francisco Encina\2012\Anuar
io\Fotos\Fotos IV Medio nios\psd
1,06 MB 05-10-2012 13:30:44
Francisca Sanchez M copia.jpg F:\TRABAJOS\Colegios\Francisco Encina\2012\Anuar
io\ID\Carpeta anuario\Links
1,06 MB 05-10-2012 13:30:44
----------------------------------------------------------------------------------------------------------------------------------------------------francisca snchez muoz copia.jpg
F:\TRABAJOS\Colegios\Francisco Encina\2012\Anuar
io\anuario 2012\Links 1,30 MB 04-10-2012 16:41:46
francisca snchez muoz copia.jpg
F:\TRABAJOS\Colegios\Francisco Encina\2012\Anuar
io\Fotos\001\IV medio\iv medio con nombre
1,30 MB 04-10-2012 16:41:46
francisca snchez muoz copia.jpg
F:\TRABAJOS\Colegios\Francisco Encina\2012\Anuar
io\ID\Carpeta anuario\Links
1,30 MB 04-10-2012 16:41:46
----------------------------------------------------------------------------------------------------------------------------------------------------Francisca Valdivia copia.jpg
F:\TRABAJOS\Colegios\Francisco Encina\2012\Anuar

io\anuario 2012\Links 1,27 MB 05-10-2012 13:27:40


Francisca Valdivia copia.jpg
F:\TRABAJOS\Colegios\Francisco Encina\2012\Anuar
io\Fotos\Fotos IV Medio nios\psd
1,27 MB 05-10-2012 13:27:40
Francisca Valdivia copia.jpg
F:\TRABAJOS\Colegios\Francisco Encina\2012\Anuar
io\ID\Carpeta anuario\Links
1,27 MB 05-10-2012 13:27:40
----------------------------------------------------------------------------------------------------------------------------------------------------francisca valdiva valds copia.jpg
F:\TRABAJOS\Colegios\Francisco Encina\2012\Anuar
io\anuario 2012\Links 1,50 MB 04-10-2012 16:41:45
francisca valdiva valds copia.jpg
F:\TRABAJOS\Colegios\Francisco Encina\2012\Anuar
io\Fotos\001\IV medio\iv medio con nombre
1,50 MB 04-10-2012 16:41:45
francisca valdiva valds copia.jpg
F:\TRABAJOS\Colegios\Francisco Encina\2012\Anuar
io\ID\Carpeta anuario\Links
1,50 MB 04-10-2012 16:41:45
----------------------------------------------------------------------------------------------------------------------------------------------------HERMANO6.jpg
F:\TRABAJOS\Colegios\Francisco Encina\2012\Anuario\anuario 2012\
Links 3,65 MB 18-10-2012 14:00:32
HERMANO6.jpg
F:\TRABAJOS\Colegios\Francisco Encina\2012\Anuario\ID\Carpeta an
uario\Links
3,65 MB 18-10-2012 14:00:32
HERMANO6.jpg
F:\TRABAJOS\Colegios\Francisco Encina\2012\Anuario\INFO\hermanos
menores\psd
3,65 MB 18-10-2012 14:00:32
----------------------------------------------------------------------------------------------------------------------------------------------------Ignacio Bugueo Crdova copia.jpg
F:\TRABAJOS\Colegios\Francisco Encina\2012\Anuar
io\anuario 2012\Links 1,91 MB 04-10-2012 16:41:43
Ignacio Bugueo Crdova copia.jpg
F:\TRABAJOS\Colegios\Francisco Encina\2012\Anuar
io\Fotos\001\IV medio\iv medio con nombre
1,91 MB 04-10-2012 16:41:43
Ignacio Bugueo Crdova copia.jpg
F:\TRABAJOS\Colegios\Francisco Encina\2012\Anuar
io\ID\Carpeta anuario\Links
1,91 MB 04-10-2012 16:41:43
----------------------------------------------------------------------------------------------------------------------------------------------------IMG_0048.jpg
F:\TRABAJOS\Colegios\Francisco Encina\2012\Anuario\anuario 2012\
Links 5,60 MB 06-11-2012 20:32:13
IMG_0048.jpg
F:\TRABAJOS\Colegios\Francisco Encina\2012\Anuario\ID\Carpeta an
uario\Links
5,60 MB 06-11-2012 20:32:13
IMG_0048.jpg
F:\TRABAJOS\Colegios\Francisco Encina\2012\Anuario\INFO\Da de la
Madre\psd
5,60 MB 06-11-2012 20:32:13
----------------------------------------------------------------------------------------------------------------------------------------------------IMG_0226.jpg
F:\TRABAJOS\Colegios\Francisco Encina\2012\Anuario\anuario 2012\
Links 5,63 MB 06-11-2012 20:37:23
IMG_0226.jpg
F:\TRABAJOS\Colegios\Francisco Encina\2012\Anuario\ID\Carpeta an
uario\Links
5,63 MB 06-11-2012 20:37:23
IMG_0226.jpg
F:\TRABAJOS\Colegios\Francisco Encina\2012\Anuario\INFO\Da de la
Madre\psd
5,63 MB 06-11-2012 20:37:23
----------------------------------------------------------------------------------------------------------------------------------------------------IMG_0490 color.jpg
F:\TRABAJOS\Colegios\Francisco Encina\2012\Anuario\anuar
io 2012\Links 14,2 MB 14-11-2012 15:44:44
IMG_0490 color.jpg
F:\TRABAJOS\Colegios\Francisco Encina\2012\Anuario\INFO\
vivencias\psd 14,2 MB 14-11-2012 15:44:44
----------------------------------------------------------------------------------------------------------------------------------------------------IMG_0561.jpg
F:\TRABAJOS\Colegios\Francisco Encina\2012\Anuario\anuario 2012\
Links 5,37 MB 30-10-2012 13:39:14
IMG_0561.jpg
F:\TRABAJOS\Colegios\Francisco Encina\2012\Anuario\ID\Carpeta an
uario\Links
5,37 MB 30-10-2012 13:39:14
IMG_0561.jpg
F:\TRABAJOS\Colegios\Francisco Encina\2012\Anuario\INFO\acto civ
ico\psd 5,37 MB 30-10-2012 13:39:14
--------------------------------------------------------------------------------

---------------------------------------------------------------------IMG_20120507_105832.jpg F:\TRABAJOS\Colegios\Francisco Encina\2012\Anuario\anuar


io 2012\Links 1,67 MB 30-10-2012 13:51:52
IMG_20120507_105832.jpg F:\TRABAJOS\Colegios\Francisco Encina\2012\Anuario\ID\Ca
rpeta anuario\Links
1,67 MB 30-10-2012 13:51:52
IMG_20120507_105832.jpg F:\TRABAJOS\Colegios\Francisco Encina\2012\Anuario\INFO\
Da del Alumno\psd
1,67 MB 30-10-2012 13:51:52
----------------------------------------------------------------------------------------------------------------------------------------------------iv medio (2) color.jpg F:\TRABAJOS\Colegios\Francisco Encina\2012\Anuario\anuar
io 2012\Links 6,94 MB 14-11-2012 15:55:11
iv medio (2) color.jpg F:\TRABAJOS\Colegios\Francisco Encina\2012\Anuario\INFO\
Cursos\IV Medio 6,94 MB 14-11-2012 15:55:11
----------------------------------------------------------------------------------------------------------------------------------------------------iv medio (5).jpg
F:\TRABAJOS\Colegios\Francisco Encina\2012\Anuario\anuar
io 2012\Links 2,63 MB 29-10-2012 12:45:46
iv medio (5).jpg
F:\TRABAJOS\Colegios\Francisco Encina\2012\Anuario\ID\Ca
rpeta anuario\Links
2,63 MB 29-10-2012 12:45:46
iv medio (5).jpg
F:\TRABAJOS\Colegios\Francisco Encina\2012\Anuario\INFO\
Cursos\IV Medio 2,63 MB 29-10-2012 12:45:46
----------------------------------------------------------------------------------------------------------------------------------------------------javier leiva olmos copia.jpg
F:\TRABAJOS\Colegios\Francisco Encina\2012\Anuar
io\anuario 2012\Links 1,74 MB 04-10-2012 16:41:41
javier leiva olmos copia.jpg
F:\TRABAJOS\Colegios\Francisco Encina\2012\Anuar
io\Fotos\001\IV medio\iv medio con nombre
1,74 MB 04-10-2012 16:41:41
javier leiva olmos copia.jpg
F:\TRABAJOS\Colegios\Francisco Encina\2012\Anuar
io\ID\Carpeta anuario\Links
1,74 MB 04-10-2012 16:41:41
----------------------------------------------------------------------------------------------------------------------------------------------------Javiera Segovia Olguin copia.jpg
F:\TRABAJOS\Colegios\Francisco Encina\20
12\Anuario\anuario 2012\Links 1,43 MB 04-10-2012 16:41:40
Javiera Segovia Olguin copia.jpg
F:\TRABAJOS\Colegios\Francisco Encina\20
12\Anuario\Fotos\001\IV medio\iv medio con nombre
1,43 MB 04-10-2012 16:41
:40
Javiera Segovia Olguin copia.jpg
F:\TRABAJOS\Colegios\Francisco Encina\20
12\Anuario\ID\Carpeta anuario\Links
1,43 MB 04-10-2012 16:41:40
----------------------------------------------------------------------------------------------------------------------------------------------------Javiera Segovia.jpg
F:\TRABAJOS\Colegios\Francisco Encina\2012\Anuario\anuar
io 2012\Links 1,08 MB 05-10-2012 12:51:38
Javiera Segovia.jpg
F:\TRABAJOS\Colegios\Francisco Encina\2012\Anuario\Fotos
\Fotos IV Medio nios\psd
1,08 MB 05-10-2012 12:51:38
Javiera Segovia.jpg
F:\TRABAJOS\Colegios\Francisco Encina\2012\Anuario\ID\Ca
rpeta anuario\Links
1,08 MB 05-10-2012 12:51:38
----------------------------------------------------------------------------------------------------------------------------------------------------jorge tabja espndola copia.jpg F:\TRABAJOS\Colegios\Francisco Encina\2012\Anuar
io\anuario 2012\Links 1,55 MB 04-10-2012 16:41:39
jorge tabja espndola copia.jpg F:\TRABAJOS\Colegios\Francisco Encina\2012\Anuar
io\Fotos\001\IV medio\iv medio con nombre
1,55 MB 04-10-2012 16:41:39
jorge tabja espndola copia.jpg F:\TRABAJOS\Colegios\Francisco Encina\2012\Anuar
io\ID\Carpeta anuario\Links
1,55 MB 04-10-2012 16:41:39
----------------------------------------------------------------------------------------------------------------------------------------------------mauro romero cern copia.jpg
F:\TRABAJOS\Colegios\Francisco Encina\2012\Anuar
io\anuario 2012\Links 1,43 MB 04-10-2012 16:41:37
mauro romero cern copia.jpg
F:\TRABAJOS\Colegios\Francisco Encina\2012\Anuar
io\Fotos\001\IV medio\iv medio con nombre
1,43 MB 04-10-2012 16:41:37

mauro romero cern copia.jpg


F:\TRABAJOS\Colegios\Francisco Encina\2012\Anuar
io\ID\Carpeta anuario\Links
1,43 MB 04-10-2012 16:41:37
----------------------------------------------------------------------------------------------------------------------------------------------------mei hu copia.jpg
F:\TRABAJOS\Colegios\Francisco Encina\2012\Anuario\anuar
io 2012\Links 1,19 MB 04-10-2012 16:41:36
mei hu copia.jpg
F:\TRABAJOS\Colegios\Francisco Encina\2012\Anuario\Fotos
\001\IV medio\iv medio con nombre
1,19 MB 04-10-2012 16:41:36
mei hu copia.jpg
F:\TRABAJOS\Colegios\Francisco Encina\2012\Anuario\ID\Ca
rpeta anuario\Links
1,19 MB 04-10-2012 16:41:36
----------------------------------------------------------------------------------------------------------------------------------------------------meiqin hu.jpg F:\TRABAJOS\Colegios\Francisco Encina\2012\Anuario\anuario 2012\
Links 1,33 MB 05-10-2012 20:37:51
meiqin hu.jpg F:\TRABAJOS\Colegios\Francisco Encina\2012\Anuario\Fotos\Fotos I
V Medio nios\psd
1,33 MB 05-10-2012 20:37:51
meiqin hu.jpg F:\TRABAJOS\Colegios\Francisco Encina\2012\Anuario\ID\Carpeta an
uario\Links
1,33 MB 05-10-2012 20:37:51
----------------------------------------------------------------------------------------------------------------------------------------------------NO-DOCENTES1.jpg
F:\TRABAJOS\Colegios\Francisco Encina\2012\Anuario\anuar
io 2012\Links 1,87 MB 22-10-2012 21:06:58
NO-DOCENTES1.jpg
F:\TRABAJOS\Colegios\Francisco Encina\2012\Anuario\ID\Ca
rpeta anuario\Links
1,87 MB 22-10-2012 21:06:58
NO-DOCENTES1.jpg
F:\TRABAJOS\Colegios\Francisco Encina\2012\Anuario\INFO\
estamentos no docente 1,87 MB 22-10-2012 21:06:58
----------------------------------------------------------------------------------------------------------------------------------------------------P1020350.jpg
F:\TRABAJOS\Colegios\Francisco Encina\2012\Anuario\anuario 2012\
Links 3,62 MB 12-11-2012 12:46:56
P1020350.jpg
F:\TRABAJOS\Colegios\Francisco Encina\2012\Anuario\INFO\iniciand
o un nuevo caminar\psd 3,62 MB 12-11-2012 12:46:56
----------------------------------------------------------------------------------------------------------------------------------------------------P1030246.jpg
F:\TRABAJOS\Colegios\Francisco Encina\2012\Anuario\anuario 2012\
Links 3,90 MB 17-10-2012 12:39:17
P1030246.jpg
F:\TRABAJOS\Colegios\Francisco Encina\2012\Anuario\ID\Carpeta an
uario\Links
3,90 MB 17-10-2012 12:39:17
P1030246.jpg
F:\TRABAJOS\Colegios\Francisco Encina\2012\Anuario\INFO\iniciand
o un nuevo caminar\psd 3,90 MB 17-10-2012 12:39:17
----------------------------------------------------------------------------------------------------------------------------------------------------P1030259.psd
F:\TRABAJOS\Colegios\Francisco Encina\2012\Anuario\anuario 2012\
Links 1,33 MB 17-10-2012 12:23:55
P1030259.psd
F:\TRABAJOS\Colegios\Francisco Encina\2012\Anuario\ID\Carpeta an
uario\Links
1,33 MB 17-10-2012 12:23:55
P1030259.psd
F:\TRABAJOS\Colegios\Francisco Encina\2012\Anuario\INFO\iniciand
o un nuevo caminar\psd 1,33 MB 17-10-2012 12:23:55
----------------------------------------------------------------------------------------------------------------------------------------------------P1030754.jpg
F:\TRABAJOS\Colegios\Francisco Encina\2012\Anuario\anuario 2012\
Links 4,84 MB 31-10-2012 15:12:30
P1030754.jpg
F:\TRABAJOS\Colegios\Francisco Encina\2012\Anuario\ID\Carpeta an
uario\Links
4,84 MB 31-10-2012 15:12:30
P1030754.jpg
F:\TRABAJOS\Colegios\Francisco Encina\2012\Anuario\INFO\articulo
\psd
4,84 MB 31-10-2012 15:12:30
----------------------------------------------------------------------------------------------------------------------------------------------------P1030938 color.jpg
F:\TRABAJOS\Colegios\Francisco Encina\2012\Anuario\anuar
io 2012\Links 11,7 MB 14-11-2012 15:45:03

P1030938 color.jpg
F:\TRABAJOS\Colegios\Francisco Encina\2012\Anuario\INFO\
vivencias\psd 11,7 MB 14-11-2012 15:45:03
----------------------------------------------------------------------------------------------------------------------------------------------------P1030978 color.jpg
F:\TRABAJOS\Colegios\Francisco Encina\2012\Anuario\anuar
io 2012\Links 13,3 MB 14-11-2012 15:44:26
P1030978 color.jpg
F:\TRABAJOS\Colegios\Francisco Encina\2012\Anuario\INFO\
vivencias\psd 13,3 MB 14-11-2012 15:44:26
----------------------------------------------------------------------------------------------------------------------------------------------------P1040083.jpg
F:\TRABAJOS\Colegios\Francisco Encina\2012\Anuario\anuario 2012\
Links 5,05 MB 30-10-2012 13:39:52
P1040083.jpg
F:\TRABAJOS\Colegios\Francisco Encina\2012\Anuario\ID\Carpeta an
uario\Links
5,05 MB 30-10-2012 13:39:52
P1040083.jpg
F:\TRABAJOS\Colegios\Francisco Encina\2012\Anuario\INFO\acto civ
ico\psd 5,05 MB 30-10-2012 13:39:52
----------------------------------------------------------------------------------------------------------------------------------------------------P1040285 color.jpg
F:\TRABAJOS\Colegios\Francisco Encina\2012\Anuario\anuar
io 2012\Links 1,02 MB 14-11-2012 15:41:38
P1040285 color.jpg
F:\TRABAJOS\Colegios\Francisco Encina\2012\Anuario\INFO\
Fotos aniversario\psd 1,02 MB 14-11-2012 15:41:38
----------------------------------------------------------------------------------------------------------------------------------------------------P1040299 color.jpg
F:\TRABAJOS\Colegios\Francisco Encina\2012\Anuario\anuar
io 2012\Links 1,04 MB 14-11-2012 15:41:20
P1040299 color.jpg
F:\TRABAJOS\Colegios\Francisco Encina\2012\Anuario\INFO\
Fotos aniversario\psd 1,04 MB 14-11-2012 15:41:20
----------------------------------------------------------------------------------------------------------------------------------------------------P1040519.jpg
F:\TRABAJOS\Colegios\Francisco Encina\2012\Anuario\anuario 2012\
Links 4,71 MB 30-10-2012 14:01:28
P1040519.jpg
F:\TRABAJOS\Colegios\Francisco Encina\2012\Anuario\ID\Carpeta an
uario\Links
4,71 MB 30-10-2012 14:01:28
P1040519.jpg
F:\TRABAJOS\Colegios\Francisco Encina\2012\Anuario\INFO\vivencia
s\psd 4,71 MB 30-10-2012 14:01:28
----------------------------------------------------------------------------------------------------------------------------------------------------P1040547.jpg
F:\TRABAJOS\Colegios\Francisco Encina\2012\Anuario\anuario 2012\
Links 3,81 MB 22-10-2012 16:50:35
P1040547.jpg
F:\TRABAJOS\Colegios\Francisco Encina\2012\Anuario\ID\Carpeta an
uario\Links
3,81 MB 22-10-2012 16:50:35
P1040547.jpg
F:\TRABAJOS\Colegios\Francisco Encina\2012\Anuario\INFO\dia del
profesor\psd
3,81 MB 22-10-2012 16:50:35
----------------------------------------------------------------------------------------------------------------------------------------------------PA170015.jpg
F:\TRABAJOS\Colegios\Francisco Encina\2012\Anuario\anuario 2012\
Links 1,48 MB 22-10-2012 21:29:59
PA170015.jpg
F:\TRABAJOS\Colegios\Francisco Encina\2012\Anuario\ID\Carpeta an
uario\Links
1,48 MB 22-10-2012 21:29:59
PA170015.jpg
F:\TRABAJOS\Colegios\Francisco Encina\2012\Anuario\INFO\talleres
\psd
1,48 MB 22-10-2012 21:29:59
----------------------------------------------------------------------------------------------------------------------------------------------------PA170016.jpg
F:\TRABAJOS\Colegios\Francisco Encina\2012\Anuario\anuario 2012\
Links 1,36 MB 22-10-2012 21:29:08
PA170016.jpg
F:\TRABAJOS\Colegios\Francisco Encina\2012\Anuario\ID\Carpeta an
uario\Links
1,36 MB 22-10-2012 21:29:08
PA170016.jpg
F:\TRABAJOS\Colegios\Francisco Encina\2012\Anuario\INFO\talleres
\psd
1,36 MB 22-10-2012 21:29:08

----------------------------------------------------------------------------------------------------------------------------------------------------PA190036.jpg
F:\TRABAJOS\Colegios\Francisco Encina\2012\Anuario\anuario 2012\
Links 2,32 MB 22-10-2012 16:54:25
PA190036.jpg
F:\TRABAJOS\Colegios\Francisco Encina\2012\Anuario\ID\Carpeta an
uario\Links
2,32 MB 22-10-2012 16:54:25
PA190036.jpg
F:\TRABAJOS\Colegios\Francisco Encina\2012\Anuario\INFO\dia del
profesor\psd
2,32 MB 22-10-2012 16:54:25
----------------------------------------------------------------------------------------------------------------------------------------------------PA190038.jpg
F:\TRABAJOS\Colegios\Francisco Encina\2012\Anuario\anuario 2012\
Links 1,91 MB 22-10-2012 16:36:52
PA190038.jpg
F:\TRABAJOS\Colegios\Francisco Encina\2012\Anuario\ID\Carpeta an
uario\Links
1,91 MB 22-10-2012 16:36:52
PA190038.jpg
F:\TRABAJOS\Colegios\Francisco Encina\2012\Anuario\INFO\dia del
profesor\psd
1,91 MB 22-10-2012 16:36:52
----------------------------------------------------------------------------------------------------------------------------------------------------PA220236.jpg
F:\TRABAJOS\Colegios\Francisco Encina\2012\Anuario\anuario 2012\
Links 3,33 MB 31-10-2012 14:46:14
PA220236.jpg
F:\TRABAJOS\Colegios\Francisco Encina\2012\Anuario\ID\Carpeta an
uario\Links
3,33 MB 31-10-2012 14:46:14
PA220236.jpg
F:\TRABAJOS\Colegios\Francisco Encina\2012\Anuario\INFO\centro d
e alumnos\psd 3,33 MB 31-10-2012 14:46:14
----------------------------------------------------------------------------------------------------------------------------------------------------PA270245.jpg
F:\TRABAJOS\Colegios\Francisco Encina\2012\Anuario\anuario 2012\
Links 2,55 MB 29-10-2012 13:24:50
PA270245.jpg
F:\TRABAJOS\Colegios\Francisco Encina\2012\Anuario\ID\Carpeta an
uario\Links
2,55 MB 29-10-2012 13:24:50
PA270245.jpg
F:\TRABAJOS\Colegios\Francisco Encina\2012\Anuario\INFO\olimpiad
as facsimil\psd 2,55 MB 29-10-2012 13:24:50
----------------------------------------------------------------------------------------------------------------------------------------------------PA270249.jpg
F:\TRABAJOS\Colegios\Francisco Encina\2012\Anuario\anuario 2012\
Links 2,73 MB 29-10-2012 13:41:34
PA270249.jpg
F:\TRABAJOS\Colegios\Francisco Encina\2012\Anuario\ID\Carpeta an
uario\Links
2,73 MB 29-10-2012 13:41:34
PA270249.jpg
F:\TRABAJOS\Colegios\Francisco Encina\2012\Anuario\INFO\olimpiad
as facsimil\psd 2,73 MB 29-10-2012 13:41:34
----------------------------------------------------------------------------------------------------------------------------------------------------PREMIACION 1 SEMESTRE 094.jpg F:\TRABAJOS\Colegios\Francisco Encina\2012\Anuar
io\anuario 2012\Links 1,53 MB 30-10-2012 13:40:44
PREMIACION 1 SEMESTRE 094.jpg F:\TRABAJOS\Colegios\Francisco Encina\2012\Anuar
io\ID\Carpeta anuario\Links
1,53 MB 30-10-2012 13:40:44
PREMIACION 1 SEMESTRE 094.jpg F:\TRABAJOS\Colegios\Francisco Encina\2012\Anuar
io\INFO\acto civico\psd 1,53 MB 30-10-2012 13:40:44
----------------------------------------------------------------------------------------------------------------------------------------------------primer medio (1) gris.jpg
F:\TRABAJOS\Colegios\Francisco Encina\2012\Anuar
io\anuario 2012\Links 4,26 MB 04-10-2012 13:34:29
primer medio (1) gris.jpg
F:\TRABAJOS\Colegios\Francisco Encina\2012\Anuar
io\ID\Carpeta anuario\Links
4,26 MB 04-10-2012 13:34:29
primer medio (1) gris.jpg
F:\TRABAJOS\Colegios\Francisco Encina\2012\Anuar
io\INFO\Cursos\I Medio 4,26 MB 04-10-2012 13:34:29
----------------------------------------------------------------------------------------------------------------------------------------------------profesores gris.jpg
F:\TRABAJOS\Colegios\Francisco Encina\2012\Anuario\anuar
io 2012\Links 2,70 MB 08-10-2012 12:52:52

profesores gris.jpg
F:\TRABAJOS\Colegios\Francisco Encina\2012\Anuario\Fotos
\001\IV medio\iv medio con nombre
2,70 MB 08-10-2012 12:52:52
profesores gris.jpg
F:\TRABAJOS\Colegios\Francisco Encina\2012\Anuario\ID\Ca
rpeta anuario\Links
2,70 MB 08-10-2012 12:52:52
----------------------------------------------------------------------------------------------------------------------------------------------------SEPTIMO gris.jpg
F:\TRABAJOS\Colegios\Francisco Encina\2012\Anuario\anuar
io 2012\Links 4,21 MB 12-11-2012 12:39:20
SEPTIMO gris.jpg
F:\TRABAJOS\Colegios\Francisco Encina\2012\Anuario\INFO\
Cursos 4,21 MB 12-11-2012 12:39:20
----------------------------------------------------------------------------------------------------------------------------------------------------simn tagle valenzuela copia.jpg
F:\TRABAJOS\Colegios\Francisco Encina\2012\Anuar
io\anuario 2012\Links 1,30 MB 04-10-2012 16:53:06
simn tagle valenzuela copia.jpg
F:\TRABAJOS\Colegios\Francisco Encina\2012\Anuar
io\Fotos\001\IV medio\iv medio con nombre
1,30 MB 04-10-2012 16:53:06
simn tagle valenzuela copia.jpg
F:\TRABAJOS\Colegios\Francisco Encina\2012\Anuar
io\ID\Carpeta anuario\Links
1,30 MB 04-10-2012 16:53:06
----------------------------------------------------------------------------------------------------------------------------------------------------TALLER1.jpg
F:\TRABAJOS\Colegios\Francisco Encina\2012\Anuario\anuario 2012\
Links 1,73 MB 31-10-2012 14:56:39
TALLER1.jpg
F:\TRABAJOS\Colegios\Francisco Encina\2012\Anuario\ID\Carpeta an
uario\Links
1,73 MB 31-10-2012 14:56:39
TALLER1.jpg
F:\TRABAJOS\Colegios\Francisco Encina\2012\Anuario\INFO\talleres
\psd
1,73 MB 31-10-2012 14:56:39
----------------------------------------------------------------------------------------------------------------------------------------------------VIVENCIA6.jpg F:\TRABAJOS\Colegios\Francisco Encina\2012\Anuario\anuario 2012\
Links 2,69 MB 18-10-2012 14:55:43
VIVENCIA6.jpg F:\TRABAJOS\Colegios\Francisco Encina\2012\Anuario\ID\Carpeta an
uario\Links
2,69 MB 18-10-2012 14:55:43
VIVENCIA6.jpg F:\TRABAJOS\Colegios\Francisco Encina\2012\Anuario\INFO\vivencia
s\psd 2,69 MB 18-10-2012 14:55:43
----------------------------------------------------------------------------------------------------------------------------------------------------VIVENCIA9A.jpg F:\TRABAJOS\Colegios\Francisco Encina\2012\Anuario\anuario 2012\
Links 2,29 MB 18-10-2012 15:03:48
VIVENCIA9A.jpg F:\TRABAJOS\Colegios\Francisco Encina\2012\Anuario\ID\Carpeta an
uario\Links
2,29 MB 18-10-2012 15:03:48
VIVENCIA9A.jpg F:\TRABAJOS\Colegios\Francisco Encina\2012\Anuario\INFO\vivencia
s\psd 2,29 MB 18-10-2012 15:03:48
----------------------------------------------------------------------------------------------------------------------------------------------------7 basico (1) gris.jpg F:\TRABAJOS\Colegios\Francisco Encina\2012\Anuario\ID\Ca
rpeta anuario\Links
4,29 MB 29-10-2012 12:36:08
7 basico (1) gris.jpg F:\TRABAJOS\Colegios\Francisco Encina\2012\Anuario\INFO\
Cursos\7mo Basico
4,29 MB 29-10-2012 12:36:08
----------------------------------------------------------------------------------------------------------------------------------------------------directora 2.jpg F:\TRABAJOS\Colegios\Francisco Encina\2012\Anuario\ID\Carpeta an
uario\Links
3,31 MB 07-11-2012 16:06:12
directora 2.jpg F:\TRABAJOS\Colegios\Francisco Encina\2012\Anuario\INFO\Nuestro
equipo profesional\psd 3,31 MB 07-11-2012 16:06:12
----------------------------------------------------------------------------------------------------------------------------------------------------FCO ENCINA 2012 143.jpg F:\TRABAJOS\Colegios\Francisco Encina\2012\Anuario\ID\Ca
rpeta anuario\Links
1,48 MB 08-10-2012 17:38:33
FCO ENCINA 2012 143.jpg F:\TRABAJOS\Colegios\Francisco Encina\2012\Anuario\INFO\
Fotos Pea\Pea 2012\psd
1,48 MB 08-10-2012 17:38:33

----------------------------------------------------------------------------------------------------------------------------------------------------FCO ENCINA 2012 166.psd F:\TRABAJOS\Colegios\Francisco Encina\2012\Anuario\ID\Ca


rpeta anuario\Links
11,7 MB 08-10-2012 17:35:33
FCO ENCINA 2012 166.psd F:\TRABAJOS\Colegios\Francisco Encina\2012\Anuario\INFO\
Fotos Pea\Pea 2012\psd
11,7 MB 08-10-2012 17:35:33
----------------------------------------------------------------------------------------------------------------------------------------------------globos.psd
F:\TRABAJOS\Colegios\Francisco Encina\2012\Anuario\ID\Carpeta an
uario\Links
1,49 MB 30-10-2012 15:01:31
globos.psd
F:\TRABAJOS\Colegios\Francisco Encina\2012\Anuario\jpg para tema
s
1,49 MB 30-10-2012 15:01:31
----------------------------------------------------------------------------------------------------------------------------------------------------IMG_0490.jpg
F:\TRABAJOS\Colegios\Francisco Encina\2012\Anuario\ID\Carpeta an
uario\Links
5,49 MB 30-10-2012 13:57:54
IMG_0490.jpg
F:\TRABAJOS\Colegios\Francisco Encina\2012\Anuario\INFO\vivencia
s\psd 5,49 MB 30-10-2012 13:57:54
----------------------------------------------------------------------------------------------------------------------------------------------------P1030262.psd
F:\TRABAJOS\Colegios\Francisco Encina\2012\Anuario\ID\Carpeta an
uario\Links
18,4 MB 17-10-2012 12:45:29
P1030262.psd
F:\TRABAJOS\Colegios\Francisco Encina\2012\Anuario\INFO\iniciand
o un nuevo caminar\psd 18,4 MB 17-10-2012 12:45:29
----------------------------------------------------------------------------------------------------------------------------------------------------P1030938.jpg
F:\TRABAJOS\Colegios\Francisco Encina\2012\Anuario\ID\Carpeta an
uario\Links
4,59 MB 30-10-2012 13:58:52
P1030938.jpg
F:\TRABAJOS\Colegios\Francisco Encina\2012\Anuario\INFO\vivencia
s\psd 4,59 MB 30-10-2012 13:58:52
----------------------------------------------------------------------------------------------------------------------------------------------------P1030978.jpg
F:\TRABAJOS\Colegios\Francisco Encina\2012\Anuario\ID\Carpeta an
uario\Links
5,57 MB 30-10-2012 14:00:17
P1030978.jpg
F:\TRABAJOS\Colegios\Francisco Encina\2012\Anuario\INFO\vivencia
s\psd 5,57 MB 30-10-2012 14:00:17
----------------------------------------------------------------------------------------------------------------------------------------------------PROFES-BASICA.jpg
F:\TRABAJOS\Colegios\Francisco Encina\2012\Anuario\ID\Ca
rpeta anuario\Links
3,85 MB 31-10-2012 12:18:43
PROFES-BASICA.jpg
F:\TRABAJOS\Colegios\Francisco Encina\2012\Anuario\INFO\
profesores basica\psd 3,85 MB 31-10-2012 12:18:43
----------------------------------------------------------------------------------------------------------------------------------------------------VIVENCIA9B.jpg F:\TRABAJOS\Colegios\Francisco Encina\2012\Anuario\ID\Carpeta an
uario\Links
3,19 MB 18-10-2012 14:46:25
VIVENCIA9B.jpg F:\TRABAJOS\Colegios\Francisco Encina\2012\Anuario\INFO\vivencia
s\psd 3,19 MB 18-10-2012 14:46:25
----------------------------------------------------------------------------------------------------------------------------------------------------A FE23.jpg
F:\TRABAJOS\Colegios\Francisco Encina\2012\Anuario\Montaje\JPG
16,7 MB 15-11-2012 15:05:20
A FE23.jpg
F:\TRABAJOS\Colegios\Francisco Encina\2012\Anuario\Montaje\JPG\N
ueva carpeta
16,7 MB 15-11-2012 15:05:20
----------------------------------------------------------------------------------------------------------------------------------------------------A FE4.jpg
F:\TRABAJOS\Colegios\Francisco Encina\2012\Anuario\Montaje\JPG
13,0 MB 15-11-2012 15:03:18
A FE4.jpg
F:\TRABAJOS\Colegios\Francisco Encina\2012\Anuario\Montaje\JPG\N
ueva carpeta
13,0 MB 15-11-2012 15:03:18

----------------------------------------------------------------------------------------------------------------------------------------------------A FE58.jpg
F:\TRABAJOS\Colegios\Francisco Encina\2012\Anuario\Montaje\JPG
17,5 MB 15-11-2012 15:09:22
A FE58.jpg
F:\TRABAJOS\Colegios\Francisco Encina\2012\Anuario\Montaje\JPG\N
ueva carpeta
17,5 MB 15-11-2012 15:09:22
----------------------------------------------------------------------------------------------------------------------------------------------------A FE59.jpg
F:\TRABAJOS\Colegios\Francisco Encina\2012\Anuario\Montaje\JPG
18,2 MB 15-11-2012 15:09:31
A FE59.jpg
F:\TRABAJOS\Colegios\Francisco Encina\2012\Anuario\Montaje\JPG\N
ueva carpeta
18,2 MB 15-11-2012 15:09:31
----------------------------------------------------------------------------------------------------------------------------------------------------ENTRADA GIMNASIO.jpg
F:\TRABAJOS\Colegios\Francisco Encina\2012\diptico 2012
2,01 MB 24-06-2011 14:02:27
ENTRADA GIMNASIO.jpg
F:\TRABAJOS\Colegios\Francisco Encina\2013\Diptico\Image
nes
2,01 MB 24-06-2011 14:02:27
----------------------------------------------------------------------------------------------------------------------------------------------------P1030081.jpg
F:\TRABAJOS\Colegios\Francisco Encina\2012\diptico 2012 1,87 MB
24-06-2011 14:07:42
P1030081.jpg
F:\TRABAJOS\Colegios\Francisco Encina\2013\carpeta colegio 2013\
fotos 1,87 MB 24-06-2011 14:07:42
----------------------------------------------------------------------------------------------------------------------------------------------------P8210026.jpg
F:\TRABAJOS\Colegios\Francisco Encina\2012\diptico 2012 1,56 MB
24-06-2011 13:35:35
P8210026.jpg
F:\TRABAJOS\Colegios\Francisco Encina\2013\carpeta colegio 2013\
fotos 1,56 MB 24-06-2011 13:35:35
----------------------------------------------------------------------------------------------------------------------------------------------------IMG_1722.JPG
F:\TRABAJOS\Colegios\Francisco Encina\2013\Agenda\Fotos\Gris
1,92 MB 10-05-2013 18:25:48
IMG_1722.JPG
F:\TRABAJOS\Colegios\Francisco Encina\2013\Carpeta\fotos
1,92 MB 10-05-2013 18:25:48
IMG_1722.JPG
F:\TRABAJOS\Colegios\Francisco Encina\Papeleria\Carpeta\fotos
1,92 MB 10-05-2013 18:25:48
----------------------------------------------------------------------------------------------------------------------------------------------------IMG_1724.JPG
F:\TRABAJOS\Colegios\Francisco Encina\2013\Agenda\Fotos\Gris
1,54 MB 08-03-2013 16:07:12
IMG_1724.JPG
F:\TRABAJOS\Colegios\Francisco Encina\2013\Carpeta\fotos
1,54 MB 08-03-2013 16:07:12
IMG_1724.JPG
F:\TRABAJOS\Colegios\Francisco Encina\Papeleria\Carpeta\fotos
1,54 MB 08-03-2013 16:07:12
----------------------------------------------------------------------------------------------------------------------------------------------------IMG_9898.JPG
F:\TRABAJOS\Colegios\Francisco Encina\2013\Agenda\Fotos\Gris
1,58 MB 27-02-2013 18:47:23
IMG_9898.JPG
F:\TRABAJOS\Colegios\Francisco Encina\2013\Carpeta\fotos
1,58 MB 27-02-2013 18:47:23
IMG_9898.JPG
F:\TRABAJOS\Colegios\Francisco Encina\Papeleria\Carpeta\fotos
1,58 MB 27-02-2013 18:47:23
----------------------------------------------------------------------------------------------------------------------------------------------------IMG_9933.JPG
F:\TRABAJOS\Colegios\Francisco Encina\2013\Agenda\Fotos\Gris
1,68 MB 27-02-2013 18:37:04
IMG_9933.JPG
F:\TRABAJOS\Colegios\Francisco Encina\2013\Carpeta\fotos
1,68 MB 27-02-2013 18:37:04

IMG_9933.JPG
F:\TRABAJOS\Colegios\Francisco Encina\Papeleria\Carpeta\fotos
1,68 MB 27-02-2013 18:37:04
----------------------------------------------------------------------------------------------------------------------------------------------------P1040604.JPG
F:\TRABAJOS\Colegios\Francisco Encina\2013\Agenda\Fotos\Gris
4,75 MB 27-02-2013 18:38:57
P1040604.JPG
F:\TRABAJOS\Colegios\Francisco Encina\2013\Carpeta\fotos
4,75 MB 27-02-2013 18:38:57
P1040604.JPG
F:\TRABAJOS\Colegios\Francisco Encina\Papeleria\Carpeta\fotos
4,75 MB 27-02-2013 18:38:57
----------------------------------------------------------------------------------------------------------------------------------------------------Adolfo Oyarzn b-n.psd F:\TRABAJOS\Colegios\Francisco Encina\2013\Anuario\Carpe
ta anuario FE\Links
2,14 MB 26-10-2013 20:14:30
Adolfo Oyarzn b-n.psd F:\TRABAJOS\Colegios\Francisco Encina\2013\ANUARIO FE 20
13\FOTOS DE NIO 4 MEDIO
2,14 MB 26-10-2013 20:14:30
----------------------------------------------------------------------------------------------------------------------------------------------------Antonia Bouffanais b-n.psd
F:\TRABAJOS\Colegios\Francisco Encina\2013\Anuar
io\Carpeta anuario FE\Links
3,06 MB 26-10-2013 20:17:04
Antonia Bouffanais b-n.psd
F:\TRABAJOS\Colegios\Francisco Encina\2013\ANUAR
IO FE 2013\FOTOS DE NIO 4 MEDIO
3,06 MB 26-10-2013 20:17:04
----------------------------------------------------------------------------------------------------------------------------------------------------Benjamin Ramos b-n.psd F:\TRABAJOS\Colegios\Francisco Encina\2013\Anuario\Carpe
ta anuario FE\Links
1,38 MB 26-10-2013 20:18:04
Benjamin Ramos b-n.psd F:\TRABAJOS\Colegios\Francisco Encina\2013\ANUARIO FE 20
13\FOTOS DE NIO 4 MEDIO
1,38 MB 26-10-2013 20:18:04
----------------------------------------------------------------------------------------------------------------------------------------------------David Leiva b-n.psd
F:\TRABAJOS\Colegios\Francisco Encina\2013\Anuario\Carpe
ta anuario FE\Links
1,63 MB 26-10-2013 20:23:56
David Leiva b-n.psd
F:\TRABAJOS\Colegios\Francisco Encina\2013\ANUARIO FE 20
13\FOTOS DE NIO 4 MEDIO
1,63 MB 26-10-2013 20:23:56
----------------------------------------------------------------------------------------------------------------------------------------------------directora y nios.JPG F:\TRABAJOS\Colegios\Francisco Encina\2013\Anuario\Carpe
ta anuario FE\Links
2,77 MB 05-11-2013 21:55:24
directora y nios.JPG F:\TRABAJOS\Colegios\Francisco Encina\2013\ANUARIO FE 20
13\INICIANDO UN NVO CAMINAR
2,77 MB 05-11-2013 21:55:24
----------------------------------------------------------------------------------------------------------------------------------------------------ESCOBILLON CUENTO.psd F:\TRABAJOS\Colegios\Francisco Encina\2013\Anuario\Carpe
ta anuario FE\Links
15,9 MB 29-10-2013 2:09:54
ESCOBILLON CUENTO.psd F:\TRABAJOS\Colegios\Francisco Encina\2013\ANUARIO FE 20
13\DIBUJOS
15,9 MB 29-10-2013 2:09:54
----------------------------------------------------------------------------------------------------------------------------------------------------exalumnos B-N.jpg
F:\TRABAJOS\Colegios\Francisco Encina\2013\Anuario\Carpe
ta anuario FE\Links
1,03 MB 05-11-2013 18:19:46
exalumnos B-N.jpg
F:\TRABAJOS\Colegios\Francisco Encina\2013\ANUARIO FE 20
13\EX ALUMNOS 1,03 MB 05-11-2013 18:19:46
----------------------------------------------------------------------------------------------------------------------------------------------------Gianco Novella b-n.psd F:\TRABAJOS\Colegios\Francisco Encina\2013\Anuario\Carpe
ta anuario FE\Links
1,59 MB 26-10-2013 20:25:46
Gianco Novella b-n.psd F:\TRABAJOS\Colegios\Francisco Encina\2013\ANUARIO FE 20
13\FOTOS DE NIO 4 MEDIO
1,59 MB 26-10-2013 20:25:46
-----------------------------------------------------------------------------------------------------------------------------------------------------

Leonardo Pino b-n.psd F:\TRABAJOS\Colegios\Francisco Encina\2013\Anuario\Carpe


ta anuario FE\Links
1,36 MB 26-10-2013 20:29:04
Leonardo Pino b-n.psd F:\TRABAJOS\Colegios\Francisco Encina\2013\ANUARIO FE 20
13\FOTOS DE NIO 4 MEDIO
1,36 MB 26-10-2013 20:29:04
----------------------------------------------------------------------------------------------------------------------------------------------------Mariana Escudero b-n.psd
F:\TRABAJOS\Colegios\Francisco Encina\2013\Anuar
io\Carpeta anuario FE\Links
1,19 MB 26-10-2013 20:51:30
Mariana Escudero b-n.psd
F:\TRABAJOS\Colegios\Francisco Encina\2013\ANUAR
IO FE 2013\FOTOS DE NIO 4 MEDIO
1,19 MB 26-10-2013 20:51:30
----------------------------------------------------------------------------------------------------------------------------------------------------Mauricio Acua b-n.psd F:\TRABAJOS\Colegios\Francisco Encina\2013\Anuario\Carpe
ta anuario FE\Links
1,28 MB 26-10-2013 20:53:34
Mauricio Acua b-n.psd F:\TRABAJOS\Colegios\Francisco Encina\2013\ANUARIO FE 20
13\FOTOS DE NIO 4 MEDIO
1,28 MB 26-10-2013 20:53:34
----------------------------------------------------------------------------------------------------------------------------------------------------Muriel Yaez b-n.psd
F:\TRABAJOS\Colegios\Francisco Encina\2013\Anuario\Carpe
ta anuario FE\Links
1,14 MB 26-10-2013 20:55:24
Muriel Yaez b-n.psd
F:\TRABAJOS\Colegios\Francisco Encina\2013\ANUARIO FE 20
13\FOTOS DE NIO 4 MEDIO
1,14 MB 26-10-2013 20:55:24
----------------------------------------------------------------------------------------------------------------------------------------------------Steffi Azolas b-n.psd F:\TRABAJOS\Colegios\Francisco Encina\2013\Anuario\Carpe
ta anuario FE\Links
1,30 MB 26-10-2013 20:59:10
Steffi Azolas b-n.psd F:\TRABAJOS\Colegios\Francisco Encina\2013\ANUARIO FE 20
13\FOTOS DE NIO 4 MEDIO
1,30 MB 26-10-2013 20:59:10
----------------------------------------------------------------------------------------------------------------------------------------------------timmy.psd
F:\TRABAJOS\Colegios\Francisco Encina\2013\Anuario\Carpeta anuar
io FE\Links
1,68 MB 04-11-2013 16:16:12
timmy.psd
F:\TRABAJOS\Colegios\Francisco Encina\2013\ANUARIO FE 2013\DIBUJ
OS
1,68 MB 04-11-2013 16:16:12
----------------------------------------------------------------------------------------------------------------------------------------------------Valentina Melis b-n.psd F:\TRABAJOS\Colegios\Francisco Encina\2013\Anuario\Carpe
ta anuario FE\Links
1,69 MB 26-10-2013 21:01:02
Valentina Melis b-n.psd F:\TRABAJOS\Colegios\Francisco Encina\2013\ANUARIO FE 20
13\FOTOS DE NIO 4 MEDIO
1,69 MB 26-10-2013 21:01:02
----------------------------------------------------------------------------------------------------------------------------------------------------IMG_0562.JPG
F:\TRABAJOS\Colegios\Francisco Encina\2013\ANUARIO FE 2013\anive
rsario 2013
3,16 MB 13-09-2012 12:58:04
IMG_0562.JPG
F:\TRABAJOS\Colegios\Francisco Encina\2014\Anuario\aniversario 2
013
3,16 MB 13-09-2012 12:58:04
----------------------------------------------------------------------------------------------------------------------------------------------------IMG_0571.JPG
F:\TRABAJOS\Colegios\Francisco Encina\2013\ANUARIO FE 2013\anive
rsario 2013
3,58 MB 13-09-2012 13:29:54
IMG_0571.JPG
F:\TRABAJOS\Colegios\Francisco Encina\2014\Anuario\aniversario 2
013
3,58 MB 13-09-2012 13:29:54
----------------------------------------------------------------------------------------------------------------------------------------------------IMG_0603.JPG
F:\TRABAJOS\Colegios\Francisco Encina\2013\ANUARIO FE 2013\anive
rsario 2013
3,33 MB 13-09-2012 18:30:40
IMG_0603.JPG
F:\TRABAJOS\Colegios\Francisco Encina\2014\Anuario\aniversario 2
013
3,33 MB 13-09-2012 18:30:40
-----------------------------------------------------------------------------------------------------------------------------------------------------

IMG_0611.JPG
F:\TRABAJOS\Colegios\Francisco Encina\2013\ANUARIO FE 2013\anive
rsario 2013
3,17 MB 13-09-2012 18:33:10
IMG_0611.JPG
F:\TRABAJOS\Colegios\Francisco Encina\2014\Anuario\aniversario 2
013
3,17 MB 13-09-2012 18:33:10
----------------------------------------------------------------------------------------------------------------------------------------------------IMG_0620.JPG
F:\TRABAJOS\Colegios\Francisco Encina\2013\ANUARIO FE 2013\anive
rsario 2013
2,98 MB 13-09-2012 18:36:26
IMG_0620.JPG
F:\TRABAJOS\Colegios\Francisco Encina\2014\Anuario\aniversario 2
013
2,98 MB 13-09-2012 18:36:26
----------------------------------------------------------------------------------------------------------------------------------------------------IMG_0623.JPG
F:\TRABAJOS\Colegios\Francisco Encina\2013\ANUARIO FE 2013\anive
rsario 2013
3,80 MB 13-09-2012 18:37:24
IMG_0623.JPG
F:\TRABAJOS\Colegios\Francisco Encina\2014\Anuario\aniversario 2
013
3,80 MB 13-09-2012 18:37:24
----------------------------------------------------------------------------------------------------------------------------------------------------IMG_0667.JPG
F:\TRABAJOS\Colegios\Francisco Encina\2013\ANUARIO FE 2013\anive
rsario 2013
2,37 MB 14-09-2012 0:03:24
IMG_0667.JPG
F:\TRABAJOS\Colegios\Francisco Encina\2014\Anuario\aniversario 2
013
2,37 MB 14-09-2012 0:03:24
----------------------------------------------------------------------------------------------------------------------------------------------------IMG_0676.JPG
F:\TRABAJOS\Colegios\Francisco Encina\2013\ANUARIO FE 2013\anive
rsario 2013
2,45 MB 14-09-2012 0:12:46
IMG_0676.JPG
F:\TRABAJOS\Colegios\Francisco Encina\2013\ANUARIO FE 2013\viven
cias
2,45 MB 14-09-2012 0:12:46
IMG_0676.JPG
F:\TRABAJOS\Colegios\Francisco Encina\2014\Anuario\aniversario 2
013
2,45 MB 14-09-2012 0:12:46
IMG_0676.JPG
F:\TRABAJOS\Colegios\Francisco Encina\2014\Anuario\vivencias
2,45 MB 14-09-2012 0:12:46
----------------------------------------------------------------------------------------------------------------------------------------------------IMG_0692.JPG
F:\TRABAJOS\Colegios\Francisco Encina\2013\ANUARIO FE 2013\anive
rsario 2013
2,14 MB 14-09-2012 0:30:48
IMG_0692.JPG
F:\TRABAJOS\Colegios\Francisco Encina\2014\Anuario\aniversario 2
013
2,14 MB 14-09-2012 0:30:48
----------------------------------------------------------------------------------------------------------------------------------------------------IMG_0703.JPG
F:\TRABAJOS\Colegios\Francisco Encina\2013\ANUARIO FE 2013\anive
rsario 2013
2,25 MB 14-09-2012 0:39:40
IMG_0703.JPG
F:\TRABAJOS\Colegios\Francisco Encina\2014\Anuario\aniversario 2
013
2,25 MB 14-09-2012 0:39:40
----------------------------------------------------------------------------------------------------------------------------------------------------IMG_0715.JPG
F:\TRABAJOS\Colegios\Francisco Encina\2013\ANUARIO FE 2013\anive
rsario 2013
2,09 MB 14-09-2012 0:44:14
IMG_0715.JPG
F:\TRABAJOS\Colegios\Francisco Encina\2014\Anuario\aniversario 2
013
2,09 MB 14-09-2012 0:44:14
----------------------------------------------------------------------------------------------------------------------------------------------------IMG_0720.JPG
F:\TRABAJOS\Colegios\Francisco Encina\2013\ANUARIO FE 2013\anive
rsario 2013
1,72 MB 14-09-2012 0:48:36
IMG_0720.JPG
F:\TRABAJOS\Colegios\Francisco Encina\2014\Anuario\aniversario 2
013
1,72 MB 14-09-2012 0:48:36
----------------------------------------------------------------------------------------------------------------------------------------------------IMG_0721.JPG
F:\TRABAJOS\Colegios\Francisco Encina\2013\ANUARIO FE 2013\anive
rsario 2013
2,07 MB 14-09-2012 0:48:52

IMG_0721.JPG
F:\TRABAJOS\Colegios\Francisco Encina\2014\Anuario\aniversario 2
013
2,07 MB 14-09-2012 0:48:52
----------------------------------------------------------------------------------------------------------------------------------------------------IMG_0736.JPG
F:\TRABAJOS\Colegios\Francisco Encina\2013\ANUARIO FE 2013\anive
rsario 2013
2,46 MB 14-09-2012 1:21:12
IMG_0736.JPG
F:\TRABAJOS\Colegios\Francisco Encina\2014\Anuario\aniversario 2
013
2,46 MB 14-09-2012 1:21:12
----------------------------------------------------------------------------------------------------------------------------------------------------IMG_0740.JPG
F:\TRABAJOS\Colegios\Francisco Encina\2013\ANUARIO FE 2013\anive
rsario 2013
2,40 MB 14-09-2012 1:23:28
IMG_0740.JPG
F:\TRABAJOS\Colegios\Francisco Encina\2014\Anuario\aniversario 2
013
2,40 MB 14-09-2012 1:23:28
----------------------------------------------------------------------------------------------------------------------------------------------------IMG_0743.JPG
F:\TRABAJOS\Colegios\Francisco Encina\2013\ANUARIO FE 2013\anive
rsario 2013
2,34 MB 14-09-2012 1:23:48
IMG_0743.JPG
F:\TRABAJOS\Colegios\Francisco Encina\2014\Anuario\aniversario 2
013
2,34 MB 14-09-2012 1:23:48
----------------------------------------------------------------------------------------------------------------------------------------------------IMG_0744.JPG
F:\TRABAJOS\Colegios\Francisco Encina\2013\ANUARIO FE 2013\anive
rsario 2013
2,32 MB 14-09-2012 1:24:00
IMG_0744.JPG
F:\TRABAJOS\Colegios\Francisco Encina\2014\Anuario\aniversario 2
013
2,32 MB 14-09-2012 1:24:00
----------------------------------------------------------------------------------------------------------------------------------------------------IMG_0745.JPG
F:\TRABAJOS\Colegios\Francisco Encina\2013\ANUARIO FE 2013\anive
rsario 2013
2,43 MB 14-09-2012 1:24:08
IMG_0745.JPG
F:\TRABAJOS\Colegios\Francisco Encina\2014\Anuario\aniversario 2
013
2,43 MB 14-09-2012 1:24:08
----------------------------------------------------------------------------------------------------------------------------------------------------IMG_0762.JPG
F:\TRABAJOS\Colegios\Francisco Encina\2013\ANUARIO FE 2013\anive
rsario 2013
2,56 MB 14-09-2012 1:36:20
IMG_0762.JPG
F:\TRABAJOS\Colegios\Francisco Encina\2014\Anuario\aniversario 2
013
2,56 MB 14-09-2012 1:36:20
----------------------------------------------------------------------------------------------------------------------------------------------------IMG_0764.JPG
F:\TRABAJOS\Colegios\Francisco Encina\2013\ANUARIO FE 2013\anive
rsario 2013
2,06 MB 14-09-2012 1:39:24
IMG_0764.JPG
F:\TRABAJOS\Colegios\Francisco Encina\2014\Anuario\aniversario 2
013
2,06 MB 14-09-2012 1:39:24
----------------------------------------------------------------------------------------------------------------------------------------------------IMG_0770.JPG
F:\TRABAJOS\Colegios\Francisco Encina\2013\ANUARIO FE 2013\anive
rsario 2013
1,81 MB 14-09-2012 2:17:56
IMG_0770.JPG
F:\TRABAJOS\Colegios\Francisco Encina\2014\Anuario\aniversario 2
013
1,81 MB 14-09-2012 2:17:56
----------------------------------------------------------------------------------------------------------------------------------------------------IMG_0772.JPG
F:\TRABAJOS\Colegios\Francisco Encina\2013\ANUARIO FE 2013\anive
rsario 2013
1,88 MB 14-09-2012 2:18:14
IMG_0772.JPG
F:\TRABAJOS\Colegios\Francisco Encina\2014\Anuario\aniversario 2
013
1,88 MB 14-09-2012 2:18:14
----------------------------------------------------------------------------------------------------------------------------------------------------IMG_0804.JPG
F:\TRABAJOS\Colegios\Francisco Encina\2013\ANUARIO FE 2013\anive
rsario 2013
1,43 MB 24-09-2013 20:24:56

IMG_0804.JPG
F:\TRABAJOS\Colegios\Francisco Encina\2014\Anuario\aniversario 2
013
1,43 MB 24-09-2013 20:24:56
----------------------------------------------------------------------------------------------------------------------------------------------------IMG_0805.JPG
F:\TRABAJOS\Colegios\Francisco Encina\2013\ANUARIO FE 2013\anive
rsario 2013
1,65 MB 24-09-2013 20:25:04
IMG_0805.JPG
F:\TRABAJOS\Colegios\Francisco Encina\2014\Anuario\aniversario 2
013
1,65 MB 24-09-2013 20:25:04
----------------------------------------------------------------------------------------------------------------------------------------------------IMG_0806.JPG
F:\TRABAJOS\Colegios\Francisco Encina\2013\ANUARIO FE 2013\anive
rsario 2013
1,51 MB 24-09-2013 20:25:12
IMG_0806.JPG
F:\TRABAJOS\Colegios\Francisco Encina\2014\Anuario\aniversario 2
013
1,51 MB 24-09-2013 20:25:12
----------------------------------------------------------------------------------------------------------------------------------------------------IMG_0810.JPG
F:\TRABAJOS\Colegios\Francisco Encina\2013\ANUARIO FE 2013\anive
rsario 2013
2,50 MB 14-09-2012 2:35:44
IMG_0810.JPG
F:\TRABAJOS\Colegios\Francisco Encina\2014\Anuario\aniversario 2
013
2,50 MB 14-09-2012 2:35:44
----------------------------------------------------------------------------------------------------------------------------------------------------IMG_0811.JPG
F:\TRABAJOS\Colegios\Francisco Encina\2013\ANUARIO FE 2013\anive
rsario 2013
2,37 MB 14-09-2012 2:35:54
IMG_0811.JPG
F:\TRABAJOS\Colegios\Francisco Encina\2014\Anuario\aniversario 2
013
2,37 MB 14-09-2012 2:35:54
----------------------------------------------------------------------------------------------------------------------------------------------------Cena de Pan y Uva.JPG F:\TRABAJOS\Colegios\Francisco Encina\2013\ANUARIO FE 20
13\vivencias\cena de pan y uva 5,23 MB 28-03-2013 20:39:50
Cena de Pan y Uva.JPG F:\TRABAJOS\Colegios\Francisco Encina\2014\Anuario\cena
de pan y uva
5,23 MB 28-03-2013 20:39:50
----------------------------------------------------------------------------------------------------------------------------------------------------DSCN1596.JPG
F:\TRABAJOS\Colegios\Francisco Encina\2013\ANUARIO FE 2013\viven
cias
1,76 MB 09-05-2013 19:02:14
DSCN1596.JPG
F:\TRABAJOS\Colegios\Francisco Encina\2014\Anuario\vivencias
1,76 MB 09-05-2013 19:02:14
----------------------------------------------------------------------------------------------------------------------------------------------------P1050723.JPG
F:\TRABAJOS\Colegios\Francisco Encina\2013\ANUARIO FE 2013\viven
cias\eventos deportivos 4,24 MB 04-05-2013 17:06:26
P1050723.JPG
F:\TRABAJOS\Colegios\Francisco Encina\2014\Anuario\eventos depor
tivos 4,24 MB 04-05-2013 17:06:26
----------------------------------------------------------------------------------------------------------------------------------------------------P1050724.JPG
F:\TRABAJOS\Colegios\Francisco Encina\2013\ANUARIO FE 2013\viven
cias\eventos deportivos 4,27 MB 04-05-2013 18:56:58
P1050724.JPG
F:\TRABAJOS\Colegios\Francisco Encina\2014\Anuario\eventos depor
tivos 4,27 MB 04-05-2013 18:56:58
----------------------------------------------------------------------------------------------------------------------------------------------------DSCN1552.JPG
F:\TRABAJOS\Colegios\Francisco Encina\2013\ANUARIO FE 2013\viven
cias\ex alumnos 4,94 MB 04-03-2013 12:25:08
DSCN1552.JPG
F:\TRABAJOS\Colegios\Francisco Encina\2014\Anuario\ex alumnos
4,94 MB 04-03-2013 12:25:08
----------------------------------------------------------------------------------------------------------------------------------------------------DSCN1642.JPG
F:\TRABAJOS\Colegios\Francisco Encina\2013\ANUARIO FE 2013\viven
cias\ex alumnos 5,91 MB 04-03-2013 13:12:34

DSCN1642.JPG
F:\TRABAJOS\Colegios\Francisco Encina\2014\Anuario\ex alumnos
5,91 MB 04-03-2013 13:12:34
----------------------------------------------------------------------------------------------------------------------------------------------------IMG_0627.JPG
F:\TRABAJOS\Colegios\Francisco Encina\2013\ANUARIO FE 2013\viven
cias
3,79 MB 13-09-2012 18:38:20
IMG_0627.JPG
F:\TRABAJOS\Colegios\Francisco Encina\2014\Anuario\vivencias
3,79 MB 13-09-2012 18:38:20
----------------------------------------------------------------------------------------------------------------------------------------------------IMG_0628.JPG
F:\TRABAJOS\Colegios\Francisco Encina\2013\ANUARIO FE 2013\viven
cias
3,35 MB 13-09-2012 18:38:50
IMG_0628.JPG
F:\TRABAJOS\Colegios\Francisco Encina\2014\Anuario\vivencias
3,35 MB 13-09-2012 18:38:50
----------------------------------------------------------------------------------------------------------------------------------------------------IMG_0629.JPG
F:\TRABAJOS\Colegios\Francisco Encina\2013\ANUARIO FE 2013\viven
cias
3,21 MB 13-09-2012 18:39:24
IMG_0629.JPG
F:\TRABAJOS\Colegios\Francisco Encina\2014\Anuario\vivencias
3,21 MB 13-09-2012 18:39:24
----------------------------------------------------------------------------------------------------------------------------------------------------IMG_0642.JPG
F:\TRABAJOS\Colegios\Francisco Encina\2013\ANUARIO FE 2013\viven
cias
2,69 MB 13-09-2012 19:11:28
IMG_0642.JPG
F:\TRABAJOS\Colegios\Francisco Encina\2014\Anuario\vivencias
2,69 MB 13-09-2012 19:11:28
----------------------------------------------------------------------------------------------------------------------------------------------------IMG_0643.JPG
F:\TRABAJOS\Colegios\Francisco Encina\2013\ANUARIO FE 2013\viven
cias
3,25 MB 13-09-2012 19:11:38
IMG_0643.JPG
F:\TRABAJOS\Colegios\Francisco Encina\2014\Anuario\vivencias
3,25 MB 13-09-2012 19:11:38
----------------------------------------------------------------------------------------------------------------------------------------------------IMG_0646.JPG
F:\TRABAJOS\Colegios\Francisco Encina\2013\ANUARIO FE 2013\viven
cias
3,32 MB 13-09-2012 19:12:16
IMG_0646.JPG
F:\TRABAJOS\Colegios\Francisco Encina\2014\Anuario\vivencias
3,32 MB 13-09-2012 19:12:16
----------------------------------------------------------------------------------------------------------------------------------------------------IMG_0649.JPG
F:\TRABAJOS\Colegios\Francisco Encina\2013\ANUARIO FE 2013\viven
cias
3,16 MB 13-09-2012 19:28:20
IMG_0649.JPG
F:\TRABAJOS\Colegios\Francisco Encina\2014\Anuario\vivencias
3,16 MB 13-09-2012 19:28:20
----------------------------------------------------------------------------------------------------------------------------------------------------IMG_0778.JPG
F:\TRABAJOS\Colegios\Francisco Encina\2013\ANUARIO FE 2013\viven
cias
2,85 MB 14-09-2012 2:20:40
IMG_0778.JPG
F:\TRABAJOS\Colegios\Francisco Encina\2014\Anuario\vivencias
2,85 MB 14-09-2012 2:20:40
----------------------------------------------------------------------------------------------------------------------------------------------------IMG_0812.JPG
F:\TRABAJOS\Colegios\Francisco Encina\2013\ANUARIO FE 2013\viven
cias
2,36 MB 14-09-2012 2:36:04
IMG_0812.JPG
F:\TRABAJOS\Colegios\Francisco Encina\2014\Anuario\vivencias
2,36 MB 14-09-2012 2:36:04
----------------------------------------------------------------------------------------------------------------------------------------------------IMG_0914.JPG
F:\TRABAJOS\Colegios\Francisco Encina\2013\ANUARIO FE 2013\viven
cias
2,51 MB 25-09-2012 14:33:38

IMG_0914.JPG
F:\TRABAJOS\Colegios\Francisco Encina\2014\Anuario\vivencias
2,51 MB 25-09-2012 14:33:38
----------------------------------------------------------------------------------------------------------------------------------------------------IMG_0983.JPG
F:\TRABAJOS\Colegios\Francisco Encina\2013\ANUARIO FE 2013\viven
cias
2,58 MB 25-09-2012 15:05:52
IMG_0983.JPG
F:\TRABAJOS\Colegios\Francisco Encina\2014\Anuario\vivencias
2,58 MB 25-09-2012 15:05:52
----------------------------------------------------------------------------------------------------------------------------------------------------IMG_0987.JPG
F:\TRABAJOS\Colegios\Francisco Encina\2013\ANUARIO FE 2013\viven
cias
1,85 MB 25-09-2012 15:12:46
IMG_0987.JPG
F:\TRABAJOS\Colegios\Francisco Encina\2014\Anuario\vivencias
1,85 MB 25-09-2012 15:12:46
----------------------------------------------------------------------------------------------------------------------------------------------------IMG_1028.JPG
F:\TRABAJOS\Colegios\Francisco Encina\2013\ANUARIO FE 2013\viven
cias
2,23 MB 25-09-2012 18:00:16
IMG_1028.JPG
F:\TRABAJOS\Colegios\Francisco Encina\2014\Anuario\vivencias
2,23 MB 25-09-2012 18:00:16
----------------------------------------------------------------------------------------------------------------------------------------------------ENTRADA COLEGIO.jpg
F:\TRABAJOS\Colegios\Francisco Encina\2013\Carpeta\fotos
2,54 MB 10-05-2013 13:55:19
ENTRADA COLEGIO.jpg
F:\TRABAJOS\Colegios\Francisco Encina\2013\carpeta coleg
io 2013\fotos 2,54 MB 10-05-2013 13:55:19
ENTRADA COLEGIO.jpg
F:\TRABAJOS\Colegios\Francisco Encina\Papeleria\Carpeta\
fotos 2,54 MB 10-05-2013 13:55:19
----------------------------------------------------------------------------------------------------------------------------------------------------fondo tapa-01.tif
F:\TRABAJOS\Colegios\Fundacion Arturo Merino Benitez\Age
ndas\Agenda 2014\Loreto\Tapa 120 MB 16-10-2013 14:21:51
fondo tapa-01.tif
F:\TRABAJOS\Colegios\Fundacion Arturo Merino Benitez\Age
ndas\Agenda 2014\Montajes
120 MB 16-10-2013 14:21:51
----------------------------------------------------------------------------------------------------------------------------------------------------Loreto 2-3-01.tif
F:\TRABAJOS\Colegios\Fundacion Arturo Merino Benitez\Age
ndas\Agenda 2014\Loreto\Tapa 104 MB 16-10-2013 14:24:09
Loreto 2-3-01.tif
F:\TRABAJOS\Colegios\Fundacion Arturo Merino Benitez\Age
ndas\Agenda 2014\Montajes
104 MB 16-10-2013 14:24:09
----------------------------------------------------------------------------------------------------------------------------------------------------tapas agendas-01.psd
F:\TRABAJOS\Colegios\Fundacion Arturo Merino Benitez\Age
ndas\Agenda 2014\Loreto\Tapa 6,90 MB 16-10-2013 13:49:03
tapas agendas-01.psd
F:\TRABAJOS\Colegios\Fundacion Arturo Merino Benitez\Age
ndas\Agenda 2014\Montajes
6,90 MB 16-10-2013 13:49:03
----------------------------------------------------------------------------------------------------------------------------------------------------006.jpg F:\TRABAJOS\Colegios\Fundacion Arturo Merino Benitez\Agendas\Agenda 201
4\Paginas Color 6,76 MB 08-10-2013 17:47:24
006.jpg F:\TRABAJOS\Colegios\Jorge Prieto Letelier\2014\Agenda\Carpeta interior\
Links 6,76 MB 08-10-2013 17:47:24
----------------------------------------------------------------------------------------------------------------------------------------------------012.jpg F:\TRABAJOS\Colegios\Fundacion Arturo Merino Benitez\Agendas\Agenda 201
4\Paginas Color 8,32 MB 07-10-2013 19:32:26
012.jpg F:\TRABAJOS\Colegios\Jorge Prieto Letelier\2014\Agenda\Carpeta interior\
Links 8,32 MB 07-10-2013 19:32:26
-----------------------------------------------------------------------------------------------------------------------------------------------------

024.jpg F:\TRABAJOS\Colegios\Fundacion Arturo Merino Benitez\Agendas\Agenda 201


4\Paginas Color 7,09 MB 07-10-2013 19:39:19
024.jpg F:\TRABAJOS\Colegios\Jorge Prieto Letelier\2014\Agenda\Carpeta interior\
Links 7,09 MB 07-10-2013 19:39:19
----------------------------------------------------------------------------------------------------------------------------------------------------034.jpg F:\TRABAJOS\Colegios\Fundacion Arturo Merino Benitez\Agendas\Agenda 201
4\Paginas Color 7,26 MB 07-10-2013 19:55:54
034.jpg F:\TRABAJOS\Colegios\Jorge Prieto Letelier\2014\Agenda\Carpeta interior\
Links 7,26 MB 07-10-2013 19:55:54
----------------------------------------------------------------------------------------------------------------------------------------------------046.jpg F:\TRABAJOS\Colegios\Fundacion Arturo Merino Benitez\Agendas\Agenda 201
4\Paginas Color 6,69 MB 07-10-2013 21:39:23
046.jpg F:\TRABAJOS\Colegios\Jorge Prieto Letelier\2014\Agenda\Carpeta interior\
Links 6,69 MB 07-10-2013 21:39:23
----------------------------------------------------------------------------------------------------------------------------------------------------056.jpg F:\TRABAJOS\Colegios\Fundacion Arturo Merino Benitez\Agendas\Agenda 201
4\Paginas Color 7,07 MB 07-10-2013 22:32:04
056.jpg F:\TRABAJOS\Colegios\Jorge Prieto Letelier\2014\Agenda\Carpeta interior\
Links 7,07 MB 07-10-2013 22:32:04
----------------------------------------------------------------------------------------------------------------------------------------------------078.jpg F:\TRABAJOS\Colegios\Fundacion Arturo Merino Benitez\Agendas\Agenda 201
4\Paginas Color 5,08 MB 08-10-2013 13:22:15
078.jpg F:\TRABAJOS\Colegios\Jorge Prieto Letelier\2014\Agenda\Carpeta interior\
Links 5,08 MB 08-10-2013 13:22:15
----------------------------------------------------------------------------------------------------------------------------------------------------088.jpg F:\TRABAJOS\Colegios\Fundacion Arturo Merino Benitez\Agendas\Agenda 201
4\Paginas Color 3,70 MB 08-10-2013 13:30:07
088.jpg F:\TRABAJOS\Colegios\Jorge Prieto Letelier\2014\Agenda\Carpeta interior\
Links 3,70 MB 08-10-2013 13:30:07
----------------------------------------------------------------------------------------------------------------------------------------------------100.jpg F:\TRABAJOS\Colegios\Fundacion Arturo Merino Benitez\Agendas\Agenda 201
4\Paginas Color 4,43 MB 08-10-2013 13:47:56
100.jpg F:\TRABAJOS\Colegios\Jorge Prieto Letelier\2014\Agenda\Carpeta interior\
Links 4,43 MB 08-10-2013 13:47:56
----------------------------------------------------------------------------------------------------------------------------------------------------LIBRO IV REGLAMENTO DE CONVIVENCIA ESCOLAR.pdf F:\TRABAJOS\Colegios\Fundacion A
rturo Merino Benitez\Agendas\Agenda 2014\Tantauco\DOCUMENTOS 1,13 MB 07-11-20
13 20:49:00
LIBRO IV REGLAMENTO DE CONVIVENCIA ESCOLAR.pdf F:\TRABAJOS\Colegios\Fundacion A
rturo Merino Benitez\Agendas\Agenda 2014\Tantauco\Reglamento 1,13 MB 07-11-20
13 20:49:00
----------------------------------------------------------------------------------------------------------------------------------------------------006-01.jpg
F:\TRABAJOS\Colegios\Fundacion Arturo Merino Benitez\Agendas\Age
nda 2012\Agenda Famb 2012\Carpeta Agenda FAMB Loreto\Links
1,16 MB 26-10-20
11 19:43:18
006-01.jpg
F:\TRABAJOS\Colegios\Fundacion Arturo Merino Benitez\Agendas\Age
nda 2012\Agenda Famb 2012\Paginas Color\LORETO\72
1,16 MB 26-10-2011 19:43
:18
----------------------------------------------------------------------------------------------------------------------------------------------------056-01.jpg
F:\TRABAJOS\Colegios\Fundacion Arturo Merino Benitez\Agendas\Age
nda 2012\Agenda Famb 2012\Carpeta Agenda FAMB Loreto\Links
2,87 MB 24-10-20

11 17:00:09
056-01.jpg
F:\TRABAJOS\Colegios\Fundacion Arturo Merino Benitez\Agendas\Age
nda 2012\Agenda Famb 2012\Paginas Color\LORETO\150
2,87 MB 24-10-2011 17:00
:09
----------------------------------------------------------------------------------------------------------------------------------------------------002 con cambio-01.jpg F:\TRABAJOS\Colegios\Fundacion Arturo Merino Benitez\Age
ndas\Agenda 2012\Agenda Famb 2012\Carpeta Agenda FAMB Tantauco\Links
8,82 MB
08-11-2011 16:27:02
002 con cambio-01.jpg F:\TRABAJOS\Colegios\Fundacion Arturo Merino Benitez\Age
ndas\Agenda 2012\Agenda Famb 2012\Paginas Color\Tantauco
8,82 MB 08-11-20
11 16:27:02
----------------------------------------------------------------------------------------------------------------------------------------------------006-01.jpg
F:\TRABAJOS\Colegios\Fundacion Arturo Merino Benitez\Agendas\Age
nda 2012\Agenda Famb 2012\Carpeta Agenda FAMB Tantauco\Links
7,23 MB 03-11-20
11 13:24:51
006-01.jpg
F:\TRABAJOS\Colegios\Fundacion Arturo Merino Benitez\Agendas\Age
nda 2012\Agenda Famb 2012\Paginas Color\Tantauco
7,23 MB 03-11-2011 13:24
:51
----------------------------------------------------------------------------------------------------------------------------------------------------012-01.jpg
F:\TRABAJOS\Colegios\Fundacion Arturo Merino Benitez\Agendas\Age
nda 2012\Agenda Famb 2012\Carpeta Agenda FAMB Tantauco\Links
8,53 MB 03-11-20
11 13:27:36
012-01.jpg
F:\TRABAJOS\Colegios\Fundacion Arturo Merino Benitez\Agendas\Age
nda 2012\Agenda Famb 2012\Paginas Color\Tantauco
8,53 MB 03-11-2011 13:27
:36
----------------------------------------------------------------------------------------------------------------------------------------------------024-01.jpg
F:\TRABAJOS\Colegios\Fundacion Arturo Merino Benitez\Agendas\Age
nda 2012\Agenda Famb 2012\Carpeta Agenda FAMB Tantauco\Links
8,92 MB 03-11-20
11 13:29:56
024-01.jpg
F:\TRABAJOS\Colegios\Fundacion Arturo Merino Benitez\Agendas\Age
nda 2012\Agenda Famb 2012\Paginas Color\Tantauco
8,92 MB 03-11-2011 13:29
:56
----------------------------------------------------------------------------------------------------------------------------------------------------034-01.jpg
F:\TRABAJOS\Colegios\Fundacion Arturo Merino Benitez\Agendas\Age
nda 2012\Agenda Famb 2012\Carpeta Agenda FAMB Tantauco\Links
8,88 MB 03-11-20
11 13:32:09
034-01.jpg
F:\TRABAJOS\Colegios\Fundacion Arturo Merino Benitez\Agendas\Age
nda 2012\Agenda Famb 2012\Paginas Color\Tantauco
8,88 MB 03-11-2011 13:32
:09
----------------------------------------------------------------------------------------------------------------------------------------------------046-01.jpg
F:\TRABAJOS\Colegios\Fundacion Arturo Merino Benitez\Agendas\Age
nda 2012\Agenda Famb 2012\Carpeta Agenda FAMB Tantauco\Links
8,03 MB 08-11-20
11 14:41:06
046-01.jpg
F:\TRABAJOS\Colegios\Fundacion Arturo Merino Benitez\Agendas\Age
nda 2012\Agenda Famb 2012\Paginas Color\Tantauco
8,03 MB 08-11-2011 14:41
:06
----------------------------------------------------------------------------------------------------------------------------------------------------056-01.jpg
F:\TRABAJOS\Colegios\Fundacion Arturo Merino Benitez\Agendas\Age
nda 2012\Agenda Famb 2012\Carpeta Agenda FAMB Tantauco\Links
10,7 MB 03-11-20
11 13:35:44
056-01.jpg
F:\TRABAJOS\Colegios\Fundacion Arturo Merino Benitez\Agendas\Age
nda 2012\Agenda Famb 2012\Paginas Color\Tantauco
10,7 MB 03-11-2011 13:35
:44

----------------------------------------------------------------------------------------------------------------------------------------------------066-01.jpg
F:\TRABAJOS\Colegios\Fundacion Arturo Merino Benitez\Agendas\Age
nda 2012\Agenda Famb 2012\Carpeta Agenda FAMB Tantauco\Links
8,25 MB 03-11-20
11 14:51:37
066-01.jpg
F:\TRABAJOS\Colegios\Fundacion Arturo Merino Benitez\Agendas\Age
nda 2012\Agenda Famb 2012\Paginas Color\Tantauco
8,25 MB 03-11-2011 14:51
:37
----------------------------------------------------------------------------------------------------------------------------------------------------078-01.jpg
F:\TRABAJOS\Colegios\Fundacion Arturo Merino Benitez\Agendas\Age
nda 2012\Agenda Famb 2012\Carpeta Agenda FAMB Tantauco\Links
10,3 MB 03-11-20
11 13:38:26
078-01.jpg
F:\TRABAJOS\Colegios\Fundacion Arturo Merino Benitez\Agendas\Age
nda 2012\Agenda Famb 2012\Paginas Color\Tantauco
10,3 MB 03-11-2011 13:38
:26
----------------------------------------------------------------------------------------------------------------------------------------------------088-01.jpg
F:\TRABAJOS\Colegios\Fundacion Arturo Merino Benitez\Agendas\Age
nda 2012\Agenda Famb 2012\Carpeta Agenda FAMB Tantauco\Links
8,99 MB 03-11-20
11 13:40:56
088-01.jpg
F:\TRABAJOS\Colegios\Fundacion Arturo Merino Benitez\Agendas\Age
nda 2012\Agenda Famb 2012\Paginas Color\Tantauco
8,99 MB 03-11-2011 13:40
:56
----------------------------------------------------------------------------------------------------------------------------------------------------100-01.jpg
F:\TRABAJOS\Colegios\Fundacion Arturo Merino Benitez\Agendas\Age
nda 2012\Agenda Famb 2012\Carpeta Agenda FAMB Tantauco\Links
10,0 MB 03-11-20
11 13:42:24
100-01.jpg
F:\TRABAJOS\Colegios\Fundacion Arturo Merino Benitez\Agendas\Age
nda 2012\Agenda Famb 2012\Paginas Color\Tantauco
10,0 MB 03-11-2011 13:42
:24
----------------------------------------------------------------------------------------------------------------------------------------------------110-01.jpg
F:\TRABAJOS\Colegios\Fundacion Arturo Merino Benitez\Agendas\Age
nda 2012\Agenda Famb 2012\Carpeta Agenda FAMB Tantauco\Links
9,45 MB 03-11-20
11 13:44:15
110-01.jpg
F:\TRABAJOS\Colegios\Fundacion Arturo Merino Benitez\Agendas\Age
nda 2012\Agenda Famb 2012\Paginas Color\Tantauco
9,45 MB 03-11-2011 13:44
:15
----------------------------------------------------------------------------------------------------------------------------------------------------Amor por la obra bien hecha Thiare_Guianella Salinas Santana_k a.jpg
F:\TRABA
JOS\Colegios\Fundacion Arturo Merino Benitez\Agendas\Agenda 2012\Agenda Famb 201
2\IMG hoja interior\Valores\Amor por la obra bien hecha 6,92 MB 14-09-2011 21:01
:09
Amor por la obra bien hecha Thiare_Guianella Salinas Santana_k a.jpg
F:\TRABA
JOS\Colegios\Fundacion Arturo Merino Benitez\Agendas\Agenda 2012\Imagenes agenda
\Tantauco
6,92 MB 14-09-2011 21:01:09
----------------------------------------------------------------------------------------------------------------------------------------------------Amor por la obra bien hecha_ Constanza Valentina Fuentes tapia 5b.jpg F:\TRABA
JOS\Colegios\Fundacion Arturo Merino Benitez\Agendas\Agenda 2012\Agenda Famb 201
2\IMG hoja interior\Valores\Amor por la obra bien hecha 16,5 MB 15-09-2011 16:42
:45
Amor por la obra bien hecha_ Constanza Valentina Fuentes tapia 5b.jpg F:\TRABA
JOS\Colegios\Fundacion Arturo Merino Benitez\Agendas\Agenda 2012\Imagenes agenda
\Tantauco
16,5 MB 15-09-2011 16:42:45
-----------------------------------------------------------------------------------------------------------------------------------------------------

amor por la obra bien hecha_ Juan pablo vera alvarado 1b.jpg
F:\TRABAJOS\Cole
gios\Fundacion Arturo Merino Benitez\Agendas\Agenda 2012\Agenda Famb 2012\IMG ho
ja interior\Valores\Amor por la obra bien hecha 21,2 MB 16-09-2011 13:47:20
amor por la obra bien hecha_ Juan pablo vera alvarado 1b.jpg
F:\TRABAJOS\Cole
gios\Fundacion Arturo Merino Benitez\Agendas\Agenda 2012\Imagenes agenda\Tantauc
o
21,2 MB 16-09-2011 13:47:20
----------------------------------------------------------------------------------------------------------------------------------------------------Amor por la obra bien hecha_ Sofia Marlen Vera Werb 6b.jpg
F:\TRABAJOS\Cole
gios\Fundacion Arturo Merino Benitez\Agendas\Agenda 2012\Agenda Famb 2012\IMG ho
ja interior\Valores\Amor por la obra bien hecha 14,8 MB 15-09-2011 17:14:48
Amor por la obra bien hecha_ Sofia Marlen Vera Werb 6b.jpg
F:\TRABAJOS\Cole
gios\Fundacion Arturo Merino Benitez\Agendas\Agenda 2012\Imagenes agenda\Tantauc
o
14,8 MB 15-09-2011 17:14:48
----------------------------------------------------------------------------------------------------------------------------------------------------Creatividad Betzabe Dafne Valentina Parra Concha_pkb.jpg
F:\TRABAJOS\Cole
gios\Fundacion Arturo Merino Benitez\Agendas\Agenda 2012\Agenda Famb 2012\IMG ho
ja interior\Valores\Creatividad 7,22 MB 14-09-2011 19:05:34
Creatividad Betzabe Dafne Valentina Parra Concha_pkb.jpg
F:\TRABAJOS\Cole
gios\Fundacion Arturo Merino Benitez\Agendas\Agenda 2012\Imagenes agenda\Tantauc
o
7,22 MB 14-09-2011 19:05:34
----------------------------------------------------------------------------------------------------------------------------------------------------Creatividad Javier emilio Orizola Caceres IVb.jpg
F:\TRABAJOS\Colegios\Fun
dacion Arturo Merino Benitez\Agendas\Agenda 2012\Agenda Famb 2012\IMG hoja inter
ior\Valores\Creatividad 17,1 MB 15-09-2011 15:55:11
Creatividad Javier emilio Orizola Caceres IVb.jpg
F:\TRABAJOS\Colegios\Fun
dacion Arturo Merino Benitez\Agendas\Agenda 2012\Imagenes agenda\Tantauco
17,1 MB 15-09-2011 15:55:11
----------------------------------------------------------------------------------------------------------------------------------------------------Creatividad_ Tamara Alejandra Lagos Villagra 6b.jpg
F:\TRABAJOS\Colegios\Fun
dacion Arturo Merino Benitez\Agendas\Agenda 2012\Agenda Famb 2012\IMG hoja inter
ior\Valores\Creatividad 13,3 MB 15-09-2011 16:36:24
Creatividad_ Tamara Alejandra Lagos Villagra 6b.jpg
F:\TRABAJOS\Colegios\Fun
dacion Arturo Merino Benitez\Agendas\Agenda 2012\Imagenes agenda\Tantauco
13,3 MB 15-09-2011 16:36:24
----------------------------------------------------------------------------------------------------------------------------------------------------Creatividad_Isidora Antonia Riquelme Latin_pkb.jpg
F:\TRABAJOS\Colegios\Fun
dacion Arturo Merino Benitez\Agendas\Agenda 2012\Agenda Famb 2012\IMG hoja inter
ior\Valores\Creatividad 6,31 MB 14-09-2011 20:24:33
Creatividad_Isidora Antonia Riquelme Latin_pkb.jpg
F:\TRABAJOS\Colegios\Fun
dacion Arturo Merino Benitez\Agendas\Agenda 2012\Imagenes agenda\Tantauco
6,31 MB 14-09-2011 20:24:33
----------------------------------------------------------------------------------------------------------------------------------------------------Espiritualidad Maria Paz Diaz Flores 6a.jpg
F:\TRABAJOS\Colegios\Fundacion A
rturo Merino Benitez\Agendas\Agenda 2012\Agenda Famb 2012\IMG hoja interior\Valo
res\Espiritualidad
18,4 MB 15-09-2011 17:05:33
Espiritualidad Maria Paz Diaz Flores 6a.jpg
F:\TRABAJOS\Colegios\Fundacion A
rturo Merino Benitez\Agendas\Agenda 2012\Imagenes agenda\Tantauco
18,4 MB
15-09-2011 17:05:33
----------------------------------------------------------------------------------------------------------------------------------------------------Espiritualidad Paz Anastasia Gonzalez Gomez PK B.jpg
F:\TRABAJOS\Colegios\Fun
dacion Arturo Merino Benitez\Agendas\Agenda 2012\Agenda Famb 2012\IMG hoja inter
ior\Valores\Espiritualidad
8,06 MB 14-09-2011 19:13:41
Espiritualidad Paz Anastasia Gonzalez Gomez PK B.jpg
F:\TRABAJOS\Colegios\Fun

dacion Arturo Merino Benitez\Agendas\Agenda 2012\Imagenes agenda\Tantauco


8,06 MB 14-09-2011 19:13:41
----------------------------------------------------------------------------------------------------------------------------------------------------Espiritualidad_ Alejandro Andres Toledo-muoz y Lucas guillermo Hernandez Flores
IVb.jpg F:\TRABAJOS\Colegios\Fundacion Arturo Merino Benitez\Agendas\Agenda 2012
\Agenda Famb 2012\IMG hoja interior\Valores\Espiritualidad
19,0 MB 15-09-20
11 17:35:47
Espiritualidad_ Alejandro Andres Toledo-muoz y Lucas guillermo Hernandez Flores
IVb.jpg F:\TRABAJOS\Colegios\Fundacion Arturo Merino Benitez\Agendas\Agenda 2012
\Imagenes agenda\Tantauco
19,0 MB 15-09-2011 17:35:47
----------------------------------------------------------------------------------------------------------------------------------------------------Patriotismo_Alejandra ignacia Lopez anriquez 6a.jpg
F:\TRABAJOS\Colegios\Fun
dacion Arturo Merino Benitez\Agendas\Agenda 2012\Agenda Famb 2012\IMG hoja inter
ior\Valores\Patriotismo 21,3 MB 16-09-2011 14:42:21
Patriotismo_Alejandra ignacia Lopez anriquez 6a.jpg
F:\TRABAJOS\Colegios\Fun
dacion Arturo Merino Benitez\Agendas\Agenda 2012\Imagenes agenda\Tantauco
21,3 MB 16-09-2011 14:42:21
----------------------------------------------------------------------------------------------------------------------------------------------------Patriotismo_Constanza paz Cordova Maldonado IVb.jpg
F:\TRABAJOS\Colegios\Fun
dacion Arturo Merino Benitez\Agendas\Agenda 2012\Agenda Famb 2012\IMG hoja inter
ior\Valores\Patriotismo 17,1 MB 15-09-2011 16:04:02
Patriotismo_Constanza paz Cordova Maldonado IVb.jpg
F:\TRABAJOS\Colegios\Fun
dacion Arturo Merino Benitez\Agendas\Agenda 2012\Imagenes agenda\Tantauco
17,1 MB 15-09-2011 16:04:02
----------------------------------------------------------------------------------------------------------------------------------------------------Patriotismo_Patricia camila Vergara Lopez 5a.jpg
F:\TRABAJOS\Colegios\Fun
dacion Arturo Merino Benitez\Agendas\Agenda 2012\Agenda Famb 2012\IMG hoja inter
ior\Valores\Patriotismo 19,8 MB 16-09-2011 13:58:33
Patriotismo_Patricia camila Vergara Lopez 5a.jpg
F:\TRABAJOS\Colegios\Fun
dacion Arturo Merino Benitez\Agendas\Agenda 2012\Imagenes agenda\Tantauco
19,8 MB 16-09-2011 13:58:33
----------------------------------------------------------------------------------------------------------------------------------------------------Solidaridad_ Francisco Sebastian Hernndez ramos 6a.jpg F:\TRABAJOS\Colegios\Fun
dacion Arturo Merino Benitez\Agendas\Agenda 2012\Agenda Famb 2012\IMG hoja inter
ior\Valores\Solidaridad 18,7 MB 15-09-2011 16:59:26
Solidaridad_ Francisco Sebastian Hernndez ramos 6a.jpg F:\TRABAJOS\Colegios\Fun
dacion Arturo Merino Benitez\Agendas\Agenda 2012\Imagenes agenda\Tantauco
18,7 MB 15-09-2011 16:59:26
----------------------------------------------------------------------------------------------------------------------------------------------------Solidaridad_fernandaIsidora Perez Brito_1b.jpg F:\TRABAJOS\Colegios\Fundacion A
rturo Merino Benitez\Agendas\Agenda 2012\Agenda Famb 2012\IMG hoja interior\Valo
res\Solidaridad 10,7 MB 14-09-2011 20:37:24
Solidaridad_fernandaIsidora Perez Brito_1b.jpg F:\TRABAJOS\Colegios\Fundacion A
rturo Merino Benitez\Agendas\Agenda 2012\Imagenes agenda\Tantauco
10,7 MB
14-09-2011 20:37:24
----------------------------------------------------------------------------------------------------------------------------------------------------Solidaridad_martina_Alexandra flores Muoz_1b.jpg
F:\TRABAJOS\Colegios\Fundacion A
rturo Merino Benitez\Agendas\Agenda 2012\Agenda Famb 2012\IMG hoja interior\Valo
res\Solidaridad 9,74 MB 14-09-2011 15:21:45
Solidaridad_martina_Alexandra flores Muoz_1b.jpg
F:\TRABAJOS\Colegios\Fundacion A
rturo Merino Benitez\Agendas\Agenda 2012\Imagenes agenda\Tantauco
9,74 MB
14-09-2011 15:21:45
--------------------------------------------------------------------------------

---------------------------------------------------------------------Solidaridad_martina_Paz encina_ Taborga 3a.jpg F:\TRABAJOS\Colegios\Fundacion A


rturo Merino Benitez\Agendas\Agenda 2012\Agenda Famb 2012\IMG hoja interior\Valo
res\Solidaridad 7,01 MB 14-09-2011 20:33:02
Solidaridad_martina_Paz encina_ Taborga 3a.jpg F:\TRABAJOS\Colegios\Fundacion A
rturo Merino Benitez\Agendas\Agenda 2012\Imagenes agenda\Tantauco
7,01 MB
14-09-2011 20:33:02
----------------------------------------------------------------------------------------------------------------------------------------------------Solidaridad_tomas_Martin mecias Miranda _ka.jpg F:\TRABAJOS\Colegios\Fundacion A
rturo Merino Benitez\Agendas\Agenda 2012\Agenda Famb 2012\IMG hoja interior\Valo
res\Solidaridad 5,10 MB 14-09-2011 21:04:54
Solidaridad_tomas_Martin mecias Miranda _ka.jpg F:\TRABAJOS\Colegios\Fundacion A
rturo Merino Benitez\Agendas\Agenda 2012\Imagenes agenda\Tantauco
5,10 MB
14-09-2011 21:04:54
----------------------------------------------------------------------------------------------------------------------------------------------------Solidaridad_valentina Paz _espinoza Barto 3b.jpg
F:\TRABAJOS\Colegios\Fun
dacion Arturo Merino Benitez\Agendas\Agenda 2012\Agenda Famb 2012\IMG hoja inter
ior\Valores\Solidaridad 11,1 MB 14-09-2011 15:06:42
Solidaridad_valentina Paz _espinoza Barto 3b.jpg
F:\TRABAJOS\Colegios\Fun
dacion Arturo Merino Benitez\Agendas\Agenda 2012\Imagenes agenda\Tantauco
11,1 MB 14-09-2011 15:06:42
----------------------------------------------------------------------------------------------------------------------------------------------------Universalidad_ Cristobal Joaquin Vega Gaete 7 b.jpg
F:\TRABAJOS\Colegios\Fun
dacion Arturo Merino Benitez\Agendas\Agenda 2012\Agenda Famb 2012\IMG hoja inter
ior\Valores\Universalidad
20,3 MB 16-09-2011 13:41:11
Universalidad_ Cristobal Joaquin Vega Gaete 7 b.jpg
F:\TRABAJOS\Colegios\Fun
dacion Arturo Merino Benitez\Agendas\Agenda 2012\Imagenes agenda\Tantauco
20,3 MB 16-09-2011 13:41:11
----------------------------------------------------------------------------------------------------------------------------------------------------Universalidad_Valentina Rivas Diaz 7a.jpg
F:\TRABAJOS\Colegios\Fundacion A
rturo Merino Benitez\Agendas\Agenda 2012\Agenda Famb 2012\IMG hoja interior\Valo
res\Universalidad
20,8 MB 16-09-2011 13:34:37
Universalidad_Valentina Rivas Diaz 7a.jpg
F:\TRABAJOS\Colegios\Fundacion A
rturo Merino Benitez\Agendas\Agenda 2012\Imagenes agenda\Tantauco
20,8 MB
16-09-2011 13:34:37
----------------------------------------------------------------------------------------------------------------------------------------------------Universalidad_Valeria Catalina gonzalez Palma p 8b.jpg F:\TRABAJOS\Colegios\Fun
dacion Arturo Merino Benitez\Agendas\Agenda 2012\Agenda Famb 2012\IMG hoja inter
ior\Valores\Universalidad
7,89 MB 16-09-2011 13:23:18
Universalidad_Valeria Catalina gonzalez Palma p 8b.jpg F:\TRABAJOS\Colegios\Fun
dacion Arturo Merino Benitez\Agendas\Agenda 2012\Imagenes agenda\Tantauco
7,89 MB 16-09-2011 13:23:18
----------------------------------------------------------------------------------------------------------------------------------------------------Universalidad__ Alejandra_xxxx IIa.jpg F:\TRABAJOS\Colegios\Fundacion Arturo Me
rino Benitez\Agendas\Agenda 2012\Agenda Famb 2012\IMG hoja interior\Valores\Univ
ersalidad
19,8 MB 15-09-2011 16:25:01
Universalidad__ Alejandra_xxxx IIa.jpg F:\TRABAJOS\Colegios\Fundacion Arturo Me
rino Benitez\Agendas\Agenda 2012\Imagenes agenda\Tantauco
19,8 MB 15-09-20
11 16:25:01
----------------------------------------------------------------------------------------------------------------------------------------------------Contratapa 01.jpg
F:\TRABAJOS\Colegios\Fundacion Arturo Merino Benitez\Age
ndas\Agenda 2012\Agenda Famb 2012\Tapas\Tapa Tantauco 16,3 MB 12-10-2011 17:06
:42

Contratapa 01.jpg
F:\TRABAJOS\Colegios\Fundacion Arturo Merino Benitez\Age
ndas\Agenda 2012\Imagenes agenda\Tantauco\Tapa 16,3 MB 12-10-2011 17:06:42
----------------------------------------------------------------------------------------------------------------------------------------------------contratapa 02.jpg
F:\TRABAJOS\Colegios\Fundacion Arturo Merino Benitez\Age
ndas\Agenda 2012\Agenda Famb 2012\Tapas\Tapa Tantauco 12,0 MB 08-11-2011 14:14
:31
contratapa 02.jpg
F:\TRABAJOS\Colegios\Fundacion Arturo Merino Benitez\Age
ndas\Agenda 2012\Imagenes agenda\Tantauco\Tapa 12,0 MB 08-11-2011 14:14:31
----------------------------------------------------------------------------------------------------------------------------------------------------DSC06170.jpg
F:\TRABAJOS\Colegios\Fundacion Arturo Merino Benitez\Agendas\Age
nda 2012\Agenda Famb 2012\Tapas\Tapa Tantauco 4,54 MB 26-07-2011 15:58:37
DSC06170.jpg
F:\TRABAJOS\Colegios\Fundacion Arturo Merino Benitez\Tantauco\20
11\fotos tantauco 2011\camara\sirven
4,54 MB 26-07-2011 15:58:37
----------------------------------------------------------------------------------------------------------------------------------------------------DSC_0033.jpg
F:\TRABAJOS\Colegios\Fundacion Arturo Merino Benitez\Agendas\Age
nda 2012\Agenda Famb 2012\Tapas\Tapa Tantauco 2,58 MB 04-07-2011 13:46:34
DSC_0033.jpg
F:\TRABAJOS\Colegios\Fundacion Arturo Merino Benitez\Tantauco\20
11\fotos tantauco 2011\camara\sirven
2,58 MB 04-07-2011 13:46:34
----------------------------------------------------------------------------------------------------------------------------------------------------DSC_0035.jpg
F:\TRABAJOS\Colegios\Fundacion Arturo Merino Benitez\Agendas\Age
nda 2012\Agenda Famb 2012\Tapas\Tapa Tantauco 4,20 MB 12-07-2011 15:18:32
DSC_0035.jpg
F:\TRABAJOS\Colegios\Fundacion Arturo Merino Benitez\Tantauco\20
11\fotos tantauco 2011\camara\sirven
4,20 MB 12-07-2011 15:18:32
DSC_0035.jpg
F:\TRABAJOS\Colegios\Fundacion Arturo Merino Benitez\Tantauco\20
13
4,20 MB 12-07-2011 15:18:32
----------------------------------------------------------------------------------------------------------------------------------------------------DSC_0038.jpg
F:\TRABAJOS\Colegios\Fundacion Arturo Merino Benitez\Agendas\Age
nda 2012\Agenda Famb 2012\Tapas\Tapa Tantauco 2,15 MB 12-07-2011 15:31:51
DSC_0038.jpg
F:\TRABAJOS\Colegios\Fundacion Arturo Merino Benitez\Tantauco\20
11\fotos tantauco 2011\camara\sirven
2,15 MB 12-07-2011 15:31:51
----------------------------------------------------------------------------------------------------------------------------------------------------DSC_0087.jpg
F:\TRABAJOS\Colegios\Fundacion Arturo Merino Benitez\Agendas\Age
nda 2012\Agenda Famb 2012\Tapas\Tapa Tantauco 3,11 MB 20-07-2011 15:33:11
DSC_0087.jpg
F:\TRABAJOS\Colegios\Fundacion Arturo Merino Benitez\Tantauco\20
11\fotos tantauco 2011\camara\sirven
3,11 MB 20-07-2011 15:33:11
----------------------------------------------------------------------------------------------------------------------------------------------------P1260095.JPG
F:\TRABAJOS\Colegios\Fundacion Arturo Merino Benitez\Agendas\Age
nda 2012\Agenda Famb 2012\Tapas\Tapa Tantauco 4,81 MB 26-01-2010 14:09:10
P1260095.JPG
F:\TRABAJOS\Colegios\Fundacion Arturo Merino Benitez\Tantauco\20
11\fotos
4,81 MB 26-01-2010 14:09:10
----------------------------------------------------------------------------------------------------------------------------------------------------P1260129.jpg
F:\TRABAJOS\Colegios\Fundacion Arturo Merino Benitez\Agendas\Age
nda 2012\Agenda Famb 2012\Tapas\Tapa Tantauco 5,05 MB 19-07-2011 17:31:27
P1260129.jpg
F:\TRABAJOS\Colegios\Fundacion Arturo Merino Benitez\Tantauco\20
11\fotos tantauco 2011\camara\sirven
5,05 MB 19-07-2011 17:31:27
P1260129.jpg
F:\TRABAJOS\Colegios\Fundacion Arturo Merino Benitez\Tantauco\20
13\Triptico\Imagenes
5,05 MB 19-07-2011 17:31:27
----------------------------------------------------------------------------------------------------------------------------------------------------Portada.jpg
F:\TRABAJOS\Colegios\Fundacion Arturo Merino Benitez\Agendas\Age
nda 2012\Agenda Famb 2012\Tapas\Tapa Tantauco 22,1 MB 12-10-2011 16:36:42
Portada.jpg
F:\TRABAJOS\Colegios\Fundacion Arturo Merino Benitez\Agendas\Age

nda 2012\Imagenes agenda\Tantauco


22,1 MB 12-10-2011 16:36:42
Portada.jpg
F:\TRABAJOS\Colegios\Fundacion Arturo Merino Benitez\Agendas\Age
nda 2012\Imagenes agenda\Tantauco\Tapa 22,1 MB 12-10-2011 16:36:42
----------------------------------------------------------------------------------------------------------------------------------------------------creatividad.JPG F:\TRABAJOS\Colegios\Fundacion Arturo Merino Benitez\Agendas\Age
nda 2012\Loreto\Fotos Colegio\Valores Colegio 2,65 MB 03-10-2011 11:50:56
creatividad.JPG F:\TRABAJOS\Colegios\Fundacion Arturo Merino Benitez\Agendas\Age
nda 2012\Loreto\Valores Colegio 2,65 MB 03-10-2011 11:50:56
----------------------------------------------------------------------------------------------------------------------------------------------------espiriritualidad 2.JPG F:\TRABAJOS\Colegios\Fundacion Arturo Merino Benitez\Age
ndas\Agenda 2012\Loreto\Fotos Colegio\Valores Colegio 2,57 MB 06-10-2011 12:04
:32
espiriritualidad 2.JPG F:\TRABAJOS\Colegios\Fundacion Arturo Merino Benitez\Age
ndas\Agenda 2012\Loreto\Valores Colegio 2,57 MB 06-10-2011 12:04:32
----------------------------------------------------------------------------------------------------------------------------------------------------espiritualidad 2.JPG
F:\TRABAJOS\Colegios\Fundacion Arturo Merino Benitez\Age
ndas\Agenda 2012\Loreto\Fotos Colegio\Valores Colegio 1,50 MB 29-07-2011 18:32
:54
espiritualidad 2.JPG
F:\TRABAJOS\Colegios\Fundacion Arturo Merino Benitez\Age
ndas\Agenda 2012\Loreto\Valores Colegio 1,50 MB 29-07-2011 18:32:54
----------------------------------------------------------------------------------------------------------------------------------------------------espiritualidad 3.JPG
F:\TRABAJOS\Colegios\Fundacion Arturo Merino Benitez\Age
ndas\Agenda 2012\Loreto\Fotos Colegio\Valores Colegio 1,64 MB 30-07-2011 6:52:
04
espiritualidad 3.JPG
F:\TRABAJOS\Colegios\Fundacion Arturo Merino Benitez\Age
ndas\Agenda 2012\Loreto\Valores Colegio 1,64 MB 30-07-2011 6:52:04
----------------------------------------------------------------------------------------------------------------------------------------------------espiritualidad 8.JPG
F:\TRABAJOS\Colegios\Fundacion Arturo Merino Benitez\Age
ndas\Agenda 2012\Loreto\Fotos Colegio\Valores Colegio 1,07 MB 01-04-2011 13:02
:48
espiritualidad 8.JPG
F:\TRABAJOS\Colegios\Fundacion Arturo Merino Benitez\Age
ndas\Agenda 2012\Loreto\Valores Colegio 1,07 MB 01-04-2011 13:02:48
----------------------------------------------------------------------------------------------------------------------------------------------------espiritualidad.JPG
F:\TRABAJOS\Colegios\Fundacion Arturo Merino Benitez\Age
ndas\Agenda 2012\Loreto\Fotos Colegio\Valores Colegio 2,41 MB 06-10-2011 12:02
:48
espiritualidad.JPG
F:\TRABAJOS\Colegios\Fundacion Arturo Merino Benitez\Age
ndas\Agenda 2012\Loreto\Valores Colegio 2,41 MB 06-10-2011 12:02:48
----------------------------------------------------------------------------------------------------------------------------------------------------obra 7.JPG
F:\TRABAJOS\Colegios\Fundacion Arturo Merino Benitez\Agendas\Age
nda 2012\Loreto\Fotos Colegio\Valores Colegio 2,76 MB 28-04-2011 15:47:50
obra 7.JPG
F:\TRABAJOS\Colegios\Fundacion Arturo Merino Benitez\Agendas\Age
nda 2012\Loreto\Valores Colegio 2,76 MB 28-04-2011 15:47:50
----------------------------------------------------------------------------------------------------------------------------------------------------patriotismo 2.JPG
F:\TRABAJOS\Colegios\Fundacion Arturo Merino Benitez\Age
ndas\Agenda 2012\Loreto\Fotos Colegio\Valores Colegio 2,65 MB 16-09-2011 11:49
:56
patriotismo 2.JPG
F:\TRABAJOS\Colegios\Fundacion Arturo Merino Benitez\Age
ndas\Agenda 2012\Loreto\Valores Colegio 2,65 MB 16-09-2011 11:49:56
----------------------------------------------------------------------------------------------------------------------------------------------------patriotismo 4.JPG
F:\TRABAJOS\Colegios\Fundacion Arturo Merino Benitez\Age

ndas\Agenda 2012\Loreto\Fotos Colegio\Valores Colegio 2,75 MB 14-09-2011 19:01


:24
patriotismo 4.JPG
F:\TRABAJOS\Colegios\Fundacion Arturo Merino Benitez\Age
ndas\Agenda 2012\Loreto\Valores Colegio 2,75 MB 14-09-2011 19:01:24
----------------------------------------------------------------------------------------------------------------------------------------------------patriotismo 5.JPG
F:\TRABAJOS\Colegios\Fundacion Arturo Merino Benitez\Age
ndas\Agenda 2012\Loreto\Fotos Colegio\Valores Colegio 2,29 MB 15-09-2011 12:38
:32
patriotismo 5.JPG
F:\TRABAJOS\Colegios\Fundacion Arturo Merino Benitez\Age
ndas\Agenda 2012\Loreto\Valores Colegio 2,29 MB 15-09-2011 12:38:32
----------------------------------------------------------------------------------------------------------------------------------------------------patriotismo.JPG F:\TRABAJOS\Colegios\Fundacion Arturo Merino Benitez\Agendas\Age
nda 2012\Loreto\Fotos Colegio\Valores Colegio 2,57 MB 16-09-2011 11:53:38
patriotismo.JPG F:\TRABAJOS\Colegios\Fundacion Arturo Merino Benitez\Agendas\Age
nda 2012\Loreto\Valores Colegio 2,57 MB 16-09-2011 11:53:38
----------------------------------------------------------------------------------------------------------------------------------------------------solidaridad 2.JPG
F:\TRABAJOS\Colegios\Fundacion Arturo Merino Benitez\Age
ndas\Agenda 2012\Loreto\Fotos Colegio\Valores Colegio 2,47 MB 06-05-2011 18:29
:26
solidaridad 2.JPG
F:\TRABAJOS\Colegios\Fundacion Arturo Merino Benitez\Age
ndas\Agenda 2012\Loreto\Valores Colegio 2,47 MB 06-05-2011 18:29:26
----------------------------------------------------------------------------------------------------------------------------------------------------solidaridad 3.JPG
F:\TRABAJOS\Colegios\Fundacion Arturo Merino Benitez\Age
ndas\Agenda 2012\Loreto\Fotos Colegio\Valores Colegio 2,44 MB 12-05-2011 18:51
:18
solidaridad 3.JPG
F:\TRABAJOS\Colegios\Fundacion Arturo Merino Benitez\Age
ndas\Agenda 2012\Loreto\Valores Colegio 2,44 MB 12-05-2011 18:51:18
----------------------------------------------------------------------------------------------------------------------------------------------------solidaridad 5.JPG
F:\TRABAJOS\Colegios\Fundacion Arturo Merino Benitez\Age
ndas\Agenda 2012\Loreto\Fotos Colegio\Valores Colegio 1,74 MB 29-07-2011 18:43
:20
solidaridad 5.JPG
F:\TRABAJOS\Colegios\Fundacion Arturo Merino Benitez\Age
ndas\Agenda 2012\Loreto\Valores Colegio 1,74 MB 29-07-2011 18:43:20
----------------------------------------------------------------------------------------------------------------------------------------------------solidaridad.JPG F:\TRABAJOS\Colegios\Fundacion Arturo Merino Benitez\Agendas\Age
nda 2012\Loreto\Fotos Colegio\Valores Colegio 2,60 MB 06-05-2011 18:16:52
solidaridad.JPG F:\TRABAJOS\Colegios\Fundacion Arturo Merino Benitez\Agendas\Age
nda 2012\Loreto\Valores Colegio 2,60 MB 06-05-2011 18:16:52
----------------------------------------------------------------------------------------------------------------------------------------------------universalidad 2.JPG
F:\TRABAJOS\Colegios\Fundacion Arturo Merino Benitez\Age
ndas\Agenda 2012\Loreto\Fotos Colegio\Valores Colegio 2,25 MB 11-10-2011 17:42
:26
universalidad 2.JPG
F:\TRABAJOS\Colegios\Fundacion Arturo Merino Benitez\Age
ndas\Agenda 2012\Loreto\Valores Colegio 2,25 MB 11-10-2011 17:42:26
----------------------------------------------------------------------------------------------------------------------------------------------------universalidad 3.JPG
F:\TRABAJOS\Colegios\Fundacion Arturo Merino Benitez\Age
ndas\Agenda 2012\Loreto\Fotos Colegio\Valores Colegio 2,48 MB 09-05-2011 17:02
:24
universalidad 3.JPG
F:\TRABAJOS\Colegios\Fundacion Arturo Merino Benitez\Age
ndas\Agenda 2012\Loreto\Valores Colegio 2,48 MB 09-05-2011 17:02:24
-----------------------------------------------------------------------------------------------------------------------------------------------------

universalidad.JPG
F:\TRABAJOS\Colegios\Fundacion Arturo Merino Benitez\Age
ndas\Agenda 2012\Loreto\Fotos Colegio\Valores Colegio 2,55 MB 05-10-2011 18:31
:28
universalidad.JPG
F:\TRABAJOS\Colegios\Fundacion Arturo Merino Benitez\Age
ndas\Agenda 2012\Loreto\Valores Colegio 2,55 MB 05-10-2011 18:31:28
----------------------------------------------------------------------------------------------------------------------------------------------------001.jpg F:\TRABAJOS\Colegios\Fundacion Arturo Merino Benitez\Agendas\Agenda 2013
\Tapas Tantauco 23,5 MB 05-11-2012 13:37:11
001.jpg F:\TRABAJOS\Colegios\Fundacion Arturo Merino Benitez\Agendas\Agenda 2013
\Tapas Tantauco\Nueva carpeta 23,5 MB 05-11-2012 13:37:11
----------------------------------------------------------------------------------------------------------------------------------------------------002-1.jpg
F:\TRABAJOS\Colegios\Fundacion Arturo Merino Benitez\Agendas\Age
nda 2013\Tapas Tantauco 17,8 MB 02-10-2012 18:09:07
002-1.jpg
F:\TRABAJOS\Colegios\Fundacion Arturo Merino Benitez\Agendas\Age
nda 2013\Tapas Tantauco\Nueva carpeta 17,8 MB 02-10-2012 18:09:07
----------------------------------------------------------------------------------------------------------------------------------------------------002-2.jpg
F:\TRABAJOS\Colegios\Fundacion Arturo Merino Benitez\Agendas\Age
nda 2013\Tapas Tantauco 18,5 MB 02-10-2012 18:08:59
002-2.jpg
F:\TRABAJOS\Colegios\Fundacion Arturo Merino Benitez\Agendas\Age
nda 2013\Tapas Tantauco\Nueva carpeta 18,5 MB 02-10-2012 18:08:59
----------------------------------------------------------------------------------------------------------------------------------------------------003-1.jpg
F:\TRABAJOS\Colegios\Fundacion Arturo Merino Benitez\Agendas\Age
nda 2013\Tapas Tantauco 20,7 MB 02-10-2012 18:55:34
003-1.jpg
F:\TRABAJOS\Colegios\Fundacion Arturo Merino Benitez\Agendas\Age
nda 2013\Tapas Tantauco\Nueva carpeta 20,7 MB 02-10-2012 18:55:34
----------------------------------------------------------------------------------------------------------------------------------------------------003-2.jpg
F:\TRABAJOS\Colegios\Fundacion Arturo Merino Benitez\Agendas\Age
nda 2013\Tapas Tantauco 16,6 MB 02-10-2012 18:55:46
003-2.jpg
F:\TRABAJOS\Colegios\Fundacion Arturo Merino Benitez\Agendas\Age
nda 2013\Tapas Tantauco\Nueva carpeta 16,6 MB 02-10-2012 18:55:46
----------------------------------------------------------------------------------------------------------------------------------------------------004.jpg F:\TRABAJOS\Colegios\Fundacion Arturo Merino Benitez\Agendas\Agenda 2013
\Tapas Tantauco 20,1 MB 05-11-2012 13:39:19
004.jpg F:\TRABAJOS\Colegios\Fundacion Arturo Merino Benitez\Agendas\Agenda 2013
\Tapas Tantauco\Nueva carpeta 20,1 MB 05-11-2012 13:39:19
----------------------------------------------------------------------------------------------------------------------------------------------------Fondo 2.jpg
F:\TRABAJOS\Colegios\Fundacion Arturo Merino Benitez\Agendas\Age
nda 2013\Tapas Tantauco 4,67 MB 05-11-2012 13:16:27
Fondo 2.jpg
F:\TRABAJOS\Colegios\Fundacion Arturo Merino Benitez\Agendas\Age
nda 2013\Tapas Tantauco\Nueva carpeta 4,67 MB 05-11-2012 13:16:27
----------------------------------------------------------------------------------------------------------------------------------------------------Fondo Docentes2.jpg
F:\TRABAJOS\Colegios\Fundacion Arturo Merino Benitez\Age
ndas\Agenda 2013\Tapas Tantauco 4,64 MB 05-11-2012 13:15:26
Fondo Docentes2.jpg
F:\TRABAJOS\Colegios\Fundacion Arturo Merino Benitez\Age
ndas\Agenda 2013\Tapas Tantauco\Nueva carpeta 4,64 MB 05-11-2012 13:15:26
----------------------------------------------------------------------------------------------------------------------------------------------------Montaje Tapas Tantauco-01.jpg F:\TRABAJOS\Colegios\Fundacion Arturo Merino Ben
itez\Agendas\Agenda 2013\Tapas Tantauco 2,98 MB 05-11-2012 13:45:55
Montaje Tapas Tantauco-01.jpg F:\TRABAJOS\Colegios\Fundacion Arturo Merino Ben
itez\Agendas\Agenda 2013\Tapas Tantauco\Nueva carpeta 2,98 MB 05-11-2012 13:45
:55

----------------------------------------------------------------------------------------------------------------------------------------------------Montaje Tapas Tantauco.ai


F:\TRABAJOS\Colegios\Fundacion Arturo Merino Ben
itez\Agendas\Agenda 2013\Tapas Tantauco 1,68 MB 05-11-2012 13:47:37
Montaje Tapas Tantauco.ai
F:\TRABAJOS\Colegios\Fundacion Arturo Merino Ben
itez\Agendas\Agenda 2013\Tapas Tantauco\Nueva carpeta 1,68 MB 05-11-2012 13:47
:37
----------------------------------------------------------------------------------------------------------------------------------------------------col22.jpg
F:\TRABAJOS\Colegios\Fundacion Arturo Merino Benitez\Fundacion\R
evista Fundamentos
2,07 MB 02-09-2010 15:54:20
col22.jpg
F:\TRABAJOS\Colegios\Fundacion Arturo Merino Benitez\Nuestra seor
a de Loreto\2011\Fotos 2010
2,07 MB 02-09-2010 15:54:20
----------------------------------------------------------------------------------------------------------------------------------------------------col43.jpg
F:\TRABAJOS\Colegios\Fundacion Arturo Merino Benitez\Fundacion\R
evista Fundamentos
4,23 MB 02-09-2010 16:02:49
col43.jpg
F:\TRABAJOS\Colegios\Fundacion Arturo Merino Benitez\Nuestra seor
a de Loreto\2011\Agenda 2011 nuestra seora del loreto\FOTOS TAPA
4,23 MB 02-09-20
10 16:02:49
col43.jpg
F:\TRABAJOS\Colegios\Fundacion Arturo Merino Benitez\Nuestra seor
a de Loreto\2011\Fotos 2010
4,23 MB 02-09-2010 16:02:49
----------------------------------------------------------------------------------------------------------------------------------------------------col44.jpg
F:\TRABAJOS\Colegios\Fundacion Arturo Merino Benitez\Fundacion\R
evista Fundamentos
4,09 MB 02-09-2010 16:03:25
col44.jpg
F:\TRABAJOS\Colegios\Fundacion Arturo Merino Benitez\Nuestra seor
a de Loreto\2011\Fotos 2010
4,09 MB 02-09-2010 16:03:25
----------------------------------------------------------------------------------------------------------------------------------------------------DSC05675.jpg
F:\TRABAJOS\Colegios\Fundacion Arturo Merino Benitez\Fundacion\R
evista Fundamentos
2,41 MB 23-09-2010 22:27:01
DSC05675.jpg
F:\TRABAJOS\Colegios\Fundacion Arturo Merino Benitez\Tantauco\20
11\fotos tantauco 2011\camara\sirven
2,41 MB 23-09-2010 22:27:01
----------------------------------------------------------------------------------------------------------------------------------------------------IMG_8125.jpg
F:\TRABAJOS\Colegios\Fundacion Arturo Merino Benitez\Fundacion\R
evista Fundamentos
1,69 MB 10-08-2010 17:54:26
IMG_8125.jpg
F:\TRABAJOS\Colegios\Fundacion Arturo Merino Benitez\Tantauco\20
11\fotos volante\Nueva carpeta 1,69 MB 10-08-2010 17:54:26
IMG_8125.jpg
F:\TRABAJOS\Colegios\Fundacion Arturo Merino Benitez\Tantauco\20
14\Nueva carpeta
1,69 MB 10-08-2010 17:54:26
----------------------------------------------------------------------------------------------------------------------------------------------------IMG_8160.jpg
F:\TRABAJOS\Colegios\Fundacion Arturo Merino Benitez\Fundacion\R
evista Fundamentos
3,92 MB 10-08-2010 18:08:05
IMG_8160.jpg
F:\TRABAJOS\Colegios\Fundacion Arturo Merino Benitez\Tantauco\20
11\fotos volante\Nueva carpeta 3,92 MB 10-08-2010 18:08:05
IMG_8160.jpg
F:\TRABAJOS\Colegios\Fundacion Arturo Merino Benitez\Tantauco\20
14\Nueva carpeta
3,92 MB 10-08-2010 18:08:05
----------------------------------------------------------------------------------------------------------------------------------------------------IMG_8234.jpg
F:\TRABAJOS\Colegios\Fundacion Arturo Merino Benitez\Fundacion\R
evista Fundamentos
3,38 MB 10-08-2010 18:46:22
IMG_8234.jpg
F:\TRABAJOS\Colegios\Fundacion Arturo Merino Benitez\Tantauco\20
11\fotos volante\Nueva carpeta 3,38 MB 10-08-2010 18:46:22
IMG_8234.jpg
F:\TRABAJOS\Colegios\Fundacion Arturo Merino Benitez\Tantauco\20
14\Nueva carpeta
3,38 MB 10-08-2010 18:46:22
-----------------------------------------------------------------------------------------------------------------------------------------------------

IMG_8263.jpg
F:\TRABAJOS\Colegios\Fundacion Arturo Merino Benitez\Fundacion\R
evista Fundamentos
3,41 MB 10-08-2010 18:55:56
IMG_8263.jpg
F:\TRABAJOS\Colegios\Fundacion Arturo Merino Benitez\Tantauco\20
11\fotos volante\Nueva carpeta 3,41 MB 10-08-2010 18:55:56
IMG_8263.jpg
F:\TRABAJOS\Colegios\Fundacion Arturo Merino Benitez\Tantauco\20
14\Nueva carpeta
3,41 MB 10-08-2010 18:55:56
----------------------------------------------------------------------------------------------------------------------------------------------------IMG_1048.JPG
F:\TRABAJOS\Colegios\Fundacion Arturo Merino Benitez
2,49 MB
10-10-2012 12:40:18
IMG_1048.JPG
F:\TRABAJOS\Colegios\Fundacion Arturo Merino Benitez\Tantauco\20
12\Anuario\Paginas\10_10_2012_-_Feria_Cientfica
2,49 MB 10-10-2012 12:40:18
----------------------------------------------------------------------------------------------------------------------------------------------------potada1.jpg
F:\TRABAJOS\Colegios\Fundacion Arturo Merino Benitez\Nuestra seor
a de Loreto\2011\Agenda 2011 nuestra seora del loreto\Agenda 2011
11,7 MB
14-09-2010 22:52:45
potada1.jpg
F:\TRABAJOS\Colegios\Fundacion Arturo Merino Benitez\Nuestra seor
a de Loreto\2011\Agenda 2011 nuestra seora del loreto\FOTOS TAPA
11,7 MB 14-09-20
10 22:52:45
----------------------------------------------------------------------------------------------------------------------------------------------------potada4.jpg
F:\TRABAJOS\Colegios\Fundacion Arturo Merino Benitez\Nuestra seor
a de Loreto\2011\Agenda 2011 nuestra seora del loreto\Agenda 2011
12,9 MB
14-09-2010 23:10:27
potada4.jpg
F:\TRABAJOS\Colegios\Fundacion Arturo Merino Benitez\Nuestra seor
a de Loreto\2011\Agenda 2011 nuestra seora del loreto\FOTOS TAPA
12,9 MB 14-09-20
10 23:10:27
----------------------------------------------------------------------------------------------------------------------------------------------------col11.jpg
F:\TRABAJOS\Colegios\Fundacion Arturo Merino Benitez\Nuestra seor
a de Loreto\2011\Agenda 2011 nuestra seora del loreto 5,84 MB 15-09-2010 16:22
:33
col11.jpg
F:\TRABAJOS\Colegios\Fundacion Arturo Merino Benitez\Nuestra seor
a de Loreto\2011\Agenda 2011 nuestra seora del loreto\FOTOS TAPA
5,84 MB 15-09-20
10 16:22:33
----------------------------------------------------------------------------------------------------------------------------------------------------col4.jpg
F:\TRABAJOS\Colegios\Fundacion Arturo Merino Benitez\Nuestra seor
a de Loreto\2011\Agenda 2011 nuestra seora del loreto 5,60 MB 15-09-2010 16:42
:30
col4.jpg
F:\TRABAJOS\Colegios\Fundacion Arturo Merino Benitez\Nuestra seor
a de Loreto\2011\Agenda 2011 nuestra seora del loreto\FOTOS TAPA
5,60 MB 15-09-20
10 16:42:30
----------------------------------------------------------------------------------------------------------------------------------------------------col15.jpg
F:\TRABAJOS\Colegios\Fundacion Arturo Merino Benitez\Nuestra seor
a de Loreto\2011\Agenda 2011 nuestra seora del loreto\FOTOS TAPA
4,84 MB 02-09-20
10 15:40:14
col15.jpg
F:\TRABAJOS\Colegios\Fundacion Arturo Merino Benitez\Nuestra seor
a de Loreto\2011\Fotos 2010
4,84 MB 02-09-2010 15:40:14
----------------------------------------------------------------------------------------------------------------------------------------------------col19.jpg
F:\TRABAJOS\Colegios\Fundacion Arturo Merino Benitez\Nuestra seor
a de Loreto\2011\Agenda 2011 nuestra seora del loreto\FOTOS TAPA
3,12 MB 02-09-20
10 15:52:14
col19.jpg
F:\TRABAJOS\Colegios\Fundacion Arturo Merino Benitez\Nuestra seor
a de Loreto\2011\Fotos 2010
3,12 MB 02-09-2010 15:52:14
-----------------------------------------------------------------------------------------------------------------------------------------------------

col24 - 2.jpg F:\TRABAJOS\Colegios\Fundacion Arturo Merino Benitez\Nuestra seor


a de Loreto\2011\Agenda 2011 nuestra seora del loreto\FOTOS TAPA
2,09 MB 02-09-20
10 15:55:33
col24 - 2.jpg F:\TRABAJOS\Colegios\Fundacion Arturo Merino Benitez\Nuestra seor
a de Loreto\2011\Fotos 2010
2,09 MB 02-09-2010 15:55:33
----------------------------------------------------------------------------------------------------------------------------------------------------col6-2.jpg
F:\TRABAJOS\Colegios\Fundacion Arturo Merino Benitez\Nuestra seor
a de Loreto\2011\Agenda 2011 nuestra seora del loreto\FOTOS TAPA
3,07 MB 02-09-20
10 16:46:52
col6-2.jpg
F:\TRABAJOS\Colegios\Fundacion Arturo Merino Benitez\Nuestra seor
a de Loreto\2011\Fotos 2010
3,07 MB 02-09-2010 16:46:52
----------------------------------------------------------------------------------------------------------------------------------------------------col8.jpg
F:\TRABAJOS\Colegios\Fundacion Arturo Merino Benitez\Nuestra seor
a de Loreto\2011\Agenda 2011 nuestra seora del loreto\FOTOS TAPA
4,00 MB 02-09-20
10 15:23:41
col8.jpg
F:\TRABAJOS\Colegios\Fundacion Arturo Merino Benitez\Nuestra seor
a de Loreto\2011\Fotos 2010
4,00 MB 02-09-2010 15:23:41
----------------------------------------------------------------------------------------------------------------------------------------------------DSC07759.JPG
F:\TRABAJOS\Colegios\Fundacion Arturo Merino Benitez\Tantauco\20
10\Fotos 2010\Ok - 1 Semestre\paseo del vino 5-5-2010 3,05 MB 06-05-2010 2:38:
48
DSC07759.JPG
F:\TRABAJOS\Colegios\Fundacion Arturo Merino Benitez\Tantauco\20
10\Fotos 2010\Salida Pedagogica\Salida edc
3,05 MB 06-05-2010 2:38:48
----------------------------------------------------------------------------------------------------------------------------------------------------DSC07760.JPG
F:\TRABAJOS\Colegios\Fundacion Arturo Merino Benitez\Tantauco\20
10\Fotos 2010\Ok - 1 Semestre\paseo del vino 5-5-2010 3,04 MB 06-05-2010 2:40:
12
DSC07760.JPG
F:\TRABAJOS\Colegios\Fundacion Arturo Merino Benitez\Tantauco\20
10\Fotos 2010\Salida Pedagogica\Salida edc
3,04 MB 06-05-2010 2:40:12
----------------------------------------------------------------------------------------------------------------------------------------------------DSC07761.JPG
F:\TRABAJOS\Colegios\Fundacion Arturo Merino Benitez\Tantauco\20
10\Fotos 2010\Ok - 1 Semestre\paseo del vino 5-5-2010 3,04 MB 06-05-2010 2:42:
32
DSC07761.JPG
F:\TRABAJOS\Colegios\Fundacion Arturo Merino Benitez\Tantauco\20
10\Fotos 2010\Salida Pedagogica\Salida edc
3,04 MB 06-05-2010 2:42:32
----------------------------------------------------------------------------------------------------------------------------------------------------DSC07762.JPG
F:\TRABAJOS\Colegios\Fundacion Arturo Merino Benitez\Tantauco\20
10\Fotos 2010\Ok - 1 Semestre\paseo del vino 5-5-2010 3,01 MB 06-05-2010 2:52:
58
DSC07762.JPG
F:\TRABAJOS\Colegios\Fundacion Arturo Merino Benitez\Tantauco\20
10\Fotos 2010\Salida Pedagogica\Salida edc
3,01 MB 06-05-2010 2:52:58
----------------------------------------------------------------------------------------------------------------------------------------------------DSC07763.JPG
F:\TRABAJOS\Colegios\Fundacion Arturo Merino Benitez\Tantauco\20
10\Fotos 2010\Ok - 1 Semestre\paseo del vino 5-5-2010 2,98 MB 06-05-2010 2:53:
22
DSC07763.JPG
F:\TRABAJOS\Colegios\Fundacion Arturo Merino Benitez\Tantauco\20
10\Fotos 2010\Salida Pedagogica\Salida edc
2,98 MB 06-05-2010 2:53:22
----------------------------------------------------------------------------------------------------------------------------------------------------DSC07764.JPG
F:\TRABAJOS\Colegios\Fundacion Arturo Merino Benitez\Tantauco\20
10\Fotos 2010\Ok - 1 Semestre\paseo del vino 5-5-2010 2,79 MB 06-05-2010 2:54:
24
DSC07764.JPG
F:\TRABAJOS\Colegios\Fundacion Arturo Merino Benitez\Tantauco\20

10\Fotos 2010\Salida Pedagogica\Salida edc


2,79 MB 06-05-2010 2:54:24
----------------------------------------------------------------------------------------------------------------------------------------------------DSC07765.JPG
F:\TRABAJOS\Colegios\Fundacion Arturo Merino Benitez\Tantauco\20
10\Fotos 2010\Ok - 1 Semestre\paseo del vino 5-5-2010 2,99 MB 06-05-2010 3:38:
08
DSC07765.JPG
F:\TRABAJOS\Colegios\Fundacion Arturo Merino Benitez\Tantauco\20
10\Fotos 2010\Salida Pedagogica\Salida edc
2,99 MB 06-05-2010 3:38:08
----------------------------------------------------------------------------------------------------------------------------------------------------DSC07767.JPG
F:\TRABAJOS\Colegios\Fundacion Arturo Merino Benitez\Tantauco\20
10\Fotos 2010\Ok - 1 Semestre\paseo del vino 5-5-2010 2,96 MB 06-05-2010 3:48:
38
DSC07767.JPG
F:\TRABAJOS\Colegios\Fundacion Arturo Merino Benitez\Tantauco\20
10\Fotos 2010\Salida Pedagogica\Salida edc
2,96 MB 06-05-2010 3:48:38
----------------------------------------------------------------------------------------------------------------------------------------------------DSC07769.JPG
F:\TRABAJOS\Colegios\Fundacion Arturo Merino Benitez\Tantauco\20
10\Fotos 2010\Ok - 1 Semestre\paseo del vino 5-5-2010 3,05 MB 06-05-2010 4:27:
44
DSC07769.JPG
F:\TRABAJOS\Colegios\Fundacion Arturo Merino Benitez\Tantauco\20
10\Fotos 2010\Salida Pedagogica\Salida edc
3,05 MB 06-05-2010 4:27:44
----------------------------------------------------------------------------------------------------------------------------------------------------DSC07770.JPG
F:\TRABAJOS\Colegios\Fundacion Arturo Merino Benitez\Tantauco\20
10\Fotos 2010\Ok - 1 Semestre\paseo del vino 5-5-2010 2,99 MB 06-05-2010 4:28:
18
DSC07770.JPG
F:\TRABAJOS\Colegios\Fundacion Arturo Merino Benitez\Tantauco\20
10\Fotos 2010\Salida Pedagogica\Salida edc
2,99 MB 06-05-2010 4:28:18
----------------------------------------------------------------------------------------------------------------------------------------------------DSC07771.JPG
F:\TRABAJOS\Colegios\Fundacion Arturo Merino Benitez\Tantauco\20
10\Fotos 2010\Ok - 1 Semestre\paseo del vino 5-5-2010 2,94 MB 06-05-2010 4:32:
30
DSC07771.JPG
F:\TRABAJOS\Colegios\Fundacion Arturo Merino Benitez\Tantauco\20
10\Fotos 2010\Salida Pedagogica\Salida edc
2,94 MB 06-05-2010 4:32:30
----------------------------------------------------------------------------------------------------------------------------------------------------DSC07772.JPG
F:\TRABAJOS\Colegios\Fundacion Arturo Merino Benitez\Tantauco\20
10\Fotos 2010\Ok - 1 Semestre\paseo del vino 5-5-2010 3,04 MB 06-05-2010 4:35:
42
DSC07772.JPG
F:\TRABAJOS\Colegios\Fundacion Arturo Merino Benitez\Tantauco\20
10\Fotos 2010\Salida Pedagogica\Salida edc
3,04 MB 06-05-2010 4:35:42
----------------------------------------------------------------------------------------------------------------------------------------------------DSC07774.JPG
F:\TRABAJOS\Colegios\Fundacion Arturo Merino Benitez\Tantauco\20
10\Fotos 2010\Ok - 1 Semestre\paseo del vino 5-5-2010 3,11 MB 06-05-2010 4:43:
46
DSC07774.JPG
F:\TRABAJOS\Colegios\Fundacion Arturo Merino Benitez\Tantauco\20
10\Fotos 2010\Salida Pedagogica\Salida edc
3,11 MB 06-05-2010 4:43:46
----------------------------------------------------------------------------------------------------------------------------------------------------DSC07775.JPG
F:\TRABAJOS\Colegios\Fundacion Arturo Merino Benitez\Tantauco\20
10\Fotos 2010\Ok - 1 Semestre\paseo del vino 5-5-2010 3,07 MB 06-05-2010 4:46:
50
DSC07775.JPG
F:\TRABAJOS\Colegios\Fundacion Arturo Merino Benitez\Tantauco\20
10\Fotos 2010\Salida Pedagogica\Salida edc
3,07 MB 06-05-2010 4:46:50
----------------------------------------------------------------------------------------------------------------------------------------------------DSC07776.JPG
F:\TRABAJOS\Colegios\Fundacion Arturo Merino Benitez\Tantauco\20

10\Fotos 2010\Ok - 1 Semestre\paseo del vino 5-5-2010 2,94 MB 06-05-2010 4:48:


00
DSC07776.JPG
F:\TRABAJOS\Colegios\Fundacion Arturo Merino Benitez\Tantauco\20
10\Fotos 2010\Salida Pedagogica\Salida edc
2,94 MB 06-05-2010 4:48:00
----------------------------------------------------------------------------------------------------------------------------------------------------DSC07777.JPG
F:\TRABAJOS\Colegios\Fundacion Arturo Merino Benitez\Tantauco\20
10\Fotos 2010\Ok - 1 Semestre\paseo del vino 5-5-2010 2,78 MB 06-05-2010 5:11:
48
DSC07777.JPG
F:\TRABAJOS\Colegios\Fundacion Arturo Merino Benitez\Tantauco\20
10\Fotos 2010\Salida Pedagogica\Salida edc
2,78 MB 06-05-2010 5:11:48
----------------------------------------------------------------------------------------------------------------------------------------------------DSC07779.JPG
F:\TRABAJOS\Colegios\Fundacion Arturo Merino Benitez\Tantauco\20
10\Fotos 2010\Ok - 1 Semestre\paseo del vino 5-5-2010 3,01 MB 06-05-2010 5:12:
42
DSC07779.JPG
F:\TRABAJOS\Colegios\Fundacion Arturo Merino Benitez\Tantauco\20
10\Fotos 2010\Salida Pedagogica\Salida edc
3,01 MB 06-05-2010 5:12:42
----------------------------------------------------------------------------------------------------------------------------------------------------P3220137.JPG
F:\TRABAJOS\Colegios\Fundacion Arturo Merino Benitez\Tantauco\20
11\fotos\taltauco
4,55 MB 22-03-2010 15:08:30
P3220137.JPG
F:\TRABAJOS\Colegios\Novo\Novo Mundo\fotos 2010 4,55 MB 22-03-20
10 15:08:30
----------------------------------------------------------------------------------------------------------------------------------------------------P3220138.JPG
F:\TRABAJOS\Colegios\Fundacion Arturo Merino Benitez\Tantauco\20
11\fotos\taltauco
4,16 MB 22-03-2010 15:08:36
P3220138.JPG
F:\TRABAJOS\Colegios\Novo\Novo Mundo\fotos 2010 4,16 MB 22-03-20
10 15:08:36
----------------------------------------------------------------------------------------------------------------------------------------------------P3220139.JPG
F:\TRABAJOS\Colegios\Fundacion Arturo Merino Benitez\Tantauco\20
11\fotos\taltauco
4,68 MB 22-03-2010 15:08:46
P3220139.JPG
F:\TRABAJOS\Colegios\Novo\Novo Mundo\fotos 2010 4,68 MB 22-03-20
10 15:08:46
----------------------------------------------------------------------------------------------------------------------------------------------------P3220140.JPG
F:\TRABAJOS\Colegios\Fundacion Arturo Merino Benitez\Tantauco\20
11\fotos\taltauco
4,80 MB 22-03-2010 15:09:04
P3220140.JPG
F:\TRABAJOS\Colegios\Novo\Novo Mundo\fotos 2010 4,80 MB 22-03-20
10 15:09:04
----------------------------------------------------------------------------------------------------------------------------------------------------P3220141.JPG
F:\TRABAJOS\Colegios\Fundacion Arturo Merino Benitez\Tantauco\20
11\fotos\taltauco
4,59 MB 22-03-2010 15:09:22
P3220141.JPG
F:\TRABAJOS\Colegios\Novo\Novo Mundo\fotos 2010 4,59 MB 22-03-20
10 15:09:22
----------------------------------------------------------------------------------------------------------------------------------------------------P3220142.JPG
F:\TRABAJOS\Colegios\Fundacion Arturo Merino Benitez\Tantauco\20
11\fotos\taltauco
4,73 MB 22-03-2010 15:09:34
P3220142.JPG
F:\TRABAJOS\Colegios\Novo\Novo Mundo\fotos 2010 4,73 MB 22-03-20
10 15:09:34
----------------------------------------------------------------------------------------------------------------------------------------------------P3230143.JPG
F:\TRABAJOS\Colegios\Fundacion Arturo Merino Benitez\Tantauco\20
11\fotos\taltauco
4,60 MB 23-03-2010 15:12:16
P3230143.JPG
F:\TRABAJOS\Colegios\Fundacion Arturo Merino Benitez\Tantauco\20
11\Fotos tantauco CQ
4,60 MB 23-03-2010 15:12:16

----------------------------------------------------------------------------------------------------------------------------------------------------P3230144.JPG
F:\TRABAJOS\Colegios\Fundacion Arturo Merino Benitez\Tantauco\20
11\fotos\taltauco
4,37 MB 23-03-2010 15:12:26
P3230144.JPG
F:\TRABAJOS\Colegios\Fundacion Arturo Merino Benitez\Tantauco\20
11\Fotos tantauco CQ
4,37 MB 23-03-2010 15:12:26
----------------------------------------------------------------------------------------------------------------------------------------------------P3230145.JPG
F:\TRABAJOS\Colegios\Fundacion Arturo Merino Benitez\Tantauco\20
11\fotos\taltauco
4,32 MB 23-03-2010 15:12:34
P3230145.JPG
F:\TRABAJOS\Colegios\Fundacion Arturo Merino Benitez\Tantauco\20
11\Fotos tantauco CQ
4,32 MB 23-03-2010 15:12:34
----------------------------------------------------------------------------------------------------------------------------------------------------P3230147.JPG
F:\TRABAJOS\Colegios\Fundacion Arturo Merino Benitez\Tantauco\20
11\fotos\taltauco
4,58 MB 23-03-2010 15:13:00
P3230147.JPG
F:\TRABAJOS\Colegios\Fundacion Arturo Merino Benitez\Tantauco\20
11\Fotos tantauco CQ
4,58 MB 23-03-2010 15:13:00
----------------------------------------------------------------------------------------------------------------------------------------------------P3230148.JPG
F:\TRABAJOS\Colegios\Fundacion Arturo Merino Benitez\Tantauco\20
11\fotos\taltauco
4,04 MB 23-03-2010 15:13:48
P3230148.JPG
F:\TRABAJOS\Colegios\Fundacion Arturo Merino Benitez\Tantauco\20
11\Fotos tantauco CQ
4,04 MB 23-03-2010 15:13:48
----------------------------------------------------------------------------------------------------------------------------------------------------P3230149.JPG
F:\TRABAJOS\Colegios\Fundacion Arturo Merino Benitez\Tantauco\20
11\fotos\taltauco
4,40 MB 23-03-2010 15:14:08
P3230149.JPG
F:\TRABAJOS\Colegios\Fundacion Arturo Merino Benitez\Tantauco\20
11\Fotos tantauco CQ
4,40 MB 23-03-2010 15:14:08
----------------------------------------------------------------------------------------------------------------------------------------------------P3230150.JPG
F:\TRABAJOS\Colegios\Fundacion Arturo Merino Benitez\Tantauco\20
11\fotos\taltauco
4,56 MB 23-03-2010 15:14:26
P3230150.JPG
F:\TRABAJOS\Colegios\Fundacion Arturo Merino Benitez\Tantauco\20
11\Fotos tantauco CQ
4,56 MB 23-03-2010 15:14:26
----------------------------------------------------------------------------------------------------------------------------------------------------P3230151.JPG
F:\TRABAJOS\Colegios\Fundacion Arturo Merino Benitez\Tantauco\20
11\fotos\taltauco
4,32 MB 23-03-2010 15:14:36
P3230151.JPG
F:\TRABAJOS\Colegios\Fundacion Arturo Merino Benitez\Tantauco\20
11\Fotos tantauco CQ
4,32 MB 23-03-2010 15:14:36
----------------------------------------------------------------------------------------------------------------------------------------------------P3230152.JPG
F:\TRABAJOS\Colegios\Fundacion Arturo Merino Benitez\Tantauco\20
11\fotos\taltauco
4,99 MB 23-03-2010 15:14:46
P3230152.JPG
F:\TRABAJOS\Colegios\Fundacion Arturo Merino Benitez\Tantauco\20
11\Fotos tantauco CQ
4,99 MB 23-03-2010 15:14:46
----------------------------------------------------------------------------------------------------------------------------------------------------P3230153.JPG
F:\TRABAJOS\Colegios\Fundacion Arturo Merino Benitez\Tantauco\20
11\fotos\taltauco
3,64 MB 23-03-2010 15:14:56
P3230153.JPG
F:\TRABAJOS\Colegios\Fundacion Arturo Merino Benitez\Tantauco\20
11\Fotos tantauco CQ
3,64 MB 23-03-2010 15:14:56
----------------------------------------------------------------------------------------------------------------------------------------------------P3230154.JPG
F:\TRABAJOS\Colegios\Fundacion Arturo Merino Benitez\Tantauco\20
11\fotos\taltauco
3,62 MB 23-03-2010 15:19:48
P3230154.JPG
F:\TRABAJOS\Colegios\Fundacion Arturo Merino Benitez\Tantauco\20
11\Fotos tantauco CQ
3,62 MB 23-03-2010 15:19:48

----------------------------------------------------------------------------------------------------------------------------------------------------P3230155.JPG
F:\TRABAJOS\Colegios\Fundacion Arturo Merino Benitez\Tantauco\20
11\fotos\taltauco
3,66 MB 23-03-2010 15:20:00
P3230155.JPG
F:\TRABAJOS\Colegios\Fundacion Arturo Merino Benitez\Tantauco\20
11\Fotos tantauco CQ
3,66 MB 23-03-2010 15:20:00
----------------------------------------------------------------------------------------------------------------------------------------------------P3230160.JPG
F:\TRABAJOS\Colegios\Fundacion Arturo Merino Benitez\Tantauco\20
11\fotos\taltauco
4,66 MB 23-03-2010 15:22:14
P3230160.JPG
F:\TRABAJOS\Colegios\Fundacion Arturo Merino Benitez\Tantauco\20
11\Fotos tantauco CQ
4,66 MB 23-03-2010 15:22:14
----------------------------------------------------------------------------------------------------------------------------------------------------P3230161.JPG
F:\TRABAJOS\Colegios\Fundacion Arturo Merino Benitez\Tantauco\20
11\fotos\taltauco
3,64 MB 23-03-2010 15:23:26
P3230161.JPG
F:\TRABAJOS\Colegios\Fundacion Arturo Merino Benitez\Tantauco\20
11\Fotos tantauco CQ
3,64 MB 23-03-2010 15:23:26
----------------------------------------------------------------------------------------------------------------------------------------------------P3230162.JPG
F:\TRABAJOS\Colegios\Fundacion Arturo Merino Benitez\Tantauco\20
11\fotos\taltauco
4,33 MB 23-03-2010 15:23:40
P3230162.JPG
F:\TRABAJOS\Colegios\Fundacion Arturo Merino Benitez\Tantauco\20
11\Fotos tantauco CQ
4,33 MB 23-03-2010 15:23:40
----------------------------------------------------------------------------------------------------------------------------------------------------P3230163.JPG
F:\TRABAJOS\Colegios\Fundacion Arturo Merino Benitez\Tantauco\20
11\fotos\taltauco
4,94 MB 23-03-2010 15:23:56
P3230163.JPG
F:\TRABAJOS\Colegios\Fundacion Arturo Merino Benitez\Tantauco\20
11\Fotos tantauco CQ
4,94 MB 23-03-2010 15:23:56
----------------------------------------------------------------------------------------------------------------------------------------------------P3230164.JPG
F:\TRABAJOS\Colegios\Fundacion Arturo Merino Benitez\Tantauco\20
11\fotos\taltauco
4,69 MB 23-03-2010 15:27:04
P3230164.JPG
F:\TRABAJOS\Colegios\Fundacion Arturo Merino Benitez\Tantauco\20
11\Fotos tantauco CQ
4,69 MB 23-03-2010 15:27:04
----------------------------------------------------------------------------------------------------------------------------------------------------P3230165.JPG
F:\TRABAJOS\Colegios\Fundacion Arturo Merino Benitez\Tantauco\20
11\fotos\taltauco
4,28 MB 23-03-2010 15:27:30
P3230165.JPG
F:\TRABAJOS\Colegios\Fundacion Arturo Merino Benitez\Tantauco\20
11\Fotos tantauco CQ
4,28 MB 23-03-2010 15:27:30
----------------------------------------------------------------------------------------------------------------------------------------------------P3230168.JPG
F:\TRABAJOS\Colegios\Fundacion Arturo Merino Benitez\Tantauco\20
11\fotos\taltauco
3,94 MB 23-03-2010 15:29:04
P3230168.JPG
F:\TRABAJOS\Colegios\Fundacion Arturo Merino Benitez\Tantauco\20
11\Fotos tantauco CQ
3,94 MB 23-03-2010 15:29:04
----------------------------------------------------------------------------------------------------------------------------------------------------P3230169.JPG
F:\TRABAJOS\Colegios\Fundacion Arturo Merino Benitez\Tantauco\20
11\fotos\taltauco
4,36 MB 23-03-2010 15:29:12
P3230169.JPG
F:\TRABAJOS\Colegios\Fundacion Arturo Merino Benitez\Tantauco\20
11\Fotos tantauco CQ
4,36 MB 23-03-2010 15:29:12
----------------------------------------------------------------------------------------------------------------------------------------------------P3230171.JPG
F:\TRABAJOS\Colegios\Fundacion Arturo Merino Benitez\Tantauco\20
11\fotos\taltauco
4,25 MB 23-03-2010 15:29:34
P3230171.JPG
F:\TRABAJOS\Colegios\Fundacion Arturo Merino Benitez\Tantauco\20
11\Fotos tantauco CQ
4,25 MB 23-03-2010 15:29:34

----------------------------------------------------------------------------------------------------------------------------------------------------P3230173.JPG
F:\TRABAJOS\Colegios\Fundacion Arturo Merino Benitez\Tantauco\20
11\fotos\taltauco
3,67 MB 23-03-2010 15:32:08
P3230173.JPG
F:\TRABAJOS\Colegios\Fundacion Arturo Merino Benitez\Tantauco\20
11\Fotos tantauco CQ
3,67 MB 23-03-2010 15:32:08
----------------------------------------------------------------------------------------------------------------------------------------------------P3230174.JPG
F:\TRABAJOS\Colegios\Fundacion Arturo Merino Benitez\Tantauco\20
11\fotos\taltauco
3,89 MB 23-03-2010 15:32:42
P3230174.JPG
F:\TRABAJOS\Colegios\Fundacion Arturo Merino Benitez\Tantauco\20
11\Fotos tantauco CQ
3,89 MB 23-03-2010 15:32:42
----------------------------------------------------------------------------------------------------------------------------------------------------P3230175.JPG
F:\TRABAJOS\Colegios\Fundacion Arturo Merino Benitez\Tantauco\20
11\fotos\taltauco
3,56 MB 23-03-2010 15:33:52
P3230175.JPG
F:\TRABAJOS\Colegios\Fundacion Arturo Merino Benitez\Tantauco\20
11\Fotos tantauco CQ
3,56 MB 23-03-2010 15:33:52
----------------------------------------------------------------------------------------------------------------------------------------------------P3230176.JPG
F:\TRABAJOS\Colegios\Fundacion Arturo Merino Benitez\Tantauco\20
11\fotos\taltauco
3,68 MB 23-03-2010 15:33:56
P3230176.JPG
F:\TRABAJOS\Colegios\Fundacion Arturo Merino Benitez\Tantauco\20
11\Fotos tantauco CQ
3,68 MB 23-03-2010 15:33:56
----------------------------------------------------------------------------------------------------------------------------------------------------P3230177.JPG
F:\TRABAJOS\Colegios\Fundacion Arturo Merino Benitez\Tantauco\20
11\fotos\taltauco
4,50 MB 23-03-2010 15:34:08
P3230177.JPG
F:\TRABAJOS\Colegios\Fundacion Arturo Merino Benitez\Tantauco\20
11\Fotos tantauco CQ
4,50 MB 23-03-2010 15:34:08
----------------------------------------------------------------------------------------------------------------------------------------------------P3230178.JPG
F:\TRABAJOS\Colegios\Fundacion Arturo Merino Benitez\Tantauco\20
11\fotos\taltauco
4,71 MB 23-03-2010 15:34:16
P3230178.JPG
F:\TRABAJOS\Colegios\Fundacion Arturo Merino Benitez\Tantauco\20
11\Fotos tantauco CQ
4,71 MB 23-03-2010 15:34:16
----------------------------------------------------------------------------------------------------------------------------------------------------P3230179.JPG
F:\TRABAJOS\Colegios\Fundacion Arturo Merino Benitez\Tantauco\20
11\fotos\taltauco
4,20 MB 23-03-2010 15:34:24
P3230179.JPG
F:\TRABAJOS\Colegios\Fundacion Arturo Merino Benitez\Tantauco\20
11\Fotos tantauco CQ
4,20 MB 23-03-2010 15:34:24
----------------------------------------------------------------------------------------------------------------------------------------------------P3230180.JPG
F:\TRABAJOS\Colegios\Fundacion Arturo Merino Benitez\Tantauco\20
11\fotos\taltauco
4,67 MB 23-03-2010 15:40:54
P3230180.JPG
F:\TRABAJOS\Colegios\Fundacion Arturo Merino Benitez\Tantauco\20
11\Fotos tantauco CQ
4,67 MB 23-03-2010 15:40:54
----------------------------------------------------------------------------------------------------------------------------------------------------P3230181.JPG
F:\TRABAJOS\Colegios\Fundacion Arturo Merino Benitez\Tantauco\20
11\fotos\taltauco
3,64 MB 23-03-2010 15:41:10
P3230181.JPG
F:\TRABAJOS\Colegios\Fundacion Arturo Merino Benitez\Tantauco\20
11\Fotos tantauco CQ
3,64 MB 23-03-2010 15:41:10
----------------------------------------------------------------------------------------------------------------------------------------------------P3230182.JPG
F:\TRABAJOS\Colegios\Fundacion Arturo Merino Benitez\Tantauco\20
11\fotos\taltauco
4,49 MB 23-03-2010 15:41:18
P3230182.JPG
F:\TRABAJOS\Colegios\Fundacion Arturo Merino Benitez\Tantauco\20
11\Fotos tantauco CQ
4,49 MB 23-03-2010 15:41:18

----------------------------------------------------------------------------------------------------------------------------------------------------P3230183.JPG
F:\TRABAJOS\Colegios\Fundacion Arturo Merino Benitez\Tantauco\20
11\fotos\taltauco
3,89 MB 23-03-2010 15:44:22
P3230183.JPG
F:\TRABAJOS\Colegios\Fundacion Arturo Merino Benitez\Tantauco\20
11\Fotos tantauco CQ
3,89 MB 23-03-2010 15:44:22
----------------------------------------------------------------------------------------------------------------------------------------------------P3230184.JPG
F:\TRABAJOS\Colegios\Fundacion Arturo Merino Benitez\Tantauco\20
11\fotos\taltauco
3,61 MB 23-03-2010 15:44:36
P3230184.JPG
F:\TRABAJOS\Colegios\Fundacion Arturo Merino Benitez\Tantauco\20
11\Fotos tantauco CQ
3,61 MB 23-03-2010 15:44:36
----------------------------------------------------------------------------------------------------------------------------------------------------P3230186.JPG
F:\TRABAJOS\Colegios\Fundacion Arturo Merino Benitez\Tantauco\20
11\fotos\taltauco
3,78 MB 23-03-2010 15:46:08
P3230186.JPG
F:\TRABAJOS\Colegios\Fundacion Arturo Merino Benitez\Tantauco\20
11\Fotos tantauco CQ
3,78 MB 23-03-2010 15:46:08
----------------------------------------------------------------------------------------------------------------------------------------------------P3230187.JPG
F:\TRABAJOS\Colegios\Fundacion Arturo Merino Benitez\Tantauco\20
11\fotos\taltauco
3,59 MB 23-03-2010 15:46:20
P3230187.JPG
F:\TRABAJOS\Colegios\Fundacion Arturo Merino Benitez\Tantauco\20
11\Fotos tantauco CQ
3,59 MB 23-03-2010 15:46:20
----------------------------------------------------------------------------------------------------------------------------------------------------P3230188.JPG
F:\TRABAJOS\Colegios\Fundacion Arturo Merino Benitez\Tantauco\20
11\fotos\taltauco
4,92 MB 23-03-2010 15:50:08
P3230188.JPG
F:\TRABAJOS\Colegios\Fundacion Arturo Merino Benitez\Tantauco\20
11\Fotos tantauco CQ
4,92 MB 23-03-2010 15:50:08
----------------------------------------------------------------------------------------------------------------------------------------------------P3230189.JPG
F:\TRABAJOS\Colegios\Fundacion Arturo Merino Benitez\Tantauco\20
11\fotos\taltauco
4,32 MB 23-03-2010 15:51:36
P3230189.JPG
F:\TRABAJOS\Colegios\Fundacion Arturo Merino Benitez\Tantauco\20
11\Fotos tantauco CQ
4,32 MB 23-03-2010 15:51:36
----------------------------------------------------------------------------------------------------------------------------------------------------P3230190.JPG
F:\TRABAJOS\Colegios\Fundacion Arturo Merino Benitez\Tantauco\20
11\fotos\taltauco
4,60 MB 23-03-2010 15:51:48
P3230190.JPG
F:\TRABAJOS\Colegios\Fundacion Arturo Merino Benitez\Tantauco\20
11\Fotos tantauco CQ
4,60 MB 23-03-2010 15:51:48
----------------------------------------------------------------------------------------------------------------------------------------------------P3230191.JPG
F:\TRABAJOS\Colegios\Fundacion Arturo Merino Benitez\Tantauco\20
11\fotos\taltauco
4,03 MB 23-03-2010 15:51:58
P3230191.JPG
F:\TRABAJOS\Colegios\Fundacion Arturo Merino Benitez\Tantauco\20
11\Fotos tantauco CQ
4,03 MB 23-03-2010 15:51:58
----------------------------------------------------------------------------------------------------------------------------------------------------P3230192.JPG
F:\TRABAJOS\Colegios\Fundacion Arturo Merino Benitez\Tantauco\20
11\fotos\taltauco
4,42 MB 23-03-2010 16:24:06
P3230192.JPG
F:\TRABAJOS\Colegios\Fundacion Arturo Merino Benitez\Tantauco\20
11\Fotos tantauco CQ
4,42 MB 23-03-2010 16:24:06
----------------------------------------------------------------------------------------------------------------------------------------------------P3230193.JPG
F:\TRABAJOS\Colegios\Fundacion Arturo Merino Benitez\Tantauco\20
11\fotos\taltauco
4,39 MB 23-03-2010 16:24:34
P3230193.JPG
F:\TRABAJOS\Colegios\Fundacion Arturo Merino Benitez\Tantauco\20
11\Fotos tantauco CQ
4,39 MB 23-03-2010 16:24:34

----------------------------------------------------------------------------------------------------------------------------------------------------P3230194.JPG
F:\TRABAJOS\Colegios\Fundacion Arturo Merino Benitez\Tantauco\20
11\fotos\taltauco
4,41 MB 23-03-2010 16:24:42
P3230194.JPG
F:\TRABAJOS\Colegios\Fundacion Arturo Merino Benitez\Tantauco\20
11\Fotos tantauco CQ
4,41 MB 23-03-2010 16:24:42
----------------------------------------------------------------------------------------------------------------------------------------------------P3230195.JPG
F:\TRABAJOS\Colegios\Fundacion Arturo Merino Benitez\Tantauco\20
11\fotos\taltauco
4,85 MB 23-03-2010 16:28:12
P3230195.JPG
F:\TRABAJOS\Colegios\Fundacion Arturo Merino Benitez\Tantauco\20
11\Fotos tantauco CQ
4,85 MB 23-03-2010 16:28:12
----------------------------------------------------------------------------------------------------------------------------------------------------P3230196.JPG
F:\TRABAJOS\Colegios\Fundacion Arturo Merino Benitez\Tantauco\20
11\fotos\taltauco
4,89 MB 23-03-2010 16:28:18
P3230196.JPG
F:\TRABAJOS\Colegios\Fundacion Arturo Merino Benitez\Tantauco\20
11\Fotos tantauco CQ
4,89 MB 23-03-2010 16:28:18
----------------------------------------------------------------------------------------------------------------------------------------------------P3230197.JPG
F:\TRABAJOS\Colegios\Fundacion Arturo Merino Benitez\Tantauco\20
11\fotos\taltauco
3,84 MB 23-03-2010 16:28:24
P3230197.JPG
F:\TRABAJOS\Colegios\Fundacion Arturo Merino Benitez\Tantauco\20
11\Fotos tantauco CQ
3,84 MB 23-03-2010 16:28:24
----------------------------------------------------------------------------------------------------------------------------------------------------P3230198.JPG
F:\TRABAJOS\Colegios\Fundacion Arturo Merino Benitez\Tantauco\20
11\fotos\taltauco
3,91 MB 23-03-2010 16:28:46
P3230198.JPG
F:\TRABAJOS\Colegios\Fundacion Arturo Merino Benitez\Tantauco\20
11\Fotos tantauco CQ
3,91 MB 23-03-2010 16:28:46
----------------------------------------------------------------------------------------------------------------------------------------------------01 012.jpg
F:\TRABAJOS\Colegios\Fundacion Arturo Merino Benitez\Tantauco\20
11\fotos tantauco 2011\camara\sirven
5,43 MB 12-07-2011 14:09:14
01 012.jpg
F:\TRABAJOS\Colegios\Fundacion Arturo Merino Benitez\Tantauco\20
13\Triptico\Imagenes
5,43 MB 12-07-2011 14:09:14
----------------------------------------------------------------------------------------------------------------------------------------------------DSCF5022.JPG
F:\TRABAJOS\Colegios\Fundacion Arturo Merino Benitez\Tantauco\20
11\fotos tantauco 2011\camara\sirven
6,16 MB 04-07-2011 14:51:18
DSCF5022.JPG
F:\TRABAJOS\Colegios\Fundacion Arturo Merino Benitez\Tantauco\20
13\Triptico\Imagenes
6,16 MB 04-07-2011 14:51:18
----------------------------------------------------------------------------------------------------------------------------------------------------DSC_0026.jpg
F:\TRABAJOS\Colegios\Fundacion Arturo Merino Benitez\Tantauco\20
11\fotos tantauco 2011\camara\sirven
4,69 MB 28-07-2011 13:43:28
DSC_0026.jpg
F:\TRABAJOS\Colegios\Fundacion Arturo Merino Benitez\Tantauco\20
14\fotos
4,69 MB 28-07-2011 13:43:28
----------------------------------------------------------------------------------------------------------------------------------------------------DSC_0030.jpg
F:\TRABAJOS\Colegios\Fundacion Arturo Merino Benitez\Tantauco\20
11\fotos tantauco 2011\camara\sirven
4,48 MB 26-07-2011 14:38:12
DSC_0030.jpg
F:\TRABAJOS\Colegios\Fundacion Arturo Merino Benitez\Tantauco\20
13
4,48 MB 26-07-2011 14:38:12
----------------------------------------------------------------------------------------------------------------------------------------------------DSC_0093.jpg
F:\TRABAJOS\Colegios\Fundacion Arturo Merino Benitez\Tantauco\20
11\fotos tantauco 2011\camara\sirven
4,03 MB 12-07-2011 16:21:40
DSC_0093.jpg
F:\TRABAJOS\Colegios\Fundacion Arturo Merino Benitez\Tantauco\20
13\Triptico\Imagenes
4,03 MB 12-07-2011 16:21:40

----------------------------------------------------------------------------------------------------------------------------------------------------DSC_0105.jpg
F:\TRABAJOS\Colegios\Fundacion Arturo Merino Benitez\Tantauco\20
11\fotos tantauco 2011\camara\sirven
1,77 MB 04-07-2011 14:24:27
DSC_0105.jpg
F:\TRABAJOS\Colegios\Fundacion Arturo Merino Benitez\Tantauco\20
13
1,77 MB 04-07-2011 14:24:27
----------------------------------------------------------------------------------------------------------------------------------------------------DSC_0109-2.jpg F:\TRABAJOS\Colegios\Fundacion Arturo Merino Benitez\Tantauco\20
11\fotos tantauco 2011\camara\sirven
3,46 MB 20-07-2011 15:15:49
DSC_0109-2.jpg F:\TRABAJOS\Colegios\Fundacion Arturo Merino Benitez\Tantauco\20
13
3,46 MB 20-07-2011 15:15:49
----------------------------------------------------------------------------------------------------------------------------------------------------DSC_0121.jpg
F:\TRABAJOS\Colegios\Fundacion Arturo Merino Benitez\Tantauco\20
11\fotos tantauco 2011\camara\sirven
5,59 MB 12-07-2011 15:08:35
DSC_0121.jpg
F:\TRABAJOS\Colegios\Fundacion Arturo Merino Benitez\Tantauco\20
13\Triptico\Imagenes
5,59 MB 12-07-2011 15:08:35
----------------------------------------------------------------------------------------------------------------------------------------------------Imagen 002.jpg F:\TRABAJOS\Colegios\Fundacion Arturo Merino Benitez\Tantauco\20
11\fotos tantauco 2011\camara\sirven
2,38 MB 04-07-2011 15:05:36
Imagen 002.jpg F:\TRABAJOS\Colegios\Fundacion Arturo Merino Benitez\Tantauco\20
13\Triptico\Imagenes
2,38 MB 04-07-2011 15:05:36
----------------------------------------------------------------------------------------------------------------------------------------------------Imagen 191.jpg F:\TRABAJOS\Colegios\Fundacion Arturo Merino Benitez\Tantauco\20
11\fotos tantauco 2011\camara\sirven
3,60 MB 04-07-2011 16:38:53
Imagen 191.jpg F:\TRABAJOS\Colegios\Fundacion Arturo Merino Benitez\Tantauco\20
13\Triptico\Imagenes
3,60 MB 04-07-2011 16:38:53
----------------------------------------------------------------------------------------------------------------------------------------------------Imagen 234.jpg F:\TRABAJOS\Colegios\Fundacion Arturo Merino Benitez\Tantauco\20
11\fotos tantauco 2011\camara\sirven
4,74 MB 04-07-2011 16:45:31
Imagen 234.jpg F:\TRABAJOS\Colegios\Fundacion Arturo Merino Benitez\Tantauco\20
13\Triptico\Imagenes
4,74 MB 04-07-2011 16:45:31
----------------------------------------------------------------------------------------------------------------------------------------------------IMG_8366.jpg
F:\TRABAJOS\Colegios\Fundacion Arturo Merino Benitez\Tantauco\20
11\fotos tantauco 2011\camara\sirven
3,23 MB 10-08-2010 20:18:28
IMG_8366.jpg
F:\TRABAJOS\Colegios\Fundacion Arturo Merino Benitez\Tantauco\20
11\fotos volante\Nueva carpeta 3,23 MB 10-08-2010 20:18:28
IMG_8366.jpg
F:\TRABAJOS\Colegios\Fundacion Arturo Merino Benitez\Tantauco\20
13\Triptico\Imagenes
3,23 MB 10-08-2010 20:18:28
IMG_8366.jpg
F:\TRABAJOS\Colegios\Fundacion Arturo Merino Benitez\Tantauco\20
14\Nueva carpeta
3,23 MB 10-08-2010 20:18:28
----------------------------------------------------------------------------------------------------------------------------------------------------DSCF5039.JPG
F:\TRABAJOS\Colegios\Fundacion Arturo Merino Benitez\Tantauco\20
11\fotos tantauco 2011\Fotos Colegio\Acto Inicio Ao Escolar\Acto Inicio Ao Escolar
2,27 MB 04-02-2011 13:35:30
DSCF5039.JPG
F:\TRABAJOS\Colegios\Fundacion Arturo Merino Benitez\Tantauco\20
11\fotos tantauco 2011\Fotos Colegio\Via Crusis - 2011 2,27 MB 04-02-2011 13:35
:30
----------------------------------------------------------------------------------------------------------------------------------------------------DSCF5040.JPG
F:\TRABAJOS\Colegios\Fundacion Arturo Merino Benitez\Tantauco\20
11\fotos tantauco 2011\Fotos Colegio\Acto Inicio Ao Escolar\Acto Inicio Ao Escolar
2,44 MB 04-02-2011 13:36:22
DSCF5040.JPG
F:\TRABAJOS\Colegios\Fundacion Arturo Merino Benitez\Tantauco\20

11\fotos tantauco 2011\Fotos Colegio\Via Crusis - 2011 2,44 MB 04-02-2011 13:36


:22
----------------------------------------------------------------------------------------------------------------------------------------------------DSCF5041.JPG
F:\TRABAJOS\Colegios\Fundacion Arturo Merino Benitez\Tantauco\20
11\fotos tantauco 2011\Fotos Colegio\Acto Inicio Ao Escolar\Acto Inicio Ao Escolar
2,19 MB 04-02-2011 13:36:32
DSCF5041.JPG
F:\TRABAJOS\Colegios\Fundacion Arturo Merino Benitez\Tantauco\20
11\fotos tantauco 2011\Fotos Colegio\Via Crusis - 2011 2,19 MB 04-02-2011 13:36
:32
----------------------------------------------------------------------------------------------------------------------------------------------------DSCF5051.JPG
F:\TRABAJOS\Colegios\Fundacion Arturo Merino Benitez\Tantauco\20
11\fotos tantauco 2011\Fotos Colegio\Acto Inicio Ao Escolar\Acto Inicio Ao Escolar
2,93 MB 04-02-2011 13:39:16
DSCF5051.JPG
F:\TRABAJOS\Colegios\Fundacion Arturo Merino Benitez\Tantauco\20
11\fotos tantauco 2011\Fotos Colegio\Via Crusis - 2011 2,93 MB 04-02-2011 13:39
:16
----------------------------------------------------------------------------------------------------------------------------------------------------DSCF5052.JPG
F:\TRABAJOS\Colegios\Fundacion Arturo Merino Benitez\Tantauco\20
11\fotos tantauco 2011\Fotos Colegio\Acto Inicio Ao Escolar\Acto Inicio Ao Escolar
2,90 MB 04-02-2011 13:39:22
DSCF5052.JPG
F:\TRABAJOS\Colegios\Fundacion Arturo Merino Benitez\Tantauco\20
11\fotos tantauco 2011\Fotos Colegio\Via Crusis - 2011 2,90 MB 04-02-2011 13:39
:22
----------------------------------------------------------------------------------------------------------------------------------------------------DSCF5058.JPG
F:\TRABAJOS\Colegios\Fundacion Arturo Merino Benitez\Tantauco\20
11\fotos tantauco 2011\Fotos Colegio\Salas Tematicas Mes del Libro
2,70 MB
26-02-2011 18:00:10
DSCF5058.JPG
F:\TRABAJOS\Colegios\Fundacion Arturo Merino Benitez\Tantauco\20
11\fotos tantauco 2011\Fotos Colegio\Salas Tematicas Mes del Libro\Salas Tematic
as Mes del Libro
2,70 MB 26-02-2011 18:00:10
----------------------------------------------------------------------------------------------------------------------------------------------------DSCF5059.JPG
F:\TRABAJOS\Colegios\Fundacion Arturo Merino Benitez\Tantauco\20
11\fotos tantauco 2011\Fotos Colegio\Salas Tematicas Mes del Libro
2,21 MB
26-02-2011 18:00:18
DSCF5059.JPG
F:\TRABAJOS\Colegios\Fundacion Arturo Merino Benitez\Tantauco\20
11\fotos tantauco 2011\Fotos Colegio\Salas Tematicas Mes del Libro\Salas Tematic
as Mes del Libro
2,21 MB 26-02-2011 18:00:18
----------------------------------------------------------------------------------------------------------------------------------------------------DSCF5060.JPG
F:\TRABAJOS\Colegios\Fundacion Arturo Merino Benitez\Tantauco\20
11\fotos tantauco 2011\Fotos Colegio\Salas Tematicas Mes del Libro
2,36 MB
26-02-2011 18:00:30
DSCF5060.JPG
F:\TRABAJOS\Colegios\Fundacion Arturo Merino Benitez\Tantauco\20
11\fotos tantauco 2011\Fotos Colegio\Salas Tematicas Mes del Libro\Salas Tematic
as Mes del Libro
2,36 MB 26-02-2011 18:00:30
----------------------------------------------------------------------------------------------------------------------------------------------------DSCF5061.JPG
F:\TRABAJOS\Colegios\Fundacion Arturo Merino Benitez\Tantauco\20
11\fotos tantauco 2011\Fotos Colegio\Salas Tematicas Mes del Libro
1,97 MB
26-02-2011 18:00:44
DSCF5061.JPG
F:\TRABAJOS\Colegios\Fundacion Arturo Merino Benitez\Tantauco\20
11\fotos tantauco 2011\Fotos Colegio\Salas Tematicas Mes del Libro\Salas Tematic
as Mes del Libro
1,97 MB 26-02-2011 18:00:44
-----------------------------------------------------------------------------------------------------------------------------------------------------

DSCF5062.JPG
F:\TRABAJOS\Colegios\Fundacion Arturo Merino Benitez\Tantauco\20
11\fotos tantauco 2011\Fotos Colegio\Salas Tematicas Mes del Libro
2,81 MB
26-02-2011 18:01:06
DSCF5062.JPG
F:\TRABAJOS\Colegios\Fundacion Arturo Merino Benitez\Tantauco\20
11\fotos tantauco 2011\Fotos Colegio\Salas Tematicas Mes del Libro\Salas Tematic
as Mes del Libro
2,81 MB 26-02-2011 18:01:06
----------------------------------------------------------------------------------------------------------------------------------------------------DSCF5063.JPG
F:\TRABAJOS\Colegios\Fundacion Arturo Merino Benitez\Tantauco\20
11\fotos tantauco 2011\Fotos Colegio\Salas Tematicas Mes del Libro
2,05 MB
26-02-2011 18:01:20
DSCF5063.JPG
F:\TRABAJOS\Colegios\Fundacion Arturo Merino Benitez\Tantauco\20
11\fotos tantauco 2011\Fotos Colegio\Salas Tematicas Mes del Libro\Salas Tematic
as Mes del Libro
2,05 MB 26-02-2011 18:01:20
----------------------------------------------------------------------------------------------------------------------------------------------------DSCF5064.JPG
F:\TRABAJOS\Colegios\Fundacion Arturo Merino Benitez\Tantauco\20
11\fotos tantauco 2011\Fotos Colegio\Salas Tematicas Mes del Libro
2,24 MB
26-02-2011 18:01:36
DSCF5064.JPG
F:\TRABAJOS\Colegios\Fundacion Arturo Merino Benitez\Tantauco\20
11\fotos tantauco 2011\Fotos Colegio\Salas Tematicas Mes del Libro\Salas Tematic
as Mes del Libro
2,24 MB 26-02-2011 18:01:36
----------------------------------------------------------------------------------------------------------------------------------------------------DSCF5065.JPG
F:\TRABAJOS\Colegios\Fundacion Arturo Merino Benitez\Tantauco\20
11\fotos tantauco 2011\Fotos Colegio\Salas Tematicas Mes del Libro
1,97 MB
26-02-2011 18:01:52
DSCF5065.JPG
F:\TRABAJOS\Colegios\Fundacion Arturo Merino Benitez\Tantauco\20
11\fotos tantauco 2011\Fotos Colegio\Salas Tematicas Mes del Libro\Salas Tematic
as Mes del Libro
1,97 MB 26-02-2011 18:01:52
----------------------------------------------------------------------------------------------------------------------------------------------------DSCF5066.JPG
F:\TRABAJOS\Colegios\Fundacion Arturo Merino Benitez\Tantauco\20
11\fotos tantauco 2011\Fotos Colegio\Salas Tematicas Mes del Libro
2,27 MB
26-02-2011 18:02:06
DSCF5066.JPG
F:\TRABAJOS\Colegios\Fundacion Arturo Merino Benitez\Tantauco\20
11\fotos tantauco 2011\Fotos Colegio\Salas Tematicas Mes del Libro\Salas Tematic
as Mes del Libro
2,27 MB 26-02-2011 18:02:06
----------------------------------------------------------------------------------------------------------------------------------------------------DSCF5067.JPG
F:\TRABAJOS\Colegios\Fundacion Arturo Merino Benitez\Tantauco\20
11\fotos tantauco 2011\Fotos Colegio\Salas Tematicas Mes del Libro
2,96 MB
26-02-2011 18:02:26
DSCF5067.JPG
F:\TRABAJOS\Colegios\Fundacion Arturo Merino Benitez\Tantauco\20
11\fotos tantauco 2011\Fotos Colegio\Salas Tematicas Mes del Libro\Salas Tematic
as Mes del Libro
2,96 MB 26-02-2011 18:02:26
----------------------------------------------------------------------------------------------------------------------------------------------------DSCF5068.JPG
F:\TRABAJOS\Colegios\Fundacion Arturo Merino Benitez\Tantauco\20
11\fotos tantauco 2011\Fotos Colegio\Salas Tematicas Mes del Libro
2,24 MB
26-02-2011 18:02:50
DSCF5068.JPG
F:\TRABAJOS\Colegios\Fundacion Arturo Merino Benitez\Tantauco\20
11\fotos tantauco 2011\Fotos Colegio\Salas Tematicas Mes del Libro\Salas Tematic
as Mes del Libro
2,24 MB 26-02-2011 18:02:50
----------------------------------------------------------------------------------------------------------------------------------------------------DSCF5069.JPG
F:\TRABAJOS\Colegios\Fundacion Arturo Merino Benitez\Tantauco\20
11\fotos tantauco 2011\Fotos Colegio\Salas Tematicas Mes del Libro
2,25 MB
26-02-2011 18:02:58
DSCF5069.JPG
F:\TRABAJOS\Colegios\Fundacion Arturo Merino Benitez\Tantauco\20

11\fotos tantauco 2011\Fotos Colegio\Salas Tematicas Mes del Libro\Salas Tematic


as Mes del Libro
2,25 MB 26-02-2011 18:02:58
----------------------------------------------------------------------------------------------------------------------------------------------------DSCF5070.JPG
F:\TRABAJOS\Colegios\Fundacion Arturo Merino Benitez\Tantauco\20
11\fotos tantauco 2011\Fotos Colegio\Salas Tematicas Mes del Libro
2,08 MB
26-02-2011 18:03:30
DSCF5070.JPG
F:\TRABAJOS\Colegios\Fundacion Arturo Merino Benitez\Tantauco\20
11\fotos tantauco 2011\Fotos Colegio\Salas Tematicas Mes del Libro\Salas Tematic
as Mes del Libro
2,08 MB 26-02-2011 18:03:30
----------------------------------------------------------------------------------------------------------------------------------------------------DSCF5071.JPG
F:\TRABAJOS\Colegios\Fundacion Arturo Merino Benitez\Tantauco\20
11\fotos tantauco 2011\Fotos Colegio\Salas Tematicas Mes del Libro
2,00 MB
26-02-2011 18:03:40
DSCF5071.JPG
F:\TRABAJOS\Colegios\Fundacion Arturo Merino Benitez\Tantauco\20
11\fotos tantauco 2011\Fotos Colegio\Salas Tematicas Mes del Libro\Salas Tematic
as Mes del Libro
2,00 MB 26-02-2011 18:03:40
----------------------------------------------------------------------------------------------------------------------------------------------------DSCF5072.JPG
F:\TRABAJOS\Colegios\Fundacion Arturo Merino Benitez\Tantauco\20
11\fotos tantauco 2011\Fotos Colegio\Salas Tematicas Mes del Libro
2,45 MB
26-02-2011 18:04:28
DSCF5072.JPG
F:\TRABAJOS\Colegios\Fundacion Arturo Merino Benitez\Tantauco\20
11\fotos tantauco 2011\Fotos Colegio\Salas Tematicas Mes del Libro\Salas Tematic
as Mes del Libro
2,45 MB 26-02-2011 18:04:28
----------------------------------------------------------------------------------------------------------------------------------------------------DSCF5073.JPG
F:\TRABAJOS\Colegios\Fundacion Arturo Merino Benitez\Tantauco\20
11\fotos tantauco 2011\Fotos Colegio\Salas Tematicas Mes del Libro
2,08 MB
26-02-2011 18:04:46
DSCF5073.JPG
F:\TRABAJOS\Colegios\Fundacion Arturo Merino Benitez\Tantauco\20
11\fotos tantauco 2011\Fotos Colegio\Salas Tematicas Mes del Libro\Salas Tematic
as Mes del Libro
2,08 MB 26-02-2011 18:04:46
----------------------------------------------------------------------------------------------------------------------------------------------------DSCF5074.JPG
F:\TRABAJOS\Colegios\Fundacion Arturo Merino Benitez\Tantauco\20
11\fotos tantauco 2011\Fotos Colegio\Salas Tematicas Mes del Libro
2,16 MB
26-02-2011 18:05:00
DSCF5074.JPG
F:\TRABAJOS\Colegios\Fundacion Arturo Merino Benitez\Tantauco\20
11\fotos tantauco 2011\Fotos Colegio\Salas Tematicas Mes del Libro\Salas Tematic
as Mes del Libro
2,16 MB 26-02-2011 18:05:00
----------------------------------------------------------------------------------------------------------------------------------------------------DSCF5075.JPG
F:\TRABAJOS\Colegios\Fundacion Arturo Merino Benitez\Tantauco\20
11\fotos tantauco 2011\Fotos Colegio\Salas Tematicas Mes del Libro
2,01 MB
26-02-2011 18:05:26
DSCF5075.JPG
F:\TRABAJOS\Colegios\Fundacion Arturo Merino Benitez\Tantauco\20
11\fotos tantauco 2011\Fotos Colegio\Salas Tematicas Mes del Libro\Salas Tematic
as Mes del Libro
2,01 MB 26-02-2011 18:05:26
----------------------------------------------------------------------------------------------------------------------------------------------------DSCF5076.JPG
F:\TRABAJOS\Colegios\Fundacion Arturo Merino Benitez\Tantauco\20
11\fotos tantauco 2011\Fotos Colegio\Salas Tematicas Mes del Libro
2,83 MB
26-02-2011 18:05:46
DSCF5076.JPG
F:\TRABAJOS\Colegios\Fundacion Arturo Merino Benitez\Tantauco\20
11\fotos tantauco 2011\Fotos Colegio\Salas Tematicas Mes del Libro\Salas Tematic
as Mes del Libro
2,83 MB 26-02-2011 18:05:46
-----------------------------------------------------------------------------------------------------------------------------------------------------

DSCF5077.JPG
F:\TRABAJOS\Colegios\Fundacion Arturo Merino Benitez\Tantauco\20
11\fotos tantauco 2011\Fotos Colegio\Salas Tematicas Mes del Libro
2,72 MB
26-02-2011 18:07:30
DSCF5077.JPG
F:\TRABAJOS\Colegios\Fundacion Arturo Merino Benitez\Tantauco\20
11\fotos tantauco 2011\Fotos Colegio\Salas Tematicas Mes del Libro\Salas Tematic
as Mes del Libro
2,72 MB 26-02-2011 18:07:30
----------------------------------------------------------------------------------------------------------------------------------------------------DSCF5078.JPG
F:\TRABAJOS\Colegios\Fundacion Arturo Merino Benitez\Tantauco\20
11\fotos tantauco 2011\Fotos Colegio\Salas Tematicas Mes del Libro
2,65 MB
26-02-2011 18:07:40
DSCF5078.JPG
F:\TRABAJOS\Colegios\Fundacion Arturo Merino Benitez\Tantauco\20
11\fotos tantauco 2011\Fotos Colegio\Salas Tematicas Mes del Libro\Salas Tematic
as Mes del Libro
2,65 MB 26-02-2011 18:07:40
----------------------------------------------------------------------------------------------------------------------------------------------------DSCF5079.JPG
F:\TRABAJOS\Colegios\Fundacion Arturo Merino Benitez\Tantauco\20
11\fotos tantauco 2011\Fotos Colegio\Salas Tematicas Mes del Libro
2,90 MB
26-02-2011 18:07:54
DSCF5079.JPG
F:\TRABAJOS\Colegios\Fundacion Arturo Merino Benitez\Tantauco\20
11\fotos tantauco 2011\Fotos Colegio\Salas Tematicas Mes del Libro\Salas Tematic
as Mes del Libro
2,90 MB 26-02-2011 18:07:54
----------------------------------------------------------------------------------------------------------------------------------------------------DSCF5080.JPG
F:\TRABAJOS\Colegios\Fundacion Arturo Merino Benitez\Tantauco\20
11\fotos tantauco 2011\Fotos Colegio\Salas Tematicas Mes del Libro
2,91 MB
26-02-2011 18:08:10
DSCF5080.JPG
F:\TRABAJOS\Colegios\Fundacion Arturo Merino Benitez\Tantauco\20
11\fotos tantauco 2011\Fotos Colegio\Salas Tematicas Mes del Libro\Salas Tematic
as Mes del Libro
2,91 MB 26-02-2011 18:08:10
----------------------------------------------------------------------------------------------------------------------------------------------------DSCF5081.JPG
F:\TRABAJOS\Colegios\Fundacion Arturo Merino Benitez\Tantauco\20
11\fotos tantauco 2011\Fotos Colegio\Salas Tematicas Mes del Libro
3,05 MB
26-02-2011 18:08:50
DSCF5081.JPG
F:\TRABAJOS\Colegios\Fundacion Arturo Merino Benitez\Tantauco\20
11\fotos tantauco 2011\Fotos Colegio\Salas Tematicas Mes del Libro\Salas Tematic
as Mes del Libro
3,05 MB 26-02-2011 18:08:50
----------------------------------------------------------------------------------------------------------------------------------------------------DSCF5082.JPG
F:\TRABAJOS\Colegios\Fundacion Arturo Merino Benitez\Tantauco\20
11\fotos tantauco 2011\Fotos Colegio\Salas Tematicas Mes del Libro
2,63 MB
26-02-2011 18:09:42
DSCF5082.JPG
F:\TRABAJOS\Colegios\Fundacion Arturo Merino Benitez\Tantauco\20
11\fotos tantauco 2011\Fotos Colegio\Salas Tematicas Mes del Libro\Salas Tematic
as Mes del Libro
2,63 MB 26-02-2011 18:09:42
----------------------------------------------------------------------------------------------------------------------------------------------------DSCF5083.JPG
F:\TRABAJOS\Colegios\Fundacion Arturo Merino Benitez\Tantauco\20
11\fotos tantauco 2011\Fotos Colegio\Salas Tematicas Mes del Libro
2,61 MB
26-02-2011 18:10:04
DSCF5083.JPG
F:\TRABAJOS\Colegios\Fundacion Arturo Merino Benitez\Tantauco\20
11\fotos tantauco 2011\Fotos Colegio\Salas Tematicas Mes del Libro\Salas Tematic
as Mes del Libro
2,61 MB 26-02-2011 18:10:04
----------------------------------------------------------------------------------------------------------------------------------------------------DSCF5084.JPG
F:\TRABAJOS\Colegios\Fundacion Arturo Merino Benitez\Tantauco\20
11\fotos tantauco 2011\Fotos Colegio\Salas Tematicas Mes del Libro
2,69 MB
26-02-2011 18:10:12
DSCF5084.JPG
F:\TRABAJOS\Colegios\Fundacion Arturo Merino Benitez\Tantauco\20

11\fotos tantauco 2011\Fotos Colegio\Salas Tematicas Mes del Libro\Salas Tematic


as Mes del Libro
2,69 MB 26-02-2011 18:10:12
----------------------------------------------------------------------------------------------------------------------------------------------------DSCF5085.JPG
F:\TRABAJOS\Colegios\Fundacion Arturo Merino Benitez\Tantauco\20
11\fotos tantauco 2011\Fotos Colegio\Salas Tematicas Mes del Libro
2,90 MB
26-02-2011 18:10:26
DSCF5085.JPG
F:\TRABAJOS\Colegios\Fundacion Arturo Merino Benitez\Tantauco\20
11\fotos tantauco 2011\Fotos Colegio\Salas Tematicas Mes del Libro\Salas Tematic
as Mes del Libro
2,90 MB 26-02-2011 18:10:26
----------------------------------------------------------------------------------------------------------------------------------------------------DSCF5086.JPG
F:\TRABAJOS\Colegios\Fundacion Arturo Merino Benitez\Tantauco\20
11\fotos tantauco 2011\Fotos Colegio\Salas Tematicas Mes del Libro
2,63 MB
26-02-2011 18:10:52
DSCF5086.JPG
F:\TRABAJOS\Colegios\Fundacion Arturo Merino Benitez\Tantauco\20
11\fotos tantauco 2011\Fotos Colegio\Salas Tematicas Mes del Libro\Salas Tematic
as Mes del Libro
2,63 MB 26-02-2011 18:10:52
----------------------------------------------------------------------------------------------------------------------------------------------------DSCF5087.JPG
F:\TRABAJOS\Colegios\Fundacion Arturo Merino Benitez\Tantauco\20
11\fotos tantauco 2011\Fotos Colegio\Salas Tematicas Mes del Libro
3,62 MB
26-02-2011 18:11:00
DSCF5087.JPG
F:\TRABAJOS\Colegios\Fundacion Arturo Merino Benitez\Tantauco\20
11\fotos tantauco 2011\Fotos Colegio\Salas Tematicas Mes del Libro\Salas Tematic
as Mes del Libro
3,62 MB 26-02-2011 18:11:00
----------------------------------------------------------------------------------------------------------------------------------------------------DSCF5088.JPG
F:\TRABAJOS\Colegios\Fundacion Arturo Merino Benitez\Tantauco\20
11\fotos tantauco 2011\Fotos Colegio\Salas Tematicas Mes del Libro
3,38 MB
26-02-2011 18:11:16
DSCF5088.JPG
F:\TRABAJOS\Colegios\Fundacion Arturo Merino Benitez\Tantauco\20
11\fotos tantauco 2011\Fotos Colegio\Salas Tematicas Mes del Libro\Salas Tematic
as Mes del Libro
3,38 MB 26-02-2011 18:11:16
----------------------------------------------------------------------------------------------------------------------------------------------------DSCF5089.JPG
F:\TRABAJOS\Colegios\Fundacion Arturo Merino Benitez\Tantauco\20
11\fotos tantauco 2011\Fotos Colegio\Salas Tematicas Mes del Libro
3,25 MB
26-02-2011 18:11:28
DSCF5089.JPG
F:\TRABAJOS\Colegios\Fundacion Arturo Merino Benitez\Tantauco\20
11\fotos tantauco 2011\Fotos Colegio\Salas Tematicas Mes del Libro\Salas Tematic
as Mes del Libro
3,25 MB 26-02-2011 18:11:28
----------------------------------------------------------------------------------------------------------------------------------------------------DSCF5090.JPG
F:\TRABAJOS\Colegios\Fundacion Arturo Merino Benitez\Tantauco\20
11\fotos tantauco 2011\Fotos Colegio\Salas Tematicas Mes del Libro
3,18 MB
26-02-2011 18:11:56
DSCF5090.JPG
F:\TRABAJOS\Colegios\Fundacion Arturo Merino Benitez\Tantauco\20
11\fotos tantauco 2011\Fotos Colegio\Salas Tematicas Mes del Libro\Salas Tematic
as Mes del Libro
3,18 MB 26-02-2011 18:11:56
----------------------------------------------------------------------------------------------------------------------------------------------------DSCF5091.JPG
F:\TRABAJOS\Colegios\Fundacion Arturo Merino Benitez\Tantauco\20
11\fotos tantauco 2011\Fotos Colegio\Salas Tematicas Mes del Libro
2,56 MB
26-02-2011 18:12:24
DSCF5091.JPG
F:\TRABAJOS\Colegios\Fundacion Arturo Merino Benitez\Tantauco\20
11\fotos tantauco 2011\Fotos Colegio\Salas Tematicas Mes del Libro\Salas Tematic
as Mes del Libro
2,56 MB 26-02-2011 18:12:24
-----------------------------------------------------------------------------------------------------------------------------------------------------

DSCF5092.JPG
F:\TRABAJOS\Colegios\Fundacion Arturo Merino Benitez\Tantauco\20
11\fotos tantauco 2011\Fotos Colegio\Salas Tematicas Mes del Libro
2,41 MB
26-02-2011 18:16:14
DSCF5092.JPG
F:\TRABAJOS\Colegios\Fundacion Arturo Merino Benitez\Tantauco\20
11\fotos tantauco 2011\Fotos Colegio\Salas Tematicas Mes del Libro\Salas Tematic
as Mes del Libro
2,41 MB 26-02-2011 18:16:14
----------------------------------------------------------------------------------------------------------------------------------------------------DSCF5093.JPG
F:\TRABAJOS\Colegios\Fundacion Arturo Merino Benitez\Tantauco\20
11\fotos tantauco 2011\Fotos Colegio\Salas Tematicas Mes del Libro
2,39 MB
26-02-2011 18:16:38
DSCF5093.JPG
F:\TRABAJOS\Colegios\Fundacion Arturo Merino Benitez\Tantauco\20
11\fotos tantauco 2011\Fotos Colegio\Salas Tematicas Mes del Libro\Salas Tematic
as Mes del Libro
2,39 MB 26-02-2011 18:16:38
----------------------------------------------------------------------------------------------------------------------------------------------------DSCF5094.JPG
F:\TRABAJOS\Colegios\Fundacion Arturo Merino Benitez\Tantauco\20
11\fotos tantauco 2011\Fotos Colegio\Salas Tematicas Mes del Libro
2,37 MB
26-02-2011 18:16:52
DSCF5094.JPG
F:\TRABAJOS\Colegios\Fundacion Arturo Merino Benitez\Tantauco\20
11\fotos tantauco 2011\Fotos Colegio\Salas Tematicas Mes del Libro\Salas Tematic
as Mes del Libro
2,37 MB 26-02-2011 18:16:52
----------------------------------------------------------------------------------------------------------------------------------------------------DSCF5095.JPG
F:\TRABAJOS\Colegios\Fundacion Arturo Merino Benitez\Tantauco\20
11\fotos tantauco 2011\Fotos Colegio\Salas Tematicas Mes del Libro
2,17 MB
26-02-2011 18:17:12
DSCF5095.JPG
F:\TRABAJOS\Colegios\Fundacion Arturo Merino Benitez\Tantauco\20
11\fotos tantauco 2011\Fotos Colegio\Salas Tematicas Mes del Libro\Salas Tematic
as Mes del Libro
2,17 MB 26-02-2011 18:17:12
----------------------------------------------------------------------------------------------------------------------------------------------------DSCF5096.JPG
F:\TRABAJOS\Colegios\Fundacion Arturo Merino Benitez\Tantauco\20
11\fotos tantauco 2011\Fotos Colegio\Salas Tematicas Mes del Libro
2,39 MB
26-02-2011 18:17:18
DSCF5096.JPG
F:\TRABAJOS\Colegios\Fundacion Arturo Merino Benitez\Tantauco\20
11\fotos tantauco 2011\Fotos Colegio\Salas Tematicas Mes del Libro\Salas Tematic
as Mes del Libro
2,39 MB 26-02-2011 18:17:18
----------------------------------------------------------------------------------------------------------------------------------------------------DSCF5097.JPG
F:\TRABAJOS\Colegios\Fundacion Arturo Merino Benitez\Tantauco\20
11\fotos tantauco 2011\Fotos Colegio\Salas Tematicas Mes del Libro
2,12 MB
26-02-2011 18:17:38
DSCF5097.JPG
F:\TRABAJOS\Colegios\Fundacion Arturo Merino Benitez\Tantauco\20
11\fotos tantauco 2011\Fotos Colegio\Salas Tematicas Mes del Libro\Salas Tematic
as Mes del Libro
2,12 MB 26-02-2011 18:17:38
----------------------------------------------------------------------------------------------------------------------------------------------------DSCF5098.JPG
F:\TRABAJOS\Colegios\Fundacion Arturo Merino Benitez\Tantauco\20
11\fotos tantauco 2011\Fotos Colegio\Salas Tematicas Mes del Libro
2,52 MB
26-02-2011 18:18:06
DSCF5098.JPG
F:\TRABAJOS\Colegios\Fundacion Arturo Merino Benitez\Tantauco\20
11\fotos tantauco 2011\Fotos Colegio\Salas Tematicas Mes del Libro\Salas Tematic
as Mes del Libro
2,52 MB 26-02-2011 18:18:06
----------------------------------------------------------------------------------------------------------------------------------------------------DSCF5099.JPG
F:\TRABAJOS\Colegios\Fundacion Arturo Merino Benitez\Tantauco\20
11\fotos tantauco 2011\Fotos Colegio\Salas Tematicas Mes del Libro
2,40 MB
26-02-2011 18:18:10
DSCF5099.JPG
F:\TRABAJOS\Colegios\Fundacion Arturo Merino Benitez\Tantauco\20

11\fotos tantauco 2011\Fotos Colegio\Salas Tematicas Mes del Libro\Salas Tematic


as Mes del Libro
2,40 MB 26-02-2011 18:18:10
----------------------------------------------------------------------------------------------------------------------------------------------------DSCF5100.JPG
F:\TRABAJOS\Colegios\Fundacion Arturo Merino Benitez\Tantauco\20
11\fotos tantauco 2011\Fotos Colegio\Salas Tematicas Mes del Libro
2,22 MB
26-02-2011 18:18:14
DSCF5100.JPG
F:\TRABAJOS\Colegios\Fundacion Arturo Merino Benitez\Tantauco\20
11\fotos tantauco 2011\Fotos Colegio\Salas Tematicas Mes del Libro\Salas Tematic
as Mes del Libro
2,22 MB 26-02-2011 18:18:14
----------------------------------------------------------------------------------------------------------------------------------------------------DSCF5101.JPG
F:\TRABAJOS\Colegios\Fundacion Arturo Merino Benitez\Tantauco\20
11\fotos tantauco 2011\Fotos Colegio\Salas Tematicas Mes del Libro
2,05 MB
26-02-2011 18:18:46
DSCF5101.JPG
F:\TRABAJOS\Colegios\Fundacion Arturo Merino Benitez\Tantauco\20
11\fotos tantauco 2011\Fotos Colegio\Salas Tematicas Mes del Libro\Salas Tematic
as Mes del Libro
2,05 MB 26-02-2011 18:18:46
----------------------------------------------------------------------------------------------------------------------------------------------------DSCF5102.JPG
F:\TRABAJOS\Colegios\Fundacion Arturo Merino Benitez\Tantauco\20
11\fotos tantauco 2011\Fotos Colegio\Salas Tematicas Mes del Libro
2,48 MB
26-02-2011 18:19:06
DSCF5102.JPG
F:\TRABAJOS\Colegios\Fundacion Arturo Merino Benitez\Tantauco\20
11\fotos tantauco 2011\Fotos Colegio\Salas Tematicas Mes del Libro\Salas Tematic
as Mes del Libro
2,48 MB 26-02-2011 18:19:06
----------------------------------------------------------------------------------------------------------------------------------------------------DSCF5103.JPG
F:\TRABAJOS\Colegios\Fundacion Arturo Merino Benitez\Tantauco\20
11\fotos tantauco 2011\Fotos Colegio\Salas Tematicas Mes del Libro
1,99 MB
26-02-2011 18:19:18
DSCF5103.JPG
F:\TRABAJOS\Colegios\Fundacion Arturo Merino Benitez\Tantauco\20
11\fotos tantauco 2011\Fotos Colegio\Salas Tematicas Mes del Libro\Salas Tematic
as Mes del Libro
1,99 MB 26-02-2011 18:19:18
----------------------------------------------------------------------------------------------------------------------------------------------------DSCF5104.JPG
F:\TRABAJOS\Colegios\Fundacion Arturo Merino Benitez\Tantauco\20
11\fotos tantauco 2011\Fotos Colegio\Salas Tematicas Mes del Libro
2,57 MB
26-02-2011 18:19:28
DSCF5104.JPG
F:\TRABAJOS\Colegios\Fundacion Arturo Merino Benitez\Tantauco\20
11\fotos tantauco 2011\Fotos Colegio\Salas Tematicas Mes del Libro\Salas Tematic
as Mes del Libro
2,57 MB 26-02-2011 18:19:28
----------------------------------------------------------------------------------------------------------------------------------------------------DSCF5105.JPG
F:\TRABAJOS\Colegios\Fundacion Arturo Merino Benitez\Tantauco\20
11\fotos tantauco 2011\Fotos Colegio\Salas Tematicas Mes del Libro
2,22 MB
26-02-2011 18:20:28
DSCF5105.JPG
F:\TRABAJOS\Colegios\Fundacion Arturo Merino Benitez\Tantauco\20
11\fotos tantauco 2011\Fotos Colegio\Salas Tematicas Mes del Libro\Salas Tematic
as Mes del Libro
2,22 MB 26-02-2011 18:20:28
----------------------------------------------------------------------------------------------------------------------------------------------------DSCF5106.JPG
F:\TRABAJOS\Colegios\Fundacion Arturo Merino Benitez\Tantauco\20
11\fotos tantauco 2011\Fotos Colegio\Salas Tematicas Mes del Libro
2,18 MB
26-02-2011 18:21:10
DSCF5106.JPG
F:\TRABAJOS\Colegios\Fundacion Arturo Merino Benitez\Tantauco\20
11\fotos tantauco 2011\Fotos Colegio\Salas Tematicas Mes del Libro\Salas Tematic
as Mes del Libro
2,18 MB 26-02-2011 18:21:10
-----------------------------------------------------------------------------------------------------------------------------------------------------

DSCF5107.JPG
F:\TRABAJOS\Colegios\Fundacion Arturo Merino Benitez\Tantauco\20
11\fotos tantauco 2011\Fotos Colegio\Salas Tematicas Mes del Libro
2,33 MB
26-02-2011 18:21:48
DSCF5107.JPG
F:\TRABAJOS\Colegios\Fundacion Arturo Merino Benitez\Tantauco\20
11\fotos tantauco 2011\Fotos Colegio\Salas Tematicas Mes del Libro\Salas Tematic
as Mes del Libro
2,33 MB 26-02-2011 18:21:48
----------------------------------------------------------------------------------------------------------------------------------------------------DSCF5108.JPG
F:\TRABAJOS\Colegios\Fundacion Arturo Merino Benitez\Tantauco\20
11\fotos tantauco 2011\Fotos Colegio\Salas Tematicas Mes del Libro
3,08 MB
26-02-2011 18:22:00
DSCF5108.JPG
F:\TRABAJOS\Colegios\Fundacion Arturo Merino Benitez\Tantauco\20
11\fotos tantauco 2011\Fotos Colegio\Salas Tematicas Mes del Libro\Salas Tematic
as Mes del Libro
3,08 MB 26-02-2011 18:22:00
----------------------------------------------------------------------------------------------------------------------------------------------------DSCF5109.JPG
F:\TRABAJOS\Colegios\Fundacion Arturo Merino Benitez\Tantauco\20
11\fotos tantauco 2011\Fotos Colegio\Salas Tematicas Mes del Libro
2,79 MB
26-02-2011 18:22:08
DSCF5109.JPG
F:\TRABAJOS\Colegios\Fundacion Arturo Merino Benitez\Tantauco\20
11\fotos tantauco 2011\Fotos Colegio\Salas Tematicas Mes del Libro\Salas Tematic
as Mes del Libro
2,79 MB 26-02-2011 18:22:08
----------------------------------------------------------------------------------------------------------------------------------------------------DSCF5110.JPG
F:\TRABAJOS\Colegios\Fundacion Arturo Merino Benitez\Tantauco\20
11\fotos tantauco 2011\Fotos Colegio\Salas Tematicas Mes del Libro
2,81 MB
26-02-2011 18:22:38
DSCF5110.JPG
F:\TRABAJOS\Colegios\Fundacion Arturo Merino Benitez\Tantauco\20
11\fotos tantauco 2011\Fotos Colegio\Salas Tematicas Mes del Libro\Salas Tematic
as Mes del Libro
2,81 MB 26-02-2011 18:22:38
----------------------------------------------------------------------------------------------------------------------------------------------------DSCF5111.JPG
F:\TRABAJOS\Colegios\Fundacion Arturo Merino Benitez\Tantauco\20
11\fotos tantauco 2011\Fotos Colegio\Salas Tematicas Mes del Libro
3,23 MB
26-02-2011 18:22:46
DSCF5111.JPG
F:\TRABAJOS\Colegios\Fundacion Arturo Merino Benitez\Tantauco\20
11\fotos tantauco 2011\Fotos Colegio\Salas Tematicas Mes del Libro\Salas Tematic
as Mes del Libro
3,23 MB 26-02-2011 18:22:46
----------------------------------------------------------------------------------------------------------------------------------------------------DSCF5112.JPG
F:\TRABAJOS\Colegios\Fundacion Arturo Merino Benitez\Tantauco\20
11\fotos tantauco 2011\Fotos Colegio\Salas Tematicas Mes del Libro
2,29 MB
26-02-2011 18:23:02
DSCF5112.JPG
F:\TRABAJOS\Colegios\Fundacion Arturo Merino Benitez\Tantauco\20
11\fotos tantauco 2011\Fotos Colegio\Salas Tematicas Mes del Libro\Salas Tematic
as Mes del Libro
2,29 MB 26-02-2011 18:23:02
----------------------------------------------------------------------------------------------------------------------------------------------------DSCF5027.JPG
F:\TRABAJOS\Colegios\Fundacion Arturo Merino Benitez\Tantauco\20
11\fotos tantauco 2011\Fotos Colegio\Salida Educativa 1 Bsico 2,08 MB 03-02-20
11 14:36:54
DSCF5027.JPG
F:\TRABAJOS\Colegios\Fundacion Arturo Merino Benitez\Tantauco\20
11\fotos tantauco 2011\Fotos Colegio\Via Crusis - 2011 2,08 MB 03-02-2011 14:36
:54
----------------------------------------------------------------------------------------------------------------------------------------------------DSCF5028.JPG
F:\TRABAJOS\Colegios\Fundacion Arturo Merino Benitez\Tantauco\20
11\fotos tantauco 2011\Fotos Colegio\Salida Educativa 1 Bsico 2,06 MB 03-02-20
11 14:38:10
DSCF5028.JPG
F:\TRABAJOS\Colegios\Fundacion Arturo Merino Benitez\Tantauco\20

11\fotos tantauco 2011\Fotos Colegio\Via Crusis - 2011 2,06 MB 03-02-2011 14:38


:10
----------------------------------------------------------------------------------------------------------------------------------------------------DSCF5029.JPG
F:\TRABAJOS\Colegios\Fundacion Arturo Merino Benitez\Tantauco\20
11\fotos tantauco 2011\Fotos Colegio\Salida Educativa 1 Bsico 2,10 MB 03-02-20
11 14:43:38
DSCF5029.JPG
F:\TRABAJOS\Colegios\Fundacion Arturo Merino Benitez\Tantauco\20
11\fotos tantauco 2011\Fotos Colegio\Via Crusis - 2011 2,10 MB 03-02-2011 14:43
:38
----------------------------------------------------------------------------------------------------------------------------------------------------DSC06518.jpg
F:\TRABAJOS\Colegios\Fundacion Arturo Merino Benitez\Tantauco\20
11\fotos volante\Nueva carpeta 2,03 MB 10-08-2010 19:00:47
DSC06518.jpg
F:\TRABAJOS\Colegios\Fundacion Arturo Merino Benitez\Tantauco\20
14\Nueva carpeta
2,03 MB 10-08-2010 19:00:47
----------------------------------------------------------------------------------------------------------------------------------------------------frontis.tif
F:\TRABAJOS\Colegios\Fundacion Arturo Merino Benitez\Tantauco\20
11\fotos volante\Nueva carpeta 30,4 MB 24-08-2010 23:07:55
frontis.tif
F:\TRABAJOS\Colegios\Fundacion Arturo Merino Benitez\Tantauco\20
14\Nueva carpeta
30,4 MB 24-08-2010 23:07:55
----------------------------------------------------------------------------------------------------------------------------------------------------IMG_8107.jpg
F:\TRABAJOS\Colegios\Fundacion Arturo Merino Benitez\Tantauco\20
11\fotos volante\Nueva carpeta 4,04 MB 10-08-2010 18:03:12
IMG_8107.jpg
F:\TRABAJOS\Colegios\Fundacion Arturo Merino Benitez\Tantauco\20
14\Nueva carpeta
4,04 MB 10-08-2010 18:03:12
----------------------------------------------------------------------------------------------------------------------------------------------------IMG_8108.jpg
F:\TRABAJOS\Colegios\Fundacion Arturo Merino Benitez\Tantauco\20
11\fotos volante\Nueva carpeta 4,47 MB 10-08-2010 18:04:15
IMG_8108.jpg
F:\TRABAJOS\Colegios\Fundacion Arturo Merino Benitez\Tantauco\20
14\Nueva carpeta
4,47 MB 10-08-2010 18:04:15
----------------------------------------------------------------------------------------------------------------------------------------------------IMG_8113.jpg
F:\TRABAJOS\Colegios\Fundacion Arturo Merino Benitez\Tantauco\20
11\fotos volante\Nueva carpeta 4,29 MB 10-08-2010 17:42:20
IMG_8113.jpg
F:\TRABAJOS\Colegios\Fundacion Arturo Merino Benitez\Tantauco\20
14\Nueva carpeta
4,29 MB 10-08-2010 17:42:20
----------------------------------------------------------------------------------------------------------------------------------------------------IMG_8116.jpg
F:\TRABAJOS\Colegios\Fundacion Arturo Merino Benitez\Tantauco\20
11\fotos volante\Nueva carpeta 3,47 MB 10-08-2010 18:01:22
IMG_8116.jpg
F:\TRABAJOS\Colegios\Fundacion Arturo Merino Benitez\Tantauco\20
14\Nueva carpeta
3,47 MB 10-08-2010 18:01:22
----------------------------------------------------------------------------------------------------------------------------------------------------IMG_8124.jpg
F:\TRABAJOS\Colegios\Fundacion Arturo Merino Benitez\Tantauco\20
11\fotos volante\Nueva carpeta 5,53 MB 10-08-2010 17:44:14
IMG_8124.jpg
F:\TRABAJOS\Colegios\Fundacion Arturo Merino Benitez\Tantauco\20
14\Nueva carpeta
5,53 MB 10-08-2010 17:44:14
----------------------------------------------------------------------------------------------------------------------------------------------------IMG_8135.jpg
F:\TRABAJOS\Colegios\Fundacion Arturo Merino Benitez\Tantauco\20
11\fotos volante\Nueva carpeta 3,27 MB 10-08-2010 18:06:10
IMG_8135.jpg
F:\TRABAJOS\Colegios\Fundacion Arturo Merino Benitez\Tantauco\20
14\Nueva carpeta
3,27 MB 10-08-2010 18:06:10
-----------------------------------------------------------------------------------------------------------------------------------------------------

IMG_8137.jpg
F:\TRABAJOS\Colegios\Fundacion Arturo Merino Benitez\Tantauco\20
11\fotos volante\Nueva carpeta 3,03 MB 10-08-2010 17:46:04
IMG_8137.jpg
F:\TRABAJOS\Colegios\Fundacion Arturo Merino Benitez\Tantauco\20
14\Nueva carpeta
3,03 MB 10-08-2010 17:46:04
----------------------------------------------------------------------------------------------------------------------------------------------------IMG_8140.jpg
F:\TRABAJOS\Colegios\Fundacion Arturo Merino Benitez\Tantauco\20
11\fotos volante\Nueva carpeta 3,81 MB 10-08-2010 17:53:02
IMG_8140.jpg
F:\TRABAJOS\Colegios\Fundacion Arturo Merino Benitez\Tantauco\20
14\Nueva carpeta
3,81 MB 10-08-2010 17:53:02
----------------------------------------------------------------------------------------------------------------------------------------------------IMG_8145.jpg
F:\TRABAJOS\Colegios\Fundacion Arturo Merino Benitez\Tantauco\20
11\fotos volante\Nueva carpeta 4,17 MB 10-08-2010 17:48:50
IMG_8145.jpg
F:\TRABAJOS\Colegios\Fundacion Arturo Merino Benitez\Tantauco\20
14\Nueva carpeta
4,17 MB 10-08-2010 17:48:50
----------------------------------------------------------------------------------------------------------------------------------------------------IMG_8147.jpg
F:\TRABAJOS\Colegios\Fundacion Arturo Merino Benitez\Tantauco\20
11\fotos volante\Nueva carpeta 3,97 MB 10-08-2010 17:51:12
IMG_8147.jpg
F:\TRABAJOS\Colegios\Fundacion Arturo Merino Benitez\Tantauco\20
14\Nueva carpeta
3,97 MB 10-08-2010 17:51:12
----------------------------------------------------------------------------------------------------------------------------------------------------IMG_8151.jpg
F:\TRABAJOS\Colegios\Fundacion Arturo Merino Benitez\Tantauco\20
11\fotos volante\Nueva carpeta 2,47 MB 10-08-2010 18:07:01
IMG_8151.jpg
F:\TRABAJOS\Colegios\Fundacion Arturo Merino Benitez\Tantauco\20
14\Nueva carpeta
2,47 MB 10-08-2010 18:07:01
----------------------------------------------------------------------------------------------------------------------------------------------------IMG_8152.jpg
F:\TRABAJOS\Colegios\Fundacion Arturo Merino Benitez\Tantauco\20
11\fotos volante\Nueva carpeta 3,69 MB 10-08-2010 17:49:59
IMG_8152.jpg
F:\TRABAJOS\Colegios\Fundacion Arturo Merino Benitez\Tantauco\20
14\Nueva carpeta
3,69 MB 10-08-2010 17:49:59
----------------------------------------------------------------------------------------------------------------------------------------------------IMG_8163.jpg
F:\TRABAJOS\Colegios\Fundacion Arturo Merino Benitez\Tantauco\20
11\fotos volante\Nueva carpeta 4,06 MB 10-08-2010 18:10:25
IMG_8163.jpg
F:\TRABAJOS\Colegios\Fundacion Arturo Merino Benitez\Tantauco\20
14\Nueva carpeta
4,06 MB 10-08-2010 18:10:25
----------------------------------------------------------------------------------------------------------------------------------------------------IMG_8164.jpg
F:\TRABAJOS\Colegios\Fundacion Arturo Merino Benitez\Tantauco\20
11\fotos volante\Nueva carpeta 3,08 MB 10-08-2010 18:11:20
IMG_8164.jpg
F:\TRABAJOS\Colegios\Fundacion Arturo Merino Benitez\Tantauco\20
14\Nueva carpeta
3,08 MB 10-08-2010 18:11:20
----------------------------------------------------------------------------------------------------------------------------------------------------IMG_8165.jpg
F:\TRABAJOS\Colegios\Fundacion Arturo Merino Benitez\Tantauco\20
11\fotos volante\Nueva carpeta 3,86 MB 10-08-2010 18:12:21
IMG_8165.jpg
F:\TRABAJOS\Colegios\Fundacion Arturo Merino Benitez\Tantauco\20
14\Nueva carpeta
3,86 MB 10-08-2010 18:12:21
----------------------------------------------------------------------------------------------------------------------------------------------------IMG_8167.jpg
F:\TRABAJOS\Colegios\Fundacion Arturo Merino Benitez\Tantauco\20
11\fotos volante\Nueva carpeta 3,46 MB 10-08-2010 18:13:34
IMG_8167.jpg
F:\TRABAJOS\Colegios\Fundacion Arturo Merino Benitez\Tantauco\20
14\Nueva carpeta
3,46 MB 10-08-2010 18:13:34
-----------------------------------------------------------------------------------------------------------------------------------------------------

IMG_8168.jpg
F:\TRABAJOS\Colegios\Fundacion Arturo Merino Benitez\Tantauco\20
11\fotos volante\Nueva carpeta 4,08 MB 10-08-2010 18:15:06
IMG_8168.jpg
F:\TRABAJOS\Colegios\Fundacion Arturo Merino Benitez\Tantauco\20
14\Nueva carpeta
4,08 MB 10-08-2010 18:15:06
----------------------------------------------------------------------------------------------------------------------------------------------------IMG_8170.jpg
F:\TRABAJOS\Colegios\Fundacion Arturo Merino Benitez\Tantauco\20
11\fotos volante\Nueva carpeta 4,10 MB 10-08-2010 18:16:11
IMG_8170.jpg
F:\TRABAJOS\Colegios\Fundacion Arturo Merino Benitez\Tantauco\20
14\Nueva carpeta
4,10 MB 10-08-2010 18:16:11
----------------------------------------------------------------------------------------------------------------------------------------------------IMG_8175.jpg
F:\TRABAJOS\Colegios\Fundacion Arturo Merino Benitez\Tantauco\20
11\fotos volante\Nueva carpeta 4,89 MB 10-08-2010 18:17:03
IMG_8175.jpg
F:\TRABAJOS\Colegios\Fundacion Arturo Merino Benitez\Tantauco\20
14\Nueva carpeta
4,89 MB 10-08-2010 18:17:03
----------------------------------------------------------------------------------------------------------------------------------------------------IMG_8183.jpg
F:\TRABAJOS\Colegios\Fundacion Arturo Merino Benitez\Tantauco\20
11\fotos volante\Nueva carpeta 3,28 MB 10-08-2010 18:19:36
IMG_8183.jpg
F:\TRABAJOS\Colegios\Fundacion Arturo Merino Benitez\Tantauco\20
14\Nueva carpeta
3,28 MB 10-08-2010 18:19:36
----------------------------------------------------------------------------------------------------------------------------------------------------IMG_8185.jpg
F:\TRABAJOS\Colegios\Fundacion Arturo Merino Benitez\Tantauco\20
11\fotos volante\Nueva carpeta 2,60 MB 10-08-2010 18:20:29
IMG_8185.jpg
F:\TRABAJOS\Colegios\Fundacion Arturo Merino Benitez\Tantauco\20
14\Nueva carpeta
2,60 MB 10-08-2010 18:20:29
----------------------------------------------------------------------------------------------------------------------------------------------------IMG_8196.jpg
F:\TRABAJOS\Colegios\Fundacion Arturo Merino Benitez\Tantauco\20
11\fotos volante\Nueva carpeta 4,71 MB 10-08-2010 18:22:22
IMG_8196.jpg
F:\TRABAJOS\Colegios\Fundacion Arturo Merino Benitez\Tantauco\20
14\Nueva carpeta
4,71 MB 10-08-2010 18:22:22
----------------------------------------------------------------------------------------------------------------------------------------------------IMG_8197.jpg
F:\TRABAJOS\Colegios\Fundacion Arturo Merino Benitez\Tantauco\20
11\fotos volante\Nueva carpeta 2,36 MB 10-08-2010 18:24:03
IMG_8197.jpg
F:\TRABAJOS\Colegios\Fundacion Arturo Merino Benitez\Tantauco\20
14\Nueva carpeta
2,36 MB 10-08-2010 18:24:03
----------------------------------------------------------------------------------------------------------------------------------------------------IMG_8202.jpg
F:\TRABAJOS\Colegios\Fundacion Arturo Merino Benitez\Tantauco\20
11\fotos volante\Nueva carpeta 3,88 MB 10-08-2010 18:25:32
IMG_8202.jpg
F:\TRABAJOS\Colegios\Fundacion Arturo Merino Benitez\Tantauco\20
14\Nueva carpeta
3,88 MB 10-08-2010 18:25:32
----------------------------------------------------------------------------------------------------------------------------------------------------IMG_8204.jpg
F:\TRABAJOS\Colegios\Fundacion Arturo Merino Benitez\Tantauco\20
11\fotos volante\Nueva carpeta 4,30 MB 10-08-2010 18:27:59
IMG_8204.jpg
F:\TRABAJOS\Colegios\Fundacion Arturo Merino Benitez\Tantauco\20
14\Nueva carpeta
4,30 MB 10-08-2010 18:27:59
----------------------------------------------------------------------------------------------------------------------------------------------------IMG_8205.jpg
F:\TRABAJOS\Colegios\Fundacion Arturo Merino Benitez\Tantauco\20
11\fotos volante\Nueva carpeta 3,45 MB 10-08-2010 18:29:14
IMG_8205.jpg
F:\TRABAJOS\Colegios\Fundacion Arturo Merino Benitez\Tantauco\20
14\Nueva carpeta
3,45 MB 10-08-2010 18:29:14
-----------------------------------------------------------------------------------------------------------------------------------------------------

IMG_8208.jpg
F:\TRABAJOS\Colegios\Fundacion Arturo Merino Benitez\Tantauco\20
11\fotos volante\Nueva carpeta 3,19 MB 10-08-2010 18:29:54
IMG_8208.jpg
F:\TRABAJOS\Colegios\Fundacion Arturo Merino Benitez\Tantauco\20
14\Nueva carpeta
3,19 MB 10-08-2010 18:29:54
----------------------------------------------------------------------------------------------------------------------------------------------------IMG_8211.jpg
F:\TRABAJOS\Colegios\Fundacion Arturo Merino Benitez\Tantauco\20
11\fotos volante\Nueva carpeta 3,00 MB 10-08-2010 18:38:24
IMG_8211.jpg
F:\TRABAJOS\Colegios\Fundacion Arturo Merino Benitez\Tantauco\20
14\Nueva carpeta
3,00 MB 10-08-2010 18:38:24
----------------------------------------------------------------------------------------------------------------------------------------------------IMG_8213.jpg
F:\TRABAJOS\Colegios\Fundacion Arturo Merino Benitez\Tantauco\20
11\fotos volante\Nueva carpeta 3,19 MB 10-08-2010 18:38:46
IMG_8213.jpg
F:\TRABAJOS\Colegios\Fundacion Arturo Merino Benitez\Tantauco\20
14\Nueva carpeta
3,19 MB 10-08-2010 18:38:46
----------------------------------------------------------------------------------------------------------------------------------------------------IMG_8220.jpg
F:\TRABAJOS\Colegios\Fundacion Arturo Merino Benitez\Tantauco\20
11\fotos volante\Nueva carpeta 3,24 MB 10-08-2010 18:35:50
IMG_8220.jpg
F:\TRABAJOS\Colegios\Fundacion Arturo Merino Benitez\Tantauco\20
14\Nueva carpeta
3,24 MB 10-08-2010 18:35:50
----------------------------------------------------------------------------------------------------------------------------------------------------IMG_8220.psd
F:\TRABAJOS\Colegios\Fundacion Arturo Merino Benitez\Tantauco\20
11\fotos volante\Nueva carpeta 20,6 MB 13-08-2010 17:55:26
IMG_8220.psd
F:\TRABAJOS\Colegios\Fundacion Arturo Merino Benitez\Tantauco\20
14\Nueva carpeta
20,6 MB 13-08-2010 17:55:26
----------------------------------------------------------------------------------------------------------------------------------------------------IMG_8223.jpg
F:\TRABAJOS\Colegios\Fundacion Arturo Merino Benitez\Tantauco\20
11\fotos volante\Nueva carpeta 3,48 MB 10-08-2010 18:40:19
IMG_8223.jpg
F:\TRABAJOS\Colegios\Fundacion Arturo Merino Benitez\Tantauco\20
14\Nueva carpeta
3,48 MB 10-08-2010 18:40:19
----------------------------------------------------------------------------------------------------------------------------------------------------IMG_8228.jpg
F:\TRABAJOS\Colegios\Fundacion Arturo Merino Benitez\Tantauco\20
11\fotos volante\Nueva carpeta 4,02 MB 10-08-2010 18:45:38
IMG_8228.jpg
F:\TRABAJOS\Colegios\Fundacion Arturo Merino Benitez\Tantauco\20
14\Nueva carpeta
4,02 MB 10-08-2010 18:45:38
----------------------------------------------------------------------------------------------------------------------------------------------------IMG_8238.jpg
F:\TRABAJOS\Colegios\Fundacion Arturo Merino Benitez\Tantauco\20
11\fotos volante\Nueva carpeta 3,72 MB 10-08-2010 18:47:09
IMG_8238.jpg
F:\TRABAJOS\Colegios\Fundacion Arturo Merino Benitez\Tantauco\20
14\Nueva carpeta
3,72 MB 10-08-2010 18:47:09
----------------------------------------------------------------------------------------------------------------------------------------------------IMG_8243.jpg
F:\TRABAJOS\Colegios\Fundacion Arturo Merino Benitez\Tantauco\20
11\fotos volante\Nueva carpeta 3,23 MB 10-08-2010 18:47:54
IMG_8243.jpg
F:\TRABAJOS\Colegios\Fundacion Arturo Merino Benitez\Tantauco\20
14\Nueva carpeta
3,23 MB 10-08-2010 18:47:54
----------------------------------------------------------------------------------------------------------------------------------------------------IMG_8257.jpg
F:\TRABAJOS\Colegios\Fundacion Arturo Merino Benitez\Tantauco\20
11\fotos volante\Nueva carpeta 3,04 MB 10-08-2010 18:49:06
IMG_8257.jpg
F:\TRABAJOS\Colegios\Fundacion Arturo Merino Benitez\Tantauco\20
14\Nueva carpeta
3,04 MB 10-08-2010 18:49:06
-----------------------------------------------------------------------------------------------------------------------------------------------------

IMG_8259.jpg
F:\TRABAJOS\Colegios\Fundacion Arturo Merino Benitez\Tantauco\20
11\fotos volante\Nueva carpeta 1,39 MB 10-08-2010 18:49:46
IMG_8259.jpg
F:\TRABAJOS\Colegios\Fundacion Arturo Merino Benitez\Tantauco\20
14\Nueva carpeta
1,39 MB 10-08-2010 18:49:46
----------------------------------------------------------------------------------------------------------------------------------------------------IMG_8260.jpg
F:\TRABAJOS\Colegios\Fundacion Arturo Merino Benitez\Tantauco\20
11\fotos volante\Nueva carpeta 3,37 MB 10-08-2010 18:50:27
IMG_8260.jpg
F:\TRABAJOS\Colegios\Fundacion Arturo Merino Benitez\Tantauco\20
14\Nueva carpeta
3,37 MB 10-08-2010 18:50:27
----------------------------------------------------------------------------------------------------------------------------------------------------IMG_8261.jpg
F:\TRABAJOS\Colegios\Fundacion Arturo Merino Benitez\Tantauco\20
11\fotos volante\Nueva carpeta 2,94 MB 10-08-2010 18:51:21
IMG_8261.jpg
F:\TRABAJOS\Colegios\Fundacion Arturo Merino Benitez\Tantauco\20
14\Nueva carpeta
2,94 MB 10-08-2010 18:51:21
----------------------------------------------------------------------------------------------------------------------------------------------------IMG_8262.jpg
F:\TRABAJOS\Colegios\Fundacion Arturo Merino Benitez\Tantauco\20
11\fotos volante\Nueva carpeta 3,33 MB 10-08-2010 18:52:42
IMG_8262.jpg
F:\TRABAJOS\Colegios\Fundacion Arturo Merino Benitez\Tantauco\20
14\Nueva carpeta
3,33 MB 10-08-2010 18:52:42
----------------------------------------------------------------------------------------------------------------------------------------------------IMG_8269.jpg
F:\TRABAJOS\Colegios\Fundacion Arturo Merino Benitez\Tantauco\20
11\fotos volante\Nueva carpeta 3,18 MB 10-08-2010 18:58:40
IMG_8269.jpg
F:\TRABAJOS\Colegios\Fundacion Arturo Merino Benitez\Tantauco\20
14\Nueva carpeta
3,18 MB 10-08-2010 18:58:40
----------------------------------------------------------------------------------------------------------------------------------------------------IMG_8272.jpg
F:\TRABAJOS\Colegios\Fundacion Arturo Merino Benitez\Tantauco\20
11\fotos volante\Nueva carpeta 4,04 MB 10-08-2010 18:59:35
IMG_8272.jpg
F:\TRABAJOS\Colegios\Fundacion Arturo Merino Benitez\Tantauco\20
14\Nueva carpeta
4,04 MB 10-08-2010 18:59:35
----------------------------------------------------------------------------------------------------------------------------------------------------IMG_8281.jpg
F:\TRABAJOS\Colegios\Fundacion Arturo Merino Benitez\Tantauco\20
11\fotos volante\Nueva carpeta 2,89 MB 10-08-2010 19:01:23
IMG_8281.jpg
F:\TRABAJOS\Colegios\Fundacion Arturo Merino Benitez\Tantauco\20
14\Nueva carpeta
2,89 MB 10-08-2010 19:01:23
----------------------------------------------------------------------------------------------------------------------------------------------------IMG_8283.jpg
F:\TRABAJOS\Colegios\Fundacion Arturo Merino Benitez\Tantauco\20
11\fotos volante\Nueva carpeta 2,55 MB 12-08-2010 21:52:13
IMG_8283.jpg
F:\TRABAJOS\Colegios\Fundacion Arturo Merino Benitez\Tantauco\20
14\Nueva carpeta
2,55 MB 12-08-2010 21:52:13
----------------------------------------------------------------------------------------------------------------------------------------------------IMG_8283.psd
F:\TRABAJOS\Colegios\Fundacion Arturo Merino Benitez\Tantauco\20
11\fotos volante\Nueva carpeta 21,5 MB 12-08-2010 22:02:36
IMG_8283.psd
F:\TRABAJOS\Colegios\Fundacion Arturo Merino Benitez\Tantauco\20
14\Nueva carpeta
21,5 MB 12-08-2010 22:02:36
----------------------------------------------------------------------------------------------------------------------------------------------------IMG_8284.jpg
F:\TRABAJOS\Colegios\Fundacion Arturo Merino Benitez\Tantauco\20
11\fotos volante\Nueva carpeta 2,89 MB 24-08-2010 22:28:02
IMG_8284.jpg
F:\TRABAJOS\Colegios\Fundacion Arturo Merino Benitez\Tantauco\20
14\Nueva carpeta
2,89 MB 24-08-2010 22:28:02
-----------------------------------------------------------------------------------------------------------------------------------------------------

IMG_8291.jpg
F:\TRABAJOS\Colegios\Fundacion Arturo Merino Benitez\Tantauco\20
11\fotos volante\Nueva carpeta 3,08 MB 10-08-2010 19:02:54
IMG_8291.jpg
F:\TRABAJOS\Colegios\Fundacion Arturo Merino Benitez\Tantauco\20
14\Nueva carpeta
3,08 MB 10-08-2010 19:02:54
----------------------------------------------------------------------------------------------------------------------------------------------------IMG_8292.jpg
F:\TRABAJOS\Colegios\Fundacion Arturo Merino Benitez\Tantauco\20
11\fotos volante\Nueva carpeta 3,37 MB 10-08-2010 19:04:07
IMG_8292.jpg
F:\TRABAJOS\Colegios\Fundacion Arturo Merino Benitez\Tantauco\20
14\Nueva carpeta
3,37 MB 10-08-2010 19:04:07
----------------------------------------------------------------------------------------------------------------------------------------------------IMG_8302.jpg
F:\TRABAJOS\Colegios\Fundacion Arturo Merino Benitez\Tantauco\20
11\fotos volante\Nueva carpeta 2,52 MB 10-08-2010 19:20:51
IMG_8302.jpg
F:\TRABAJOS\Colegios\Fundacion Arturo Merino Benitez\Tantauco\20
14\Nueva carpeta
2,52 MB 10-08-2010 19:20:51
----------------------------------------------------------------------------------------------------------------------------------------------------IMG_8304.jpg
F:\TRABAJOS\Colegios\Fundacion Arturo Merino Benitez\Tantauco\20
11\fotos volante\Nueva carpeta 3,71 MB 10-08-2010 19:21:42
IMG_8304.jpg
F:\TRABAJOS\Colegios\Fundacion Arturo Merino Benitez\Tantauco\20
14\Nueva carpeta
3,71 MB 10-08-2010 19:21:42
----------------------------------------------------------------------------------------------------------------------------------------------------IMG_8305.jpg
F:\TRABAJOS\Colegios\Fundacion Arturo Merino Benitez\Tantauco\20
11\fotos volante\Nueva carpeta 2,76 MB 10-08-2010 19:22:43
IMG_8305.jpg
F:\TRABAJOS\Colegios\Fundacion Arturo Merino Benitez\Tantauco\20
14\Nueva carpeta
2,76 MB 10-08-2010 19:22:43
----------------------------------------------------------------------------------------------------------------------------------------------------IMG_8313.jpg
F:\TRABAJOS\Colegios\Fundacion Arturo Merino Benitez\Tantauco\20
11\fotos volante\Nueva carpeta 3,91 MB 10-08-2010 19:23:17
IMG_8313.jpg
F:\TRABAJOS\Colegios\Fundacion Arturo Merino Benitez\Tantauco\20
14\Nueva carpeta
3,91 MB 10-08-2010 19:23:17
----------------------------------------------------------------------------------------------------------------------------------------------------IMG_8315.jpg
F:\TRABAJOS\Colegios\Fundacion Arturo Merino Benitez\Tantauco\20
11\fotos volante\Nueva carpeta 2,91 MB 10-08-2010 19:23:49
IMG_8315.jpg
F:\TRABAJOS\Colegios\Fundacion Arturo Merino Benitez\Tantauco\20
14\Nueva carpeta
2,91 MB 10-08-2010 19:23:49
----------------------------------------------------------------------------------------------------------------------------------------------------IMG_8319.jpg
F:\TRABAJOS\Colegios\Fundacion Arturo Merino Benitez\Tantauco\20
11\fotos volante\Nueva carpeta 2,85 MB 10-08-2010 19:24:28
IMG_8319.jpg
F:\TRABAJOS\Colegios\Fundacion Arturo Merino Benitez\Tantauco\20
14\Nueva carpeta
2,85 MB 10-08-2010 19:24:28
----------------------------------------------------------------------------------------------------------------------------------------------------IMG_8325.jpg
F:\TRABAJOS\Colegios\Fundacion Arturo Merino Benitez\Tantauco\20
11\fotos volante\Nueva carpeta 3,19 MB 10-08-2010 20:06:53
IMG_8325.jpg
F:\TRABAJOS\Colegios\Fundacion Arturo Merino Benitez\Tantauco\20
14\Nueva carpeta
3,19 MB 10-08-2010 20:06:53
----------------------------------------------------------------------------------------------------------------------------------------------------IMG_8339.jpg
F:\TRABAJOS\Colegios\Fundacion Arturo Merino Benitez\Tantauco\20
11\fotos volante\Nueva carpeta 3,82 MB 10-08-2010 20:07:53
IMG_8339.jpg
F:\TRABAJOS\Colegios\Fundacion Arturo Merino Benitez\Tantauco\20
14\Nueva carpeta
3,82 MB 10-08-2010 20:07:53
-----------------------------------------------------------------------------------------------------------------------------------------------------

IMG_8341.jpg
F:\TRABAJOS\Colegios\Fundacion Arturo Merino Benitez\Tantauco\20
11\fotos volante\Nueva carpeta 3,62 MB 10-08-2010 20:08:38
IMG_8341.jpg
F:\TRABAJOS\Colegios\Fundacion Arturo Merino Benitez\Tantauco\20
14\fotos
3,62 MB 10-08-2010 20:08:38
IMG_8341.jpg
F:\TRABAJOS\Colegios\Fundacion Arturo Merino Benitez\Tantauco\20
14\Nueva carpeta
3,62 MB 10-08-2010 20:08:38
----------------------------------------------------------------------------------------------------------------------------------------------------IMG_8347.jpg
F:\TRABAJOS\Colegios\Fundacion Arturo Merino Benitez\Tantauco\20
11\fotos volante\Nueva carpeta 3,71 MB 10-08-2010 20:12:18
IMG_8347.jpg
F:\TRABAJOS\Colegios\Fundacion Arturo Merino Benitez\Tantauco\20
14\Nueva carpeta
3,71 MB 10-08-2010 20:12:18
----------------------------------------------------------------------------------------------------------------------------------------------------IMG_8351.jpg
F:\TRABAJOS\Colegios\Fundacion Arturo Merino Benitez\Tantauco\20
11\fotos volante\Nueva carpeta 4,18 MB 10-08-2010 20:13:27
IMG_8351.jpg
F:\TRABAJOS\Colegios\Fundacion Arturo Merino Benitez\Tantauco\20
14\Nueva carpeta
4,18 MB 10-08-2010 20:13:27
----------------------------------------------------------------------------------------------------------------------------------------------------IMG_8355.jpg
F:\TRABAJOS\Colegios\Fundacion Arturo Merino Benitez\Tantauco\20
11\fotos volante\Nueva carpeta 3,80 MB 10-08-2010 20:14:50
IMG_8355.jpg
F:\TRABAJOS\Colegios\Fundacion Arturo Merino Benitez\Tantauco\20
14\Nueva carpeta
3,80 MB 10-08-2010 20:14:50
----------------------------------------------------------------------------------------------------------------------------------------------------IMG_8358.jpg
F:\TRABAJOS\Colegios\Fundacion Arturo Merino Benitez\Tantauco\20
11\fotos volante\Nueva carpeta 1,82 MB 10-08-2010 20:15:44
IMG_8358.jpg
F:\TRABAJOS\Colegios\Fundacion Arturo Merino Benitez\Tantauco\20
14\Nueva carpeta
1,82 MB 10-08-2010 20:15:44
----------------------------------------------------------------------------------------------------------------------------------------------------IMG_8360.jpg
F:\TRABAJOS\Colegios\Fundacion Arturo Merino Benitez\Tantauco\20
11\fotos volante\Nueva carpeta 3,57 MB 10-08-2010 20:16:29
IMG_8360.jpg
F:\TRABAJOS\Colegios\Fundacion Arturo Merino Benitez\Tantauco\20
14\Nueva carpeta
3,57 MB 10-08-2010 20:16:29
----------------------------------------------------------------------------------------------------------------------------------------------------IMG_8361.jpg
F:\TRABAJOS\Colegios\Fundacion Arturo Merino Benitez\Tantauco\20
11\fotos volante\Nueva carpeta 3,25 MB 10-08-2010 20:17:16
IMG_8361.jpg
F:\TRABAJOS\Colegios\Fundacion Arturo Merino Benitez\Tantauco\20
14\Nueva carpeta
3,25 MB 10-08-2010 20:17:16
----------------------------------------------------------------------------------------------------------------------------------------------------IMG_8362.jpg
F:\TRABAJOS\Colegios\Fundacion Arturo Merino Benitez\Tantauco\20
11\fotos volante\Nueva carpeta 2,31 MB 10-08-2010 20:17:47
IMG_8362.jpg
F:\TRABAJOS\Colegios\Fundacion Arturo Merino Benitez\Tantauco\20
14\Nueva carpeta
2,31 MB 10-08-2010 20:17:47
----------------------------------------------------------------------------------------------------------------------------------------------------IMG_8369.jpg
F:\TRABAJOS\Colegios\Fundacion Arturo Merino Benitez\Tantauco\20
11\fotos volante\Nueva carpeta 5,02 MB 10-08-2010 20:19:13
IMG_8369.jpg
F:\TRABAJOS\Colegios\Fundacion Arturo Merino Benitez\Tantauco\20
14\Nueva carpeta
5,02 MB 10-08-2010 20:19:13
----------------------------------------------------------------------------------------------------------------------------------------------------IMG_8372.jpg
F:\TRABAJOS\Colegios\Fundacion Arturo Merino Benitez\Tantauco\20
11\fotos volante\Nueva carpeta 3,07 MB 10-08-2010 20:20:23
IMG_8372.jpg
F:\TRABAJOS\Colegios\Fundacion Arturo Merino Benitez\Tantauco\20
14\Nueva carpeta
3,07 MB 10-08-2010 20:20:23

----------------------------------------------------------------------------------------------------------------------------------------------------IMG_8234.JPG
F:\TRABAJOS\Colegios\Fundacion Arturo Merino Benitez\Tantauco\20
11\Fots 2011
2,75 MB 04-08-2010 23:15:14
IMG_8234.JPG
F:\TRABAJOS\Colegios\Fundacion Arturo Merino Benitez\Tantauco\20
13
2,75 MB 04-08-2010 23:15:14
----------------------------------------------------------------------------------------------------------------------------------------------------IMG_8341.JPG
F:\TRABAJOS\Colegios\Fundacion Arturo Merino Benitez\Tantauco\20
11\Fots 2011
2,41 MB 28-07-2010 8:07:16
IMG_8341.JPG
F:\TRABAJOS\Colegios\Fundacion Arturo Merino Benitez\Tantauco\20
13
2,41 MB 28-07-2010 8:07:16
----------------------------------------------------------------------------------------------------------------------------------------------------DSC_0136.JPG
F:\TRABAJOS\Colegios\Fundacion Arturo Merino Benitez\Tantauco\20
12\Anuario\05-12-2013\1 BASICO B_OK
5,03 MB 13-08-2012 19:55:20
DSC_0136.JPG
F:\TRABAJOS\Colegios\Fundacion Arturo Merino Benitez\Tantauco\20
12\Anuario\Departamentos\FOTOS CURSOS\1 BASICO B
5,03 MB 13-08-2012 19:55
:20
----------------------------------------------------------------------------------------------------------------------------------------------------DSC_0149.JPG
F:\TRABAJOS\Colegios\Fundacion Arturo Merino Benitez\Tantauco\20
12\Anuario\05-12-2013\5 BASICO A_OK
5,23 MB 13-08-2012 20:34:48
DSC_0149.JPG
F:\TRABAJOS\Colegios\Fundacion Arturo Merino Benitez\Tantauco\20
12\Anuario\Departamentos\FOTOS CURSOS\5 BASICO A
5,23 MB 13-08-2012 20:34:48
----------------------------------------------------------------------------------------------------------------------------------------------------I MEDIO A.JPG F:\TRABAJOS\Colegios\Fundacion Arturo Merino Benitez\Tantauco\20
12\Anuario\05-12-2013\I MEDIO A_OK
5,63 MB 16-08-2012 16:57:44
I MEDIO A.JPG F:\TRABAJOS\Colegios\Fundacion Arturo Merino Benitez\Tantauco\20
12\Anuario\Departamentos\FOTOS CURSOS\I MEDIO A 5,63 MB 16-08-2012 16:57:44
----------------------------------------------------------------------------------------------------------------------------------------------------DSC_0103.JPG
F:\TRABAJOS\Colegios\Fundacion Arturo Merino Benitez\Tantauco\20
12\Anuario\05-12-2013\I MEDIO B_OK
4,84 MB 09-08-2012 17:45:26
DSC_0103.JPG
F:\TRABAJOS\Colegios\Fundacion Arturo Merino Benitez\Tantauco\20
12\Anuario\Departamentos\FOTOS CURSOS\I MEDIO B 4,84 MB 09-08-2012 17:45:26
----------------------------------------------------------------------------------------------------------------------------------------------------II MEDIO A.JPG F:\TRABAJOS\Colegios\Fundacion Arturo Merino Benitez\Tantauco\20
12\Anuario\05-12-2013\II MEDIO A_OK
5,34 MB 16-08-2012 16:14:02
II MEDIO A.JPG F:\TRABAJOS\Colegios\Fundacion Arturo Merino Benitez\Tantauco\20
12\Anuario\Departamentos\FOTOS CURSOS\II MEDIO A
5,34 MB 16-08-2012 16:14
:02
----------------------------------------------------------------------------------------------------------------------------------------------------DSC_0088.JPG
F:\TRABAJOS\Colegios\Fundacion Arturo Merino Benitez\Tantauco\20
12\Anuario\05-12-2013\II MEDIO B_OK
5,16 MB 09-08-2012 17:00:16
DSC_0088.JPG
F:\TRABAJOS\Colegios\Fundacion Arturo Merino Benitez\Tantauco\20
12\Anuario\Departamentos\FOTOS CURSOS\II MEDIO B
5,16 MB 09-08-2012 17:00
:16
----------------------------------------------------------------------------------------------------------------------------------------------------DSC_0112.JPG
F:\TRABAJOS\Colegios\Fundacion Arturo Merino Benitez\Tantauco\20
12\Anuario\05-12-2013\III MEDIO A_OK
5,39 MB 20-08-2012 17:03:22
DSC_0112.JPG
F:\TRABAJOS\Colegios\Fundacion Arturo Merino Benitez\Tantauco\20
12\Anuario\Departamentos\FOTOS CURSOS\III MEDIO A
5,39 MB 20-08-2012 17:03
:22
-----------------------------------------------------------------------------------------------------------------------------------------------------

DSC_0129.JPG
F:\TRABAJOS\Colegios\Fundacion Arturo Merino Benitez\Tantauco\20
12\Anuario\05-12-2013\III MEDIO B_OK
5,50 MB 16-08-2012 15:45:34
DSC_0129.JPG
F:\TRABAJOS\Colegios\Fundacion Arturo Merino Benitez\Tantauco\20
12\Anuario\Departamentos\FOTOS CURSOS\III MEDIO B
5,50 MB 16-08-2012 15:45
:34
----------------------------------------------------------------------------------------------------------------------------------------------------DSC_0079.JPG
F:\TRABAJOS\Colegios\Fundacion Arturo Merino Benitez\Tantauco\20
12\Anuario\05-12-2013\IV MEDIO A_OK
5,08 MB 09-08-2012 16:07:14
DSC_0079.JPG
F:\TRABAJOS\Colegios\Fundacion Arturo Merino Benitez\Tantauco\20
12\Anuario\Departamentos\FOTOS CURSOS\IV MEDIO A
5,08 MB 09-08-2012 16:07
:14
----------------------------------------------------------------------------------------------------------------------------------------------------IV MEDIO B.JPG F:\TRABAJOS\Colegios\Fundacion Arturo Merino Benitez\Tantauco\20
12\Anuario\05-12-2013\IV MEDIO B_OK
5,47 MB 06-09-2012 15:50:30
IV MEDIO B.JPG F:\TRABAJOS\Colegios\Fundacion Arturo Merino Benitez\Tantauco\20
12\Anuario\Departamentos\FOTOS CURSOS\IV MEDIO B
5,47 MB 06-09-2012 15:50
:30
IV MEDIO B.JPG F:\TRABAJOS\Colegios\Fundacion Arturo Merino Benitez\Tantauco\20
12\Anuario\Paginas\4tos medios\4to medio B\Foto Curso 5,47 MB 06-09-2012 15:50
:30
----------------------------------------------------------------------------------------------------------------------------------------------------DSC_0089.JPG
F:\TRABAJOS\Colegios\Fundacion Arturo Merino Benitez\Tantauco\20
12\Anuario\05-12-2013\KINDER A_OK
4,89 MB 20-08-2012 15:53:02
DSC_0089.JPG
F:\TRABAJOS\Colegios\Fundacion Arturo Merino Benitez\Tantauco\20
12\Anuario\Departamentos\FOTOS CURSOS\KINDER A 4,89 MB 20-08-2012 15:53:02
----------------------------------------------------------------------------------------------------------------------------------------------------IMG_0298.JPG
F:\TRABAJOS\Colegios\Fundacion Arturo Merino Benitez\Tantauco\20
12\Anuario\30 DE NOVIEMBRE\05_17_2012_-_Proyecto_EXPLORA
3,21 MB 01-08-20
12 17:15:00
IMG_0298.JPG
F:\TRABAJOS\Colegios\Fundacion Arturo Merino Benitez\Tantauco\20
12\Anuario\Fotos\Proyecto Explora Alumnos
3,21 MB 01-08-2012 17:15:00
----------------------------------------------------------------------------------------------------------------------------------------------------IMG_0299.JPG
F:\TRABAJOS\Colegios\Fundacion Arturo Merino Benitez\Tantauco\20
12\Anuario\30 DE NOVIEMBRE\05_17_2012_-_Proyecto_EXPLORA
3,37 MB 01-08-20
12 17:15:12
IMG_0299.JPG
F:\TRABAJOS\Colegios\Fundacion Arturo Merino Benitez\Tantauco\20
12\Anuario\Fotos\Proyecto Explora Alumnos
3,37 MB 01-08-2012 17:15:12
----------------------------------------------------------------------------------------------------------------------------------------------------IMG_0300.JPG
F:\TRABAJOS\Colegios\Fundacion Arturo Merino Benitez\Tantauco\20
12\Anuario\30 DE NOVIEMBRE\05_17_2012_-_Proyecto_EXPLORA
3,26 MB 01-08-20
12 17:15:24
IMG_0300.JPG
F:\TRABAJOS\Colegios\Fundacion Arturo Merino Benitez\Tantauco\20
12\Anuario\Fotos\Proyecto Explora Alumnos
3,26 MB 01-08-2012 17:15:24
----------------------------------------------------------------------------------------------------------------------------------------------------IMG_0301.JPG
F:\TRABAJOS\Colegios\Fundacion Arturo Merino Benitez\Tantauco\20
12\Anuario\30 DE NOVIEMBRE\05_17_2012_-_Proyecto_EXPLORA
3,15 MB 01-08-20
12 17:16:36
IMG_0301.JPG
F:\TRABAJOS\Colegios\Fundacion Arturo Merino Benitez\Tantauco\20
12\Anuario\Fotos\Proyecto Explora Alumnos
3,15 MB 01-08-2012 17:16:36
----------------------------------------------------------------------------------------------------------------------------------------------------IMG_0302.JPG
F:\TRABAJOS\Colegios\Fundacion Arturo Merino Benitez\Tantauco\20
12\Anuario\30 DE NOVIEMBRE\05_17_2012_-_Proyecto_EXPLORA
3,30 MB 01-08-20

12 17:16:44
IMG_0302.JPG
F:\TRABAJOS\Colegios\Fundacion Arturo Merino Benitez\Tantauco\20
12\Anuario\Fotos\Proyecto Explora Alumnos
3,30 MB 01-08-2012 17:16:44
----------------------------------------------------------------------------------------------------------------------------------------------------IMG_0303.JPG
F:\TRABAJOS\Colegios\Fundacion Arturo Merino Benitez\Tantauco\20
12\Anuario\30 DE NOVIEMBRE\05_17_2012_-_Proyecto_EXPLORA
2,85 MB 01-08-20
12 17:16:52
IMG_0303.JPG
F:\TRABAJOS\Colegios\Fundacion Arturo Merino Benitez\Tantauco\20
12\Anuario\Fotos\Proyecto Explora Alumnos
2,85 MB 01-08-2012 17:16:52
IMG_0303.JPG
F:\TRABAJOS\Colegios\Fundacion Arturo Merino Benitez\Tantauco\20
12\Anuario\Paginas\Proyecto Explora
2,85 MB 01-08-2012 17:16:52
----------------------------------------------------------------------------------------------------------------------------------------------------GOPR1484.JPG
F:\TRABAJOS\Colegios\Fundacion Arturo Merino Benitez\Tantauco\20
12\Anuario\30 DE NOVIEMBRE\08-10_2012_-_Evento_Socios_por_un_dia
5,96 MB
21-03-2011 19:39:16
GOPR1484.JPG
F:\TRABAJOS\Colegios\Fundacion Arturo Merino Benitez\Tantauco\20
12\Anuario\Fotos\Socios por un Dia
5,96 MB 21-03-2011 19:39:16
GOPR1484.JPG
F:\TRABAJOS\Colegios\Fundacion Arturo Merino Benitez\Tantauco\20
12\Anuario\Paginas\Evento_Socios_por_un_dia 08-10_2012_-_
5,96 MB 21-03-20
11 19:39:16
----------------------------------------------------------------------------------------------------------------------------------------------------GOPR1495.JPG
F:\TRABAJOS\Colegios\Fundacion Arturo Merino Benitez\Tantauco\20
12\Anuario\30 DE NOVIEMBRE\08-10_2012_-_Evento_Socios_por_un_dia
5,24 MB
21-03-2011 19:48:00
GOPR1495.JPG
F:\TRABAJOS\Colegios\Fundacion Arturo Merino Benitez\Tantauco\20
12\Anuario\Fotos\Socios por un Dia
5,24 MB 21-03-2011 19:48:00
GOPR1495.JPG
F:\TRABAJOS\Colegios\Fundacion Arturo Merino Benitez\Tantauco\20
12\Anuario\Paginas\Evento_Socios_por_