You are on page 1of 26

http://www.admision.ipn.mx/ns/ns.

html
Hang On To Yourself
David Bowie
Album: The Rise And Fall Of Ziggy Stardust And The Spiders From Mars.
Guitarist: Mick Ronson.
Tuning: Standard Low To High E A D G B e
b:
r:
h:
s:
~:
.:
*:

Bend
Release Bend
Hammer On
Silde
Vibrato
Stacato
Repeat

*
Intro
e|-----------------------------------------------------------------------------|
B|-*---------------------------------------------------------------------------|
G|------7--5-------------------------------7--3--------------------------------|
D|------7--5-------------------------------7--3--------------------------------|
A|-*----5--3-------------------------------5--5--------------------------------|
E|------------2h3-3-3--2h3-3-3--3-2h3-3-3--------2h3-3-3--2h3-3-3--3-2h3-3-3-3-|
Verse
e|------------------------------------------------------------------------------|
B|------------------------------------------------------------------------------|
G|----------2--x-2--4--x-4----2----------------------------------2--x-2--4--x-4-|
D|--4--x-4--2--x-2--4--x-4--4-2-2h4-4-4-4-4-4-4-4-4-4-4--4--x-4--2--x-2--4--x-4-|
A|--4--x-4--0--x-0--2--x-2--4-0-2---2-2-2-2-2-2-2-2-2-2--4--x-4--0--x-0--2--x-2-|
E|--2--x-2------------------2----------------------------2--x-2-----------------|
Chorus
e|-----------------------------------------------------------------------------|
B|-------------------------------x--x--5--x--x--5--x--x--7--x--x--7--x--x--5---|
G|----2--------------------------x--x--5--x--x--5--x--x--7--x--x--7--x--x--5---|
D|--4-2-4h4-4-4-4-4-4-4-4-4-4-4--x--x--5--x--x--5--x--x--7--x--x--7--x--x--5---|
A|--4-0-2---2-2-2-2-2-2-2-2-2-2--x--x--3--x--x--3--x--x--5--x--x--5--x--x--3---|
E|--2--------------------------------------------------------------------------|
e|-----------------------------------------------------------------------------|
B|-x--x--5--x--7-7--7--x--x--5--x--x--5--x--x--7--x--x--7--x--x--5--x--x--5----|
G|-x--x--5--x--7-7--7--x--x--5--x--x--5--x--x--7--x--x--7--x--x--5--x--x--5----|
D|-x--x--5--x--7-7--7--x--x--5--x--x--5--x--x--7--x--x--7--x--x--5--x--x--5----|
A|-x--x--3--x--5-5--5--x--x--3--x--x--3--x--x--5--x--x--5--x--x--3--x--x--3----|
E|-----------------------------------------------------------------------------|
e|----------------|
B|-------------*--|
G|-2-2-2-2--2-----|
D|-2-2-2-2--2-----|
A|-0-0-0-0--0--*--|
E|----------------|
Backing chords for the solo are played the same way as the chorus, but instead of
C and D
play A and D

Guitar Solo
.
.
|Change to C and D
again
e|-------7b9r7-5~--3s5-3-.-.-----------------7b9r7-5~-3-.-.--------------------|
B|-2-3-5-----------------5-3-----------2-3-5------------5-3--------------------|
G|---------------------------4-4s6-2~-----------------------/5~--/7~--/5~-/7~--|
D|-----------------------------------------------------------------------------|
A|-----------------------------------------------------------------------------|
E|-----------------------------------------------------------------------------|

Band: Edgar Winter Group


Song: Frankenstein
Album: They Only Come Out At Night
Year: 1973
Tabbed by DoteStudios
Email is undermywheels71@gmail.com
Let me start off by saying..."This is the most bad ass song ever written and that
Edgar Winter is a genius'." The fills are almost all keyboard (I prefer to play
them on guitar).
****UPDATED****
Now all rhythm guitar parts are tabbed, still missing synthesizer solos.
Keys
h - hammer-on
p - pull-off
b - bend
r - release
~ - vibrato
/ - slide down
\ - slide up
<#> - strike note (#) while in bend
Credits:
Edgar Winter - Synthesizer, Saxophone, and Drums (during "Double Drum Solo")
Rick Derringer - Guitar
Ronnie Montrose - Guitar
Dan Hartman - Bass
Chuck Ruff - Drums
NOTE: All synth "Fills" are played after, not during, a "Part" of the song.
Part 1
Guitar and Synthesizer (Rick Derringer & Edgar Winter)
E----------------------------------------------------|
B---------------------------3------------------------|
G---------------------------3------------------------|
D-5--5---5---5---3--5---5---3----5--5---5---3--5-----|
A-5--5---5---5---3--5---5--------5--5---5---3--5-----|
E----------------------------------------------------|
Fill 1 (Synthesizer)
E-------------------------|
B-------------------------|
G-------------------------|
D------3h5--5p3--5--------|

A-3h5---------------------|
E-------------------3-----|
Part 2
Guitar and Synthesizer
E--------------------------------------------------------|
B---------------------------3/5\3------------------------|
G---------------------------3/5\3------------------------|
D-5--5---5---5---3--5---5---3/5\3----5--5---5---3--5-----|
A-5--5---5---5---3--5---5------------5--5---5---3--5-----|
E--------------------------------------------------------|
Fill 2 (Synthesizer)
E----------|
B----------|
G----------|
D-3/21\3---|
A----------|
E----------|
Part 3
Synthesizer, Guitar, and Bass
E---------------------------------------------------------------------|
B---------------------------------------------------------------------|
G---------------------------------------------------------------------|
D---------------------------------------------------------------------|
A---------------1-----3--1-----1~~~-3--1---3b5---3b4r3p1-----1~~~-----|
E-0--1--2--3-------3--------3-----------------------------3-------3---|
Part 4
Synthesizer
E-/6----3--------------------------------------------------|
B----------6-------------------------------6---------------|
G--------------5b6r5p3------3---5--3--5/7------5b6r5p3-----|
D-----------------------5-------------------------------5--|
A----------------------------------------------------------|
E----------------------------------------------------------|
Guitar and Bass
E-----------------------------------------------------------|
B-----------------------------------------------------------|
G-----------------------------------------------------------|
D-----------------------------------------------------------|
A-----------------4---5---6---6---4---5---------------------|
E-4---5---6---6---------------------------1---1---2---3-----|
Part 5
Synthesizer, Guitar, and Bass
E---------------------------------------------------------------------|
B---------------------------------------------------------------------|
G---------------------------------------------------------------------|
D---------------1-----3--1-----1~~~-3--1---3b5---3b4r3p1-----1~~~-----|
A-0--1--2--3-------3--------3-----------------------------3-------3---|
E---------------------------------------------------------------------|
Rhythm Guitar
D U D U D U D U
D D U D D
D
E-3--x--x--3--x--x--5--5---5--x--x--3--3---5----|
B-4--x--x--4--x--x--6--6---6--x--x--4--4---6----|
G-3--x--x--3--x--x--5--5---5--x--x--3--3---5----|
D-5--x--x--5--x--x--7--7---7--x--x--5--5---7----|
A-----------------------------------------------|
E-----------------------------------------------|

Part 6
E----------------------------------------------------------------------|
B----------------------------------------------------------------------|
G--------------3------5--3-----3~~~-5--3---5b7---5b6r5p3------3~~~-----|
D-2--3--4--5-------5--------5-----------------------------5--------5---|
A----------------------------------------------------------------------|
E----------------------------------------------------------------------|
Rhythm Guitar
D
U D
U D U
D
U
D D U
D
D
D
E-10--x--x--10--x--x--12--12---12--x--x--10--10---12----|
B-11--x--x--11--x--x--13--13---13--x--x--11--11---13----|
G-10--x--x--10--x--x--12--12---12--x--x--10--10---12----|
D-12--x--x--12--x--x--14--14---14--x--x--12--12---14----|
A-------------------------------------------------------|
E-------------------------------------------------------|
Part 7
Synthesizer and Guitar
E----------------------------------------------------------------------------------|
B-10b11----10b11r10p8---10--10b11--10b11r10p810b11~~~-10---10b11---11r10p8-8~~~~--|
G----------------------------------------------------------------------------------| 2x
D----------------------------------------------------------------------------------|
A----------------------------------------------------------------------------------|
E----------------------------------------------------------------------------------|
The second time this riff is played, Rhythm Guitar is silent
Rhythm Guitar
D U D U D U D U D D U D D D
D
E------------------------------------------------|
B-4--x--x--4--x--x--3--x--x--3--x--x-------------|
G-3--x--x--3--x--x--3--x--x--3--x--x--3--3--5----| 1x
D-5--x--x--5--x--x--3--x--x--3--x--x--3--3--5----|
A-------------------------------------------3----|
E------------------------------------------------|
Part 8
Guitar
E----------------------------------------------------|
B---------------------------3------------------------|
G---------------------------3------------------------|
D-5--5---5---5---3--5---5---3----5--5---5---3--5-----|
A-5--5---5---5---3--5---5--------5--5---5---3--5-----|
E----------------------------------------------------|
Fill 4 (Synthesizer)
E------------------------------|
B------------------------------|
G-/5--3------------------------|
D--------5--3------------------|
A--------------5--4--3---------|
E-----------------------6--3---|
Part 9
Guitar
E--------------------------------------------------------|

B---------------------------3/5\3------------------------|
G---------------------------3/5\3------------------------|
D-5--5---5---5---3--5---5---3/5\3----5--5---5---3--5-----|
A-5--5---5---5---3--5---5------------5--5---5---3--5-----|
E--------------------------------------------------------|
Part 10 (Synthesizer Solo)
A (first part of the solo)
Guitar (during synthesizer solo)
D
D D
D
D
D D D
D
D D D
D
D
D U
E-----------------------------------------------------------------|
B-3-------3----5---5------3--5----3------3--5---6---5---3--5p3----|
G-3-------3----5---5------3--5----3------3--5---6---5---3--5p3----| 4x
D-5----5---------------5----------5---5---------------------------|
A-----------------------------------------------------------------|
E-----------------------------------------------------------------|
B (second part of the solo)
Guitar (during synthesizer solo)
D U D U D
D
D D
D
D U D U D
D
D D
D
E-10-10-10-10-10----------------------10-10-10-10-10--------------------|
B-10-10-10-10-10----5---5--6---6p5----10-10-10-10-10----5---5--6---5----|
G-10-10-10-10-10----5---5--7---7p5----10-10-10-10-10----5---5--7---5----| 2x
D-----------------------------------------------------------------------|
A-----------------------------------------------------------------------|
E-----------------------------------------------------------------------|
Part 11
Keyboard and Bass
E-----------------------------------------------------------------------|
B-----------------------------------------------------------------------|
G-----------------------------------------------------------------------|
D----------------------------------------------------------2--3---4---5-|
A---------0--1--2--3---3-----------------------0--1--2--3---------------|
E-3----3-------------------0---1---2---3----3---------------------------|
E-----------------------------------------------------------------------------|
B-----------------------------------------------------------------------------|
G-----------------------------------------------------------------------------|
D-5--------------------------------------------------------------2--3---4---5-|
A----5----------0--1--2--3---3-----------------------0--1--2--3---------------|
E-------3----3-------------------0---1---2---3----3---------------------------|
Guitar
D
D U
D
D
D D
D
U D
D D U D U
E-------------------------------------------------------------|
B-3----3--3----3---5------3--5----6---6--6----5--5--x--5--3---|
G-3----3--3----3---5------3--5----7---7--7----5--5--x--5--3---| 2x
D-5--------------------5----------5---------------------------|
A-------------------------------------------------------------|
E-------------------------------------------------------------|
Part 11
Guitar and Saxophone Solo
E--------------------------------------------------------------------|
B--------------------------------------------------------------------|
G--------------------------------------------------5-----------------|
D-------------------7--5------------------5--7--8-----8~~~--5--7--8--|
A----------5--7--8---------7~~~--5--7--8-----------------------------|
E-5--6--8------------------------------------------------------------|
E-------------------------------------5--8--6~~~--|
B-------5--8--6--------------5--6--8--------------|

G-5--7-----------7~~~--5--7-----------------------|
D-------------------------------------------------|
A-------------------------------------------------|
E-------------------------------------------------|
E----------------------------------------------3------------------------|
B-------------------------3-----3--5--6--5--6-----5b6---------------3---|
G----------2--3--2--3--5-----5--------------------------5--3--5--3------|
D-5--3--5---------------------------------------------------------------|
A-----------------------------------------------------------------------|
E-----------------------------------------------------------------------|
E-----------------|
B-----------------|
G----------2b3----|
D-5----3----------|
A-----------------|
E-----------------|
E---------------------------------------------------------------------------|
B---------------------------------------------------------------------------|
G-------2--------3--------5--------7---------9----------10----------12--14--|
D-2-/3-----3-/5-----5-/7-----7-/8-----8-/10-----10-/12------12--14----------|
A---------------------------------------------------------------------------|
E---------------------------------------------------------------------------|
E----------------|
B-13--15b17------|
G----------------|
D----------------|
A----------------|
E----------------|
Part 12
E-----------------------------------------------------------------------|
B-----------------------------------------------------------------------|
G----------------------------------------------------------3------5--3--|
D---------------------------------------------3------5--3-----5---------|
A--------------------------1--------1---5--3-----5----------------------|
E-15\--1--3--3---3---3--1-----3--1--------------------------------------|
E------------3---------------------------------------------------------|
B-3-----6--------------------------------------------------------------|
G----5-----------------------------------------------------------------|
D---------------------------------------------------------3------5--3--|
A--------------------------------------1-----3--1---5--3-----5---------|
E------------------1--3--3---3---3--1-----3----------------------------|
Slight change
E-------------------------3----|
B--------------3-----6---------|
G-3------5--3-----5------------|
D----5-------------------------|
A------------------------------|
E------------------------------|
Part 14
Guitar and Bass
E---------------------------------------------------|
B---------------------------------------------------|
G-------------------------------------3---*drums*---|
D-5~~~-3--5------*drums*---5~~~-3--5----------------|
A---------------------------------------------------|

E------------3--------------------------------------|
Part 15
Guitar (Using wah-wah pedal) - strike the bend, then slowly press down on the
pedal and shake whammy bar (slightly)
E-3-------5-------6--------8---------10--------12--------13--------|
B-6b8-----7b9-----8b10-----11b13-----13b15-----15b17-----16b18-----|
G------------------------------------------------------------------|
D------------------------------------------------------------------|
A------------------------------------------------------------------|
E------------------------------------------------------------------|
E-15--------18---\----|
B-18b20-----21b23\----|
G---------------------|
D---------------------|
A---------------------|
E---------------------|
Part 16 (Drum Solo)
Part 17 (Synth Solo)
Guitar and Bass (during keyboard solo)
E----------|----|-------------------------------|----|------------------|
B----------|----|-------------------------------|----|------------------|
G----------|-4x-|-------------------------------|-3x-|------------------|
D----------|----|-------------------------------|----|------------------|
A----------|----|-------1-----------------------|----|-------1----------|
E-3--3--3--|----|-3--3-----------3--3--1--------|----|-3--3------3------|
Part 19 (Synth and Drum Outro)
Fill 6 (Synthesizer)
E-------|
B-13\---|
G-------|
D-------|
A-------|
E-------|
Part 20
Guitar
E----------------------------------------------------|
B---------------------------3------------------------|
G---------------------------3------------------------|
D-5--5---5---5---3--5---5---3----5--5---5---3--5-----|
A-5--5---5---5---3--5---5--------5--5---5---3--5-----|
E----------------------------------------------------|
Fill 7 (Synthesizer)
E-------------------------------|
B-------------------------------|
G-5-----3-----------------------|
D----5-----3--5-----3-----------|
A----------------5-----3--5-----|
E----------------------------3--|
Part 21
Guitar
E--------------------------------------------------------|
B---------------------------3/5\3------------------------|
G---------------------------3/5\3------------------------|
D-5--5---5---5---3--5---5---3/5\3----5--5---5---3--5-----|
A-5--5---5---5---3--5---5------------5--5---5---3--5-----|

E--------------------------------------------------------|
Fill 8 (Synthesizer)
E----------|
B----------|
G----------|
D-3/21\3---|
A----------|
E----------|
Part 22
Synthesizer, Guitar, and Bass
E-----------------------------------------------------------------------|
B-----------------------------------------------------------------------|
G-----------------------------------------------------------------------|
D-----------------------------------------------------------------------|
A---------------1-----3--1-----1~~~-3--1---3b5---3b4r3p1------1~~~------|
E-0--1--2--3-------3--------3-----------------------------3---------3---|
Fill 9 (Guitar)
E-------|
B-------|
G-------|
D-------|
A-------|
E-15\---|
Part 23
Synthesizer, Guitar, and Bass
E-----------------------------------------------------------------|
B-----------------------------------------------------------------|
G-----------------------------------------------------------------|
D-----------------------------------------------------------------|
A-------------1-----3--1-----1~~~-3--1---3b5---3b4r3p1------3b5---|
E-0--1--2--3-----3--------3-----------------------------3---------|
E-----------------------------------------------------------------|
B-----------------------------------------------------------------|
G---------------------------------3---------------5---------------|
D---------------------------------3---------------5---------------|
A-3b4r3p1------3b5---3b4r3p1------1--hold---------3--hold---------|
E----------3------------------3-----------------------------------|
(when hitting the chords, press down on the wah pedal)
Part 24 (Outro)
Guitar
E-3\1---1/3--3\6--6/3--3\6--6\8--8/6--6\8--8\10--10/8--8\10--10\13--|
B-3\1---1/3--3\6--6/3--3\6--6\8--8/6--6\8--8\10--10/8--8\10--10\13--|
G-------------------------------------------------------------------|
D-------------------------------------------------------------------|
A-------------------------------------------------------------------|
E-------------------------------------------------------------------|
E-13\10--10/13--13\10--10/13--13/15--15\13--13/15----|
B-13\10--10/13--13\10--10/13--13/15--15\13--13/15----|
G----------------------------------------------------|
D----------------------------------------------------|
A----------------------------------------------------|
E----------------------------------------------------|
Fill 10 (Synthesizer)
E----------|
B----------|
G-15b17\---|

D----------|
A----------|
E----------|
Slow bend

www.youtube.com/hunterpetway
Check it out!
~
b
/
x
w

let ring
bend note
slide
times played
whammy bar

Intro
D|--3~----3~----3~----3w------|
A|--3~----3~----3~----3w------|
F|--0~----0~----0~----0w------|
C|--0~----0~----0~----0w------|
G|----------------------------|
D|--3~----3~----3~----3w------|
D|-------------------------------------|
A|-----------------------5--------5----|
F|-----------------------4--------4----|
C|-----------------------2--------2----|
G|--5/7\5-----5\4----------------------|
D|--3/5\3--0--3\2--0--0-----0--0-------|
D|-----------------------------------------|
A|-----------------------------------------|
F|-----------------------2--------2--------|
C|--------------------2--2--------2--------|
G|--5/7\5-----5\4-----2-----3--4-----------|
D|--3/5\3--0--3\2--0-----------------3--4--|
D|-------------------------------------|
A|-----------------------5--------5----|
F|-----------------------4--------4----|
C|-----------------------2--------2----|
G|--5/7\5-----5\4----------------------|
D|--3/5\3--0--3\2--0--0-----0--0-------|
D|--------------------------------------------|
A|--------------------------------------------|
F|-----------------------2--------2-----------|
C|--------------------2--2--------2-----------|
G|--5/7\5-----5\4-----2-----3--4--------------|
D|--3/5\3--0--3\2--0-----------------0--3--4--|
D|------------------------------------------|

A|------------------------------------------|
F|------7-7~--------9-9~--------7-7~--------|
C|--2~--7-7~---2~---9-9~---2~---7-7~---2~---|
G|--0~---------0~----------0~----------0~---|
D|----------3-----------3-----------3-------|
D|------------------------|
A|------------------------|
F|--7\6--7\6--7\6--7\6----|
C|------------------------|
G|--5\4--5\4--5\4--5\4----|
D|------------------------|
D|-------------------------------------|
A|-----------------------5--------5----|
F|-----------------------4--------4----|
C|-----------------------2--------2----|
G|--5/7\5-----5\4----------------------|
D|--3/5\3--0--3\2--0--0-----0--0-------|
D|-----------------------------------------|
A|-----------------------------------------|
F|-----------------------2--------2--------|
C|--------------------2--2--------2--------|
G|--5/7\5-----5\4-----2-----3--4-----------|
D|--3/5\3--0--3\2--0-----------------3--4--|
D|------------------------------------|
A|------------------------------------|
F|----------------------2-------2-----|
C|--5/7\5-----5\4--2-2--2-------2-----|
G|--3/5\3--0--3\2--0-0-----0-0--------|
D|------------------------------------|
D|------------------------------------|
A|------------------------------------|
F|----------------------2--2--2-------|
C|--5/7\5-----5\4--2-2--2--2--2-------|
G|--3/5\3--0--3\2--0-0-----------0----|
D|------------------------------------|
D|-------------------------------------|
A|-----------------------5--------5----|
F|-----------------------4--------4----|
C|-----------------------2--------2----|
G|--5/7\5-----5\4----------------------|
D|--3/5\3--0--3\2--0--0-----0--0-------|
D|--------------------------------------------|
A|--------------------------------------------|
F|-----------------------2--------2-----------|
C|--------------------2--2--------2-----------|
G|--5/7\5-----5\4-----2-----3--4--------------|
D|--3/5\3--0--3\2--0-----------------0--3--4--|
D|------------------------------------------|
A|------------------------------------------|
F|------7-7~--------9-9~--------7-7~--------|
C|--2~--7-7~---2~---9-9~---2~---7-7~---2~---|
G|--0~---------0~----------0~----------0~---|
D|----------3-----------3-----------3-------|
D|------------------------|

A|------------------------|
F|--7\6--7\6--7\6--7\6----|
C|------------------------|
G|--5\4--5\4--5\4--5\4----|
D|------------------------|
D|-------------------------------------|
A|-----------------------5--------5----|
F|-----------------------4--------4----|
C|-----------------------2--------2----|
G|--5/7\5-----5\4----------------------|
D|--3/5\3--0--3\2--0--0-----0--0-------|
D|------------------------------------------|
A|------------------------------------------|
F|-----------------------2--------2---------|
C|--------------------2--2--------2---------|
G|--5/7\5-----5\4-----2-----3--4------------|
D|--3/5\3--0--3\2--0------------------3--4--|
D|------------------------------------|
A|------------------------------------|
F|----------------------2-------2-----|
C|--5/7\5-----5\4--2-2--2-------2-----|
G|--3/5\3--0--3\2--0-0-----0-0--------|
D|------------------------------------|
D|------------------------------------|
A|------------------------------------|
F|----------------------2--2--2-------|
C|--5/7\5-----5\4--2-2--2--2--2-------|
G|--3/5\3--0--3\2--0-0-----------0----|
D|------------------------------------|
D|-------------------------------------|
A|-----------------------5--------5----|
F|-----------------------4--------4----|
C|-----------------------2--------2----|
G|--5/7\5-----5\4----------------------|
D|--3/5\3--0--3\2--0--0-----0--0-------|
D|--------------------------------------------|
A|--------------------------------------------|
F|-----------------------2--------2-----------|
C|--------------------2--2--------2-----------|
G|--5/7\5-----5\4-----2-----3--4--------------|
D|--3/5\3--0--3\2--0-----------------3--4--0--|
D|-------------------------------------|
A|-------------------------------------|
F|-------------------------------------|
C|-------------------------------------|
G|--2--4---2--4--5---5--4---2--4--5----|
D|--0--0---0--0--0---0--0---0--0--0----|
D|-------------------------------------|
A|-------------------------------------|
F|-------------------------------------|
C|-------------------------------------|
G|--2--4---2--4--5---5--4---2--4-------|
D|--0--0---0--0--0---0--0---0--0-------|
D|-------------------------------------------------|

A|-------------------------------------------------|
F|------------------9--8-----9--8-----11~----------|
C|--9--11~--9--11~--------9--------9-------2-2-2---|
G|-----------------------------------------0-0-0---|
D|-------------------------------------------------|
D|-------------------------------------|
A|-------------------------------------|
F|-------------------------------------|
C|-------------------------------------|
G|--2--4---2--4--5---5--4---2--4--5----|
D|--0--0---0--0--0---0--0---0--0--0----|
D|-------------------------------------|
A|-------------------------------------|
F|-------------------------------------|
C|-------------------------------------|
G|--2--4---2--4--5---5--4---2--4-------|
D|--0--0---0--0--0---0--0---0--0-------|
D|-------------------------------------------------|
A|-------------------------------------------------|
F|------------------9--8-----9--8-----11~----------|
C|--9--11~--9--11~--------9--------9-------2-2-2---|
G|-----------------------------------------0-0-0---|
D|-------------------------------------------------|
D|-------------------------------------------|
A|-------------------------------------------|
F|-------------------------------------------|
C|--2--2---2--2--2---2--2---2--2--2--2--2----|
G|--2--2---2--2--2---2--2---2--2--2--2--2----|
D|--0--0---0--0--0---0--0---0--0--0--0--0----|
D|--3-3--3~---3~----3w----3w------|
A|--3-3--3~---3~----3w----3w------|
F|--0-0--0~---0~----0w----0w------|
C|--0-0--0~---0~----0w----0w------|
G|--------------------------------|
D|--3-3--3~---3~----3w----3w------|
D|-------------------------------------|
A|-----------------------5--------5----|
F|-----------------------4--------4----|
C|-----------------------2--------2----|
G|--5/7\5-----5\4----------------------|
D|--3/5\3--0--3\2--0--0-----0--0-------|
D|-----------------------------------------|
A|-----------------------------------------|
F|-----------------------2--------2--------|
C|--------------------2--2--------2--------|
G|--5/7\5-----5\4-----2-----3--4-----------|
D|--3/5\3--0--3\2--0-----------------3--4--|
D|-------------------------------------|
A|-----------------------5--------5----|
F|-----------------------4--------4----|
C|-----------------------2--------2----|
G|--5/7\5-----5\4----------------------|
D|--3/5\3--0--3\2--0--0-----0--0-------|

D|--------------------------------------------|
A|--------------------------------------------|
F|-----------------------2--------2-----------|
C|--------------------2--2--------2-----------|
G|--5/7\5-----5\4-----2-----3--4--------------|
D|--3/5\3--0--3\2--0-----------------0--3--4--|
D|------------------------------------------|
A|------------------------------------------|
F|------7-7~--------9-9~--------7-7~--------|
C|--2~--7-7~---2~---9-9~---2~---7-7~---2~---|
G|--0~---------0~----------0~----------0~---|
D|----------3-----------3-----------3-------|
D|------------------------|
A|------------------------|
F|--7\6--7\6--7\6--7\6----|
C|------------------------|
G|--5\4--5\4--5\4--5\4----|
D|------------------------|
D|-------------------------------------|
A|-----------------------5--------5----|
F|-----------------------4--------4----|
C|-----------------------2--------2----|
G|--5/7\5-----5\4----------------------|
D|--3/5\3--0--3\2--0--0-----0--0-------|
D|-----------------------------------------|
A|-----------------------------------------|
F|-----------------------2--------2--------|
C|--------------------2--2--------2--------|
G|--5/7\5-----5\4-----2-----3--4-----------|
D|--3/5\3--0--3\2--0-----------------3--4--|
D|------------------------------------|
A|------------------------------------|
F|----------------------2-------2-----|
C|--5/7\5-----5\4--2-2--2-------2-----|
G|--3/5\3--0--3\2--0-0-----0-0--------|
D|------------------------------------|
D|------------------------------------|
A|------------------------------------|
F|----------------------2--2--2-------|
C|--5/7\5-----5\4--2-2--2--2--2-------|
G|--3/5\3--0--3\2--0-0-----------0----|
D|------------------------------------|
D|---------------------------------------|---------|
A|---------------------------------------|---------|
F|---------------------------------------|---------|
C|---------------------------------------|---- x 4-|
G|--5/7\5-----5\4--2-2--4--2--2--4--2----|---------|
D|--3/5\3--0--3\2--0-0--0--0--0--0--0----|---------|
This is the end solo
rythem is under this.
D|------------------------------12---------|
A|--15~---15b---15~---15~---15b----13------|
F|--------14b---------14~---14b-------14---|

C|-----------------------------------------|
G|-----------------------------------------|
D|-----------------------------------------|
D|----------------------------5--------------------|
A|--8~---8~--8b------8~---8b----8-5-8-5-5-5--15b---|
F|-------7~--7b--5--------7b-----------------------|
C|-------------------------------------------------|
G|-------------------------------------------------|
D|-------------------------------------------------|
D|----------------------------------------------------------|
A|--15b--15b--15--15b--15b--15--15b--15b--15b--15--15b--15--|
F|--14b--14b------14b--14b------14b--14b--14b------14b------|
C|----------------------------------------------------------|
G|----------------------------------------------------------|
D|----------------------------------------------------------|
D|------------------------------------------------------------|
A|------15b--12-15-12-15-12-15-12-15-12-15-12-15-12-15-12-15--|
F|--12--------------------------------------------------------|
C|------------------------------------------------------------|
G|------------------------------------------------------------|
D|------------------------------------------------------------|
D|---------------12-14--15-12-14-15-12-14-15-12-14-15-12-14---|
A|--12-15-12-15-----------------------------------------------|
F|------------------------------------------------------------|
C|------------------------------------------------------------|
G|------------------------------------------------------------|
D|------------------------------------------------------------|
D|--15-12-14-15-12-14-13-12-14-13-12-12---24b-24b-24b---|
A|------------------------------------------------------|
F|------------------------------------------------------|
C|------------------------------------------------------|
G|------------------------------------------------------|
D|------------------------------------------------------|
D|--24b-24b-24b--24b-22b-24b-22b-24b--|
A|------------------------------------|
F|------------------------------------|
C|------------------------------------|
G|------------------------------------|
D|------------------------------------|
D|------------------------------------------------|
A|------------------------------------------------|
F|--12-12-12-12\11-9---12-12-12-12--12--11--9-----|
C|--12-12-12-12\11-9---12-12-12-12--12--11--9-----|
G|------------------------------------------------|
D|------------------------------------------------|
D|-------------------------------------------|
A|-------------------------------------------|
F|--12-12-12-12-12\11--12-12-12-12-12\11-----|
C|--12-12-12-12-12\11--12-12-12-12-12\11-----|
G|-------------------------------------------|
D|-------------------------------------------|
D|-------------------------------------------|

A|-------------------------------------------|
F|--12-12-12-12-12\11--9--12-12-12-12\11--9--|
C|--12-12-12-12-12\11--9--12-12-12-12\11--9--|
G|-------------------------------------------|
D|-------------------------------------------|
Outro
D|-------------------------------------------|
A|-------------------------------------------|
F|--12-12-12\11--9--12/14\12-----------------|
C|--12-12-12\11--9--12/14\12-----------------|
G|-------------------------------5\4--2-2----|
D|----------------------------0--3\2--0-0----|
rythem
D|-------------------------------------|-----|
A|-------------------------------------|-----|
F|-------------------------------------|-----|
C|--5/7\5---5\4--2-2-2--2-2-2--2-2-----|-----| x2
G|--3/5\3-0-3\2--0-0-0--0-0-0--0-0-----|-----|
D|-------------------------------------|-----|
D|--------------------------------|-----|
A|--------------------------------|-----|
F|--------------------------------|-----|
C|--------------------------------|-----| x4
G|--5/7\5---5\4---2--2--4--2------|-----|
D|--3/5\3-0-3\2---0--0--0--0------|-----|
D|-------------------------------------------|-----|
A|-------------------------------------------|-----|
F|-------------------------------------------|-----|
C|-------------------------------------------|-----| x2
G|--2-2--2--2-2--2--2--2--2-2-2--2--2--2-----|-----|
D|--0-0--0--0-0--0--0--0--0-0-0--0--0--0-----|-----|
outro
D|------------------------------|
A|------------------------------|
F|------------------------------|
C|------------------------------|
G|--4--2--5/7\5-----5\4--2--2~--|
D|--0--0--3/5\3--0--3\2--0--0~--|

Texas Flood by SRV


from the LP Texas Flood
E|-----------3--5--3-----------------------------8---10--8--8---8---15-15-15|
B|-----------3--5--3--------5-5------------------8---10--8--8---8---15-15-15|

G|-----------4--5--4--------4-4----------7--10---9---10--9--9---9---15-15---|
D|-----2--5------------5----5-5----su10-------------------------------------|
A|--5-----------------------------------------------------------------------|
E|--------------------------------------------------------------------------|
G
C
Dmin C
C9
E|15-----------3--------5--3h5p3-----3--b6--6--3----------------------------|
B|15--------3-----6--3------------6---------------3-------------------------|
G|-------b5------------------------------------------b5--b3-----------------|
D|-----------------------------------------------------------5--5-----------|
A|--------------------------------------------------------------------------|
E|--------------------------------------------------------------------------|
G
E|-------------------0-----------b8--6---------------6----------------------|
B|-------------------0------8--8--------8--8----8--8----8--6----------------|
G|--4-------------5-------------------------------------------b*5-3--3------|
D|-----5----------4-----------------------------------------------------5---|
A|---------3-4-5------------------------------------------------------------|
E|--------------------------------------------------------------------------|
D
G
E|------6-b8--8--6------------b8--b8-----b$8----6-----------------------b8--|
B|--8-8------------8--8--8-8--------------------------8---8-8-b10--b11------|
G|--------------------------------------------------------------------------|
D|--------------------------------------------------------------------------|
A|--------------------------------------------------------------------------|
E|--------------------------------------------------------------------------|
C7
G
E|--b6--6------------------------3---15sd---------6-b8-b8-b8-b8-6-----------|
B|--------8---6-3--------------------15sd-----8-8-----------------8--8----8-|
G|----------------b*5-3---3-b5----3-------------------------------------9---|
D|----------------------5---------------------------------------------------|
A|--------------------------------------------------------------------------|
E|--------------------------------------------------------------------------|
C7
XXXXX
E|-b6-------6-6-6----b8---b7--bb7-----6------------------------3----------3-|
B|--------------------------------------8---6-3-------------------------3---|
G|-----------------------------------------------b*5-3---3-b5-----3--b5-----|
D|-----------------------------------------------------5--------------------|
A|--------------------------------------------------------------------------|
E|--------------------------------------------------------------------------|
G
E|-------3su5--3su5--3su5-5sd3--------3-------------------------------------|
B|-6--3-------------------------6-------6--3---------------3--3-3---b6------|
G|--------------------------------b5----------b5--5--3--b5------------------|
D|--------------------------------------------------------------------------|
A|--------------------------------------------------------------------------|
E|--------------------------------------------------------------------------|
D7
C
E|-----3------------------------3-------------------------------------------|
B|----------------------------3---6-3---------------------------------------|
G|--------b5--b5---5p3-----b5----------b5-5-3-------------------------------|
D|----------------------5---------------------5--3--------------------------|
A|--------------------------------------------------5-4-3h4p3---------------|
E|--------------------------------------------------------------6--3--------|

E|-------------------------------------|------------------------3-3---------|
B|-------------------------------------|------------------------5-5---------|
G|-----------------------------------5-|------------------------4-4---------|
D|--5p3h5p3h5p3h5p3h5--5p3h5-----------|------------------------------------|
A|----------------------------3-4-5----|------------------------------------|
E|-------------------------------------|----------------------3-----3-3-----|
Well [D7] its floodin' down in texas
E|-3-----------------------------------|------3-----6-3-b8-b6-6-------------|
B|-3-----------------------------------|----3---b6--------------8--6--------|
G|-3-----------------------------------|-b5--------------------------7-b5---|
D|-------------------------------------|------------------------------------|
A|-------------------------------------|------------------------------------|
E|-------------------------------------|------------------------------------|
all of the telephone lines are down
E|------3-----5-3h5p3-----3-------------------------------------------------|
B|----3---6-3---------6-3---6-3---------------------------------------------|
G|-b5---------------------------b*5-3---3-----------------------------------|
D|------------------------------------5---5-3-------------------------------|
A|--------------------------------------------5-3---------------------------|
E|------------------------------------------------3-------------------------|
Well its floodin'
E|------------------3---------|--3------------------------------------------|
B|----------------------------|--3------------------------------------------|
G|--------------b5---------3--|--3------------------------------------------|
D|----------------------------|--2------------------------------------------|
A|----------------------------|--3------------------------------------------|
E|----------------------3-----|---------------------------------------------|
down in Texas
all of the telephone lines are down
E|------3-----6-3-b8--b6--6-----------|--6-----6----------------------------|
B|----3---b6----------------8--8--8-8-|-----8----8----6---------------------|
G|-b5---------------------------------|-------------7-----------------------|
D|------------------------------------|-------------------------------------|
A|------------------------------------|-------------------------------------|
E|------------------------------------|-------------------------------------|
Yeah I've been
E|------------------15sd---------|--3---------------------------------------|
B|------------------15sd---------|--3---------------------------------------|
G|------------------15sd------3--|------------------------------------------|
D|-------------------------------|------------------------------------------|
A|-------------------------------|------------------------------------------|
E|-------------------------3-----|------------------------------------------|
tryin to cal my baby
lord and I can't get a single sound
E|-------3-----b6--3--b8--b6--b6--6------------------|----3----------3------B|-----3---b6-----------------------8--6-3-----------|---------------3------G|--b5-------------------------------------b*5-3---3-|-b5---3--------3------D|-----------------------------------------------5---|---------5p3----------A|---------------------------------------------------|-------------5---3-4-5E|---------------------------------------------------|----------------------E|----------|-----------------3--3-3---------|------------------------------|
B|----------|-----------------5--5-5------3--|------------------------------|
G|-5--5-5---|-----------------4--4-4----3----|------------------------------|

D|----------|-----------------5--5-5---------|------------------------------|
A|----------|--------------------------------|------------------------------|
E|----------|--------------3----------3------|------------------------------|
Well dark clouds are rollin'
and I'm standin' out in the r
E|------3--------6-3-------------|------------------------------------------|
B|----3---b6---------3-----------|------------------------------------------|
G|-b5------------------b5-b*5--3-|--su5-----------------------3-------------|
D|-------------------------------|------5----5-3----------3h5---5p3---------|
A|-------------------------------|---------------5-4-3--------------5-------|
E|-------------------------------|---------------------6--------------------|
Well Dark
E|------------------3---3--------|------------------------------------------|
B|------------------3---3-5--3---|-3----------------------------------------|
G|------------------3---3-5--3---|-3----------------------------------------|
D|-----------------------------5-|------------------------------------------|
A|-------------------------------|------------------------------------------|
E|---------------3---------------|------------------------------------------|
clouds are rollin
and Im standin out in the rain
E|-------3--------6-----6-b8--|-su8--6---3-----------------3----------------|
B|-----3---b6-------8---------|-------8----6--------------------------------|
G|-b5-------------------------|--------------b*5--3---3b5----3--------------|
D|----------------------------|---------------------5-----------5p3---------|
A|----------------------------|-------------------------------------5-4-3---|
E|----------------------------|-------------------------------------------6-|
yeah flood
E|-----------------15sd----|-3----------------------------------------------|
B|-----------------15sd----|-3----------------------------------------------|
G|-------------------------|-3----------------------------------------------|
D|-------------------------|------------------------------------------------|
A|-------------------------|------------------------------------------------|
E|-----------------------3-|------------------------------------------------|
water keep rollin
its about to drive po stevie ray insane
(THAT IS THE FIRST VERSE THE SECOND VERSE IS VERY SIMILAR SO HERE IS THE SOLO)
E|-------3-----6-3-b8--b6-6-----------|-6------6----------------6--b8-------|
B|-----3---b6---------------8--8--8-8-|--8--8----8----6-----8-8-------------|
G|--b5--------------------------------|------------7------------------------|
D|------------------------------------|-------------------------------------|
A|------------------------------------|-------------------------------------|
E|------------------------------------|-------------------------------------|
G
G
D7
E|---6----------------------10sd------|------6-b8------6--------------------|
B|-----8---8----8-8---11----11sd------|--8-8-------------8--8--8-8----------|
G|------------------------------------|-------------------------------------|
D|------------------------------------|-------------------------------------|
A|------------------------------------|-------------------------------------|
E|------------------------------------|-------------------------------------|
G
C9
E|----b8--b8-------b8-b8----b*6-------|--------------------------b8---------|
B|------------------------------------|--8--8-8-b10---b11--b$11-------------|
G|------------------------------------|-------------------------------------|
D|------------------------------------|-------------------------------------|
A|------------------------------------|-------------------------------------|
E|------------------------------------|-------------------------------------|

G
E|-8--6-------------------------------------------------|
B|------8--8h11h8h11h8---8h11-8----8--------------------|
G|---------------------9--------10---10-7-b*5-3----3-b5-|
D|----------------------------------------------5-------|
A|------------------------------------------------------|
E|------------------------------------------------------|
C9
E|-3---------3-------3---3---3---3--------|-----------3-----------su15---15-B|---------3---3-b6----3---3---3---3--6p3-|----------------------------15---G|---3-b5---------------------------------|-6h5h3--b5---3--------3----------D|----------------------------------------|----------------5p3--------------A|----------------------------------------|--------------------5------------E|----------------------------------------|---------------------------------G
E|------15-----------|---------------3-------3--b6--3-----3-------3--3------|
B|--b18-----18-------|-----------------3--6---------------------------------|
G|--------------5--3-|-----------b5-----------------------------------------|
D|-------------------|--5p3-5-----------------------------------------------|
A|-------------------|------------------------------------------------------|
E|-------------------|--------3---------------------------------------------|
E|--b6-b6-b6-b6-b6-b8-|--b8-b8-b8-b8-b8-b8-|-b8--6-----------6--------------|
B|--------------------|--------------------|-------8-8---8-8---8----8---8-8-|
G|--------------------|--------------------|--------------------------------|
D|--------------------|--------------------|--------------------------------|
A|--------------------|--------------------|--------------------------------|
E|--------------------|--------------------|--------------------------------|
D7
C7
G
C7
E|-6------6----------3-3-6--b8---|---b8------b8---b8-|--b8--b8---b8--b8-----B|---8--8---8----b6---------b8---|---b8------b8---b8-|--b8--b8---b8--b8-----G|------------7------------------|-------------------|----------------------D|-------------------------------|-------------------|----------------------A|-------------------------------|-------------------|----------------------E|-------------------------------|-G-----------------|-C7-------------------G
D7
bend these double stops up and down alot
E|-10--8--6-------|--b6-----------3-------5--3h5p3-------b6--b6-3--------3--|
B|-----8-----8-8--|-------------3----6--3----------6--3-----------3----3----|
G|----------------|----------b5-------------------------------------b5------|
D|----------------|---------------------------------------------------------|
A|----------------|---------------------------------------------------------|
E|----------------|---------------------------------------------------------|
G7
E|---------------------3---------------------------|--6-8--6b8-b8--6--------|
B|-6--3--------------3---3-6-3-----------b6--b6-b6-|-----------------8--8---|
G|------6p5p3---3-b5-----------6p5p3---3-----------|------------------------|
D|------------5----------------------5-------------|------------------------|
A|-------------------------------------------------|------------------------|
E|-------------------------------------------------|------------------------|
C7
E|-------b6---------|--6--b8--8-8-8-8-8-8-8-8-8-8-8-8--b7-b*7|
B|--8--8-----8--8---|----------------------------------------|
G|------------------|----------------------------------------|
D|------------------|----------------------------------------|
A|------------------|----------------------------------------|

E|------------------|----------------------------------------|
E|-8--6----------6-b8---6--18sd-|------3------5-3h5p3-----6-3----------3----B|------8-8--8-8-6------6--18sd-|----3---6--3---------6-3-----6-3----3---3--G|------------------------------|-b5------------------------------b5-------5D|------------------------------|-------------------------------------------A|------------------------------|-------------------------------------------E|------------------------------|-------------------------------------------G
E|----------------6----------|------------------------------------------3----B|---------------------------|-6-3---------------6---------6-----------------G|-6p5p3---3-5su7-----5p3----|-----5p3---3su5-b5---6p5p3------b5-5-3-b5--3---D|-------5-----------------5-|---------5-----------------5-----------------5-A|---------------------------|-----------------------------------------------5
E|---------------------------|-----------------------------------------------D7
E|-------------------------------------------|---------3--------------------B|-------------------------------------------|-------3---6-3----------------G|----------3-5-5----b3----------------------|-----b5-------b5-5p3---3------D|------5---------------5--3-----------------|-5-------------------5----5--3A|-su7----7-------------------5-6-3h4p3------|------------------------------E|---------------------------------------6--3|---3--------------------------C7
G
C7
E|-------|--------------------------|-I think that is the whole solo--------|
B|-------|--------------------------|--this is one of my most favorite------|
G|-------|---------3--------------5-|---SRV tunes. Take time and learn------|
D|-3h4p3-|-----3-5----5-3-----------|---the solo cause there is alot to ----|
A|-------|-----------------3-4-5----|---learn from it.----------------------|
E|-------|-6-3----------------------|---------------------------------------|
G
D7
Second Verse
[G] Well Im leaving you baby
[C9] And I'm going back home to stay
[G] Yeah I'm [C9]leaving you baby
and I'm going back home to stay
[G] Well back [D7] home there are no floods or tornadoes
(look below)
E|------------------------------|---6--6--6-----10-10--10--|
B|------------------------------|--b5-b5-b5----b11-11--11--|
G|------------------------------|--b6-b6-b6----------------|
D|------------------------------|------------0-------------|
A|------------------------------|--------------------------|
E|------------------------------|--------------------------|
baby and the sunshines every day
E|--------------10---10su12--10-------------|----10-------------------------3|
B|--------------10--------------12-10-------|-------------------------------3|
G|--7-----------10--------------------12-11-|-10----10----------------------3|
D|--8----5-------9--------------------------|----------10sd8-----------------|
A|----------3---10--------------------------|----------------10-8------------|
E|------------------------------------------|----------------------10-9p8-7--|
Whoah, that sure took long but I hope it is worth it to someone.
I know I would have certainly rather had someone show me the song before
I spent months figuring it out. Enjoy all you SRV fans!!! :-)

------PLEASE NOTE---------------------------------#
#This file is the author's own work and represents their interpretation of the #
#song. You may only use this file for private study, scholarship, or research. #
#------------------------------------------------------------------------------##
From: Chuck Dolese
Pride and Joy
by SRV off Texas Flood
You had better clean the rust off your fingers to learn this tune inside
and out. And remember Stevie always tuned down a half step. He also
played on 11 and 12 gauge strings.
E|-------0-0-0-0-0-|---7-7-7-7-7-7-7--|------0-0-0-0-0-0-0-0-|--------------|
B|--3su5-5-5-5-5-5-|---8-8-8-8-8-8-8--|-3su5-5-5-5-5-5-5-5-5-|--------------|
G|-----------------|---^--------------|----------------------|--0-b2--0-----|
D|-----------------|---|--------------|----------------------|----------2---|
A|-----------------|---|--------------|----------------------|--------------|
E|-----------------|---|--------------|----------------------|--------------|
these | G(8th fret) notes are bent slightly
E|----0----0-----0-----0-|-----0-----0-----0-2-0-|-0-0----0----0-----0------|
B|----0----0-----0-----0-|-----0-----0-----0-2-0-|-0-0----0----0-----0------|
G|----1----1-------------|-----------------1-2-1-|-1-1----------------------|
D|-----------------------|--2--------------------|--------------------------|
A|------------2-----4----|--------------2--------|----------2-----4---------|
E|-0-----3---------------|--------3--------------|------3-------------------|
I find it easiest to play these lower bass notes by forming the chord and
then using your pinky to finger the notes, I am not sure exactly how SRV
did it!
E|-----0-----0---0-2-0--|-----0-----0-----0-----0-|---0----0------0--2--0---|
B|-----0-----0---0-2-0--|-----2-----2-----2-----2-|---2----2------0--2--0---|
G|---------------1-2-1--|-----2-----2-----2-----2-|-2-2----2---------2------|
D|--2-------------------|--------------2-----4----|-------------2-----------|
A|-------------2--------|--0-----4----------------|------4------------------|
E|--------3-------------|-------------------------|-------------------------|
E|----0------0-------0-----0-|---0-----0-----0---------|----------------------B|----0------0-------0-----0-|---0-----0-----0-------3-|------3-----3---------G|---------------------------|------------------2su4---|-2su4---2su4--2p0-----D|---------------------------|-2-----------------------|------------------2---A|---------------2------4----|------------2------------|-------------------0h2E|-0-----3-------------------|------3------------------|----------------------E|---|------------------------------|----0----------------------------------|
B|---|------------------------------|----0--2su3-3-3-3-3-3------------------|
G|---|------------------------------|----1--3su4-4-4-4-4-4-2p0--------------|
D|---|-0-1-2----------------------2-|--------------------------2------------|

A|-2-|--------0-2-1--0h1p0---0------|---------------------------------------|
E|---|---------------------3----3---|-0-------------------------------------|
E|----------------0--0-|--0-------------------------------------------------|
B|----------------0--0-|--0--Just play this E and shuffle though the -------|
G|----------------1--1-|--1- I-IV-V
blues progression. Use your ---------|
D|---------------------|-------palm to muffle some of the strings when you -|
A|---------0-1-2-------|----------------------------------------------play--|
E|-0---3---------------|----------------------------------------------------|
Well you've heard about love and giving sight to the blind
E|-0-----0----------0-------------|--3-------------------------------3------|
B|-0-----0----------0-------------|--2--Shuffle with A7 -------------2------|
G|-1-----1----------1-------------|--2-------------------------------2------|
D|--------------------------------|-----------------------------------------|
A|--------------------------------|-----------------------------------------|
E|--------------------------------|-----------------------------------------|
My babys lovin' cause the sun to shine
Shes my sweet little thing
E|-0--3-3---0-0-|-0----------------|----------------------|-----------------|
B|-2--2-2---0-0-|-0----------------|----------------------|------------1-2-1|
G|-2--2-2---1-1-|-1-----Shuffle ---|----------------------|------------0-2-0|
D|-2------------|------------------|-------0--1---4-4-6-4-|-----------2-----|
A|--------------|------------------|-2--2-----------------|-0--0-4--4-------|
E|--------------|------------------|----------------------|-----------------|
Shes my pride and joy
Shes my sweet little baby I'm her lil lover boy
E|-0---0---------0-0-0--------|-------------------| That is pretty much
B|-0---0-------3-3-3-3--------|-------------0-2-0-| how he plays the whole
G|-1---1--2su4----------2p0---|-------------1-2-1-| song except for a few
D|--------------------------2-|-------------------| fills which are just notes
A|----------------------------|-------0-1-2-------|
right off the chords
E|----------------------------|--0--3-------------| Now for the great solo!
Solo
E*--0--0--0--0--0--0--0--0--0--0--0--0-*--0--0--0--0--0--0--0--0--0--0--0--0*
B*-12-12-12-12-12-12-12-12-12-12-12-12-*-15-15-15-15-15-15-15-15-15-15-15-15*
G*-13-13-13-13-13-13-13-13-13-13-13-13-*-16-16-16-16-16-16-16-16-16-16-16-16*
D*-------------------------------------*------------------------------------*
A*-------------------------------------*------------------------------------*
E*-------------------------------------*------------------------------------*
E*--0--0--0--0--0--0--0--0--0--0--0--0-*-------12-----12-12------12-12------|
B*-12-12-12-12-12-12-12-12-12-12-12-12-*----12----b15-12-12--b15-12-12-b15--|
G*-13-13-13-13-13-13-13-13-13-13-13-13-*b14---------------------------------|
D*-------------------------------------*------------------------------------|
A*-------------------------------------*------------------------------------|
E*-------------------------------------*------------------------------------|
E|-12-12-|--b14--12-----------12--------------------|-----------------------|
B|-12-12-|----------12-----12----15------14--12-----|-----------------------|
G|-------|-------------b14----------b14----------14-|-12-b14-b14-b14-b14----|
D|-------|------------------------------------------|-----------------------|
A|-------|------------------------------------------|-----------------------|
E|-------|------------------------------------------|-----------------------|
E|---------------------------------------12------15---------------0---------|
B|------------------------------------12----12---15-------------------------|
G|--14p12-------12----------------b14-----------------b*2-0---0h1-----------|
D|---------14-------14p12-----------------------------------2---------------|
A|-------------------------14--12-------------------------------------0--1--|
E|------------------------------------------------------------------3-------|

E|------2-------2----------15su17sd---0-3-0-------------------0-------------|
B|------0-------0----0-0---------------------3------------------2su3-3-3-3-3|
G|---2-------2-----2-0-0-----------------------2--3p2--0--------3su4-4-4-4-4|
D|---1-------1-------------------------------------------2------------------|
A|-2------------------------------------------------------------------------|
E|---------2-----------------------------------------------0----------------|
E|------------------3--2----2--0--0-0-0-0-0-0-0-0-0-0-0-0-0-0--7-7-7-7-7-7--|
B|------------------3--2----2--3su5-5-5-5-5-5-5-5-5-5-5-5-5-5--8-8-8-8-8-8--|
G|--2--0-----0h1----3--2----2-----------------------------------------------|
D|-------2------------------------------------------------------------------|
A|--------------------------------------------------------------------------|
E|----------------0---------------------------------------------------------|
again bend the "8"
E|-------------0--0-----0--0---0--0---7-7-7-7-7-7---------------------------|
B|-------------5--5-----5--5---5--5---8-8-8-8-8-8----6su8-8-8-8-8-8-8-8-8-8-|
G|--2p0--------------2-------------------------------7su9-9-9-9-9-9-9-9-9-9-|
D|------2---2---------------------------------------------------------------|
A|--------------------------------------------------------------------------|
E|--------------------------------------------------------------------------|
E|-----------------0----------------------------------0---------0-----------|
B|-8-----------------b3--0--3--------3-------------------0--b3--------------|
G|-9--2p0-----0h1--------------2su4----4--2--0---------------------0h1p0h1--|
D|---------2------------------------------------2---------------------------|
A|--------------------------------------------------------------------------|
E|-------------------------------------------------0------------------------|
E|-------------2---------2--2-2---b3-0----------0---------------------------|
B|-------------0---------0--0-0---------3---------3-------------------------|
G|-----------2--------2-----2-2-----------2su4------4--2--0-----------------|
D|-----------1--------1--------------------------------------2-0-1--2-------|
A|----0-1--2----------------------------------------------------------------|
E|-3----------------2-------------------------------------------------------|
E|-----0--------------------------------------------------------------------|
B|-----0--------3--3---3-------------------------return to the main verse---|
G|--------2su4------------2p0----------------------after the solo.----------|
D|----------------------------2---------------------------------------------|
A|--------------------------------------0-1--2------------------------------|
E|--0-----------------------------0--3--------------------------------------|
I would suggest to any serious guitar player interested in SRV to learn these
solos if you want to really get into SRV's style.
Here is the short out solo.
E*-------------------------*-------------------------*----------------------|
B*-3-3-3-3-3-3-3-3-3-3-3-3-*-5-5-5-5-5-5-5-5-5-5-5-5-*-same rhythm---12-----|
G*-4-4-4-4-4-4-4-4-4-4-4-4-*-6-6-6-6-6-6-6-6-6-6-6-6-*-with these-->-13-----|
D*-------------------------*-------------------------*----------------------|
A*-------------------------*-------------------------*----------------------|
E*-------------------------*-------------------------*----------------------|
E|--------------*---------------------------------------------------12--12--|
B|and-------15--*--------------12-----12--14-14-14---12-----12--------------|
G|-these-->-16--*----14--12----12-----12--14-14-14---12-----12--b14---------|
D|--------------*-----------14-----14--------------------14-----------------|
A|--------------*-----------------------------------------------------------|
E|--------------*-----------------------------------------------------------|
E|-b15-------b15--b15--b15--V15-------12------------------------------------|

B|---------------------------------------15--12-----------------------------|
G|-----------------------------------------------b*14--12------12-b14-b14---|
D|---------------------------------------------------------14---------------|
A|--------------------------------------------------------------------------|
E|--------------------------------------------------------------------------|
E|---------------------------------12-------------------14--12--------------|
B|------------------------------12----12---15--12--12-------12--b14--12-----|
G|12-----------------------b14------------------------------------------b*14|
D|-------12--14p12-----12---------------------------------------------------|
A|------------------14------------------------------------------------------|
E|--------------------------------------------------------------------------|
E|--------------12-----------------------------------3-0----0----------0-2-3-|
B|-----------12-----15------------------------------------3-0--0-------0-3-3-|
G|-12----b14------------b14---14--12-----------------------------0-1-----3-4-|
D|------------------------------------14-12---14---------------------2-------|
A|---------------------------------------------------------------------------|
E|-------------------------------------------------0-------------------------|
Well hopefully I didn't waste the two hours it took to type this and that
someone will use this to its full potential and But I am sure alot of
you will.
============================================================
====== Chuck Dolese Southeastern Louisiana University =====
====== Department of Industrial Technology
=====
====== e-mail PCSD1146@selu.edu
=====
====== "Were on a mission from God"- Elwood
=====
From: lohmann@iesd.auc.dk (Jens Lohmann-Hansen)
Subject: SRV: Pride and Joy
I promised to post a final version. Here is what I consider correct;
however, a few mails have suggested that 3rd verse 1st line is about
his wife, and could therefore be:
"Yeah I love my Lenny, she's long and lean".
Well, you can decide for youself. Thank you to all who answered.
A tab version (including only 1st verse) not made by me can be found
on ftp.nevada.edu OR MIRRORS! The mirrors are in fact faster (for me,
anyway). I have put up a few links on my www-blues page, including the
nevada mirrors: http://www.iesd.auc.dk/~lohmann/blues.html
Have fun now, and here it goes: (sing along, all)
- - - - - - - - - - - - - - - - - - - - - - - - "Pride and Joy"
Stevie Ray Vaughan
intro
Well you've heard about love givin' sight to the blind
My baby's lovin' cause the sun to shine
she's my sweet little thing, she's my pride and joy
she's my sweet little baby, I'm her little lover boy
Yeah I love my
love like ours
she's my sweet
she's my sweet

baby, my heart and soul


won't never grow old
little thing, she's my pride and joy
little baby, I'm her little lover boy

Yeah I love my baby to belong and lean


you mess with her, you'll see a man gettin' mean
she's my sweet little thing, she's my pride and joy

she's my sweet little baby, I'm her little lover boy


guitar solo 1
Well I love my
Stick with her
she's my sweet
she's my sweet

baby like the finest wine


until the end of time
little thing, she's my pride amd joy
little baby, I'm her little lover boy

Yeah I love my
love like ours
she's my sweet
she's my sweet

baby, my heart and soul


will never grow old
little thing, she's my pride and joy
little baby, I'm her little lover boy

guitar solo 2
outro
- - - - - - - - - - - - - - - - - - - - - - - - -Signed lohmann@iesd.auc.dk
---------------------------------------------------------------------------- Chairman of EDA, Public Relations Dep.
- World Wide Web: http://www.iesd.auc.dk/~lohmann