Sie sind auf Seite 1von 2

1.7.

2014

Amoi Seg Ma Uns Wieder Chords (ver 2) by Andreas Gabalier tabs @ Ultimate Guitar Archive

Amoi Seg Ma Uns Wieder Chords (ver 2) by Andreas Gabalier


+ --------------------------------------------------------------------- +
| Ultimate Guitar Tabs Archive - your #1 source for tabs!
|
| http://www.ultimate-guitar.com/
|
|
|
| Over 800,000 guitar, guitar pro and bass tabs! Also lessons, news,
|
| columns and guitar forums!
|
+ --------------------------------------------------------------------- +
Artist: Andreas Gabalier
Song: Amoi Seg Ma Uns Wieder
Intro:

Em
C
Uns oin is die Zeit zu gehen bestimmt
G
D
Wie a Blattl trogn vom Wind gehts zum Ursprung zruck als Kind
Em
C
Wenn des Bluat in deine Adern gfriert
G
D
Wie dei Herz aufhrt zum Schlogn und du aufi zu die Engerl fliagst
Am
C
Dann hob ka Angst und loss di anfoch trogn
G
D
Weil es gibt was nach dem Lebm, du wirst scho segn
Chorus:
G
D
G
Amoi seg ma uns wieder, Amoi schau i a von obm zua
C
G
Auf meine oitn Tag leg i mi dankend nieder
D
G
Und moch fr olle Zeitn meine Augen zua
Midtro: C

Em
C
Ois wos bleibt ist die Erinnerung
G
D
Und schn langsam wird da kloar, dass nix mehr is wias woar
Am
C
Dann soll die Hoffnung auf a Wiedesehn
G
D
Mir die Kroft in mein Herzschlog legn, um weiter zu lebm
CHORUS
Bridge:
Am
C
F
A Liacht sui da leichtn bis in die Ewigkeit
Em
C
Zur Erinnerung an die Lebenszeit
CHORUS
out
END
+--------------------------------------------------------------------------+
| This file is the author's own work and represents their interpretation
|
| of the song. You may only use this file for private study, scholarship, |
| or research.
|
+--------------------------------------------------------------------------+

http://tabs.ultimate-guitar.com/print/1459580

1/2

1.7.2014

Amoi Seg Ma Uns Wieder Chords (ver 2) by Andreas Gabalier tabs @ Ultimate Guitar Archive

Ultimate-Guitar.Com 2014
Show/hide chords diagrams

Add more chord diagrams to the list:

F
E |-X-|---|---|---|---| o
B |-X-|---|---|---|---| o
G |-X-|-2-|---|---|---| o
D |-X-|---|-4-|---|---| o
A |-X-|---|-3-|---|---| o
E |-X-|---|---|---|---| o

Am
E |---|---|---|---|---| o
B |-1-|---|---|---|---| o
G |---|-3-|---|---|---| o
D |---|-2-|---|---|---| o
A |---|---|---|---|---| o
E |---|---|---|---|---| x

Em
E |---|---|---|---|---| o
B |---|---|---|---|---| o
G |---|---|---|---|---| o
D |---|-2-|---|---|---| o
A |---|-1-|---|---|---| o
E |---|---|---|---|---| o

1 fr.

D
E |---|-2-|---|---|---| o
B |---|---|-3-|---|---| o
G |---|-1-|---|---|---| o
D |---|---|---|---|---| o
A |---|---|---|---|---| x
E |---|---|---|---|---| x

http://tabs.ultimate-guitar.com/print/1459580

C
E |---|---|---|---|---| o
B |-1-|---|---|---|---| o
G |---|---|---|---|---| o
D |---|-2-|---|---|---| o
A |---|---|-3-|---|---| o
E |---|---|---|---|---| x

G
E |---|---|-3-|---|---| o
B |---|---|---|---|---| o
G |---|---|---|---|---| o
D |---|---|---|---|---| o
A |---|-1-|---|---|---| o
E |---|---|-2-|---|---| o

2/2