Sie sind auf Seite 1von 2

--------------------------------------------------------------Lover's Carvings - Bibio

------------------------------------------------------------------------------Tabbed by:Jeff
E-mail:
Tuning:DGDGBD
Essentially an alternate, slightly more stretchy fingered way to pluck this song. This
in my opinion is more dramatic and pleasing to the ear than whats out there so far.
Some
of it is the same as already tabbed but much is different. These are the riffs the
rhythm is up to you to figure out.
This played three times
d|---------------------------------------------------4p0---------------------|
B|-------0---0-------1---1-------0---0-------1---1---------------------------|
G|-------0---0-------0---0-------0---0-------0---0---------------------------|
D|-----0---0---0---2---2---2---0---0---0---2---2---2-------------------------|
G|---0-----------0-----------0-----------0-----------------------------------|
D|---------------------------------------------------------------------------|
Finish with this
d|---------------------------------------------------------------------------|
B|-------0---0-------1---1-------0----0h1-0----------------------------------|
G|-------0---0-------0---0-------0----0---0----------------------------------|
D|-----0---0---0---2---2---2---0---0--0h2------------------------------------|
G|---0-----------0-----------0------------0----------------------------------|
D|---------------------------------------------------------------------------|
Play this interlude twice
d|------------------0--------------------------------------------------------|
B|----7-----7---8------------------------------------------------------------|
G|----5---5-5---5------------------------------------------------------------|
D|------0-----0---0----------------------------------------------------------|
G|----5----------------------------------------------------------------------|
D|---------------------------------------------------------------------------|
Back to this for a bit
d|---------------------------------------------------4p0---------------------|
B|-------0---0-------1---1-------0---0-------1---1---------------------------|
G|-------0---0-------0---0-------0---0-------0---0---------------------------|
D|-----0---0---0---2---2---2---0---0---0---2---2---2-------------------------|
G|---0-----------0-----------0-----------0-----------------------------------|
D|---------------------------------------------------------------------------|
d|---------------------------------------------------------------------------|
B|-------0---0-------1---1-------0----0h1-0----------------------------------|
G|-------0---0-------0---0-------0----0---0----------------------------------|
D|-----0---0---0---2---2---2---0---0--0h2------------------------------------|
G|---0-----------0-----------0------------0----------------------------------|
D|---------------------------------------------------------------------------|
Then this little ditty (x2)
d|---7-----7--7------7-9-----9-5-----5---------------------------------------|
B|-------7---------7-------5-------5-----------------------------------------|
G|-----7---------7-------5-------5-------------------------------------------|
D|---------------------------------------------------------------------------|
G|---7-----------------5-----------------------------------------------------|
G|------------9----------------7---------------------------------------------|
And mabye this or something like it played once
d|----7---7-7---7-9---9-5---5------------------------------------------------|
B|-------7-----7-----5-----7-------------------------------------------------|
G|------7-----7-----5-----7--------------------------------------------------|
D|-----7-----7-----5-----7---------------------------------------------------|
G|----7-----------5----------------------------------------------------------|
D|----------9-----------7----------------------------------------------------|

Followed by (x3)
d|---9-------9s12-9-------9s12-9-------9s12--9---7---5-----------------------|
B|-------0------------0------------0-----------0---0---0---------------------|
G|-------0------------0------------0-----------0---0---0---------------------|
D|-----0---0--------0---0--------0---0---------------------------------------|
G|---------------------------------------------------------------------------|
D|---5------------7------------9-------------9---7---5-----------------------|
d|--------------7-12-7-------------------7-12-7------------------------------|
B|------------7--------7-------7-------7--------7-----7----------------------|
G|----------7------------7-----------7------------7--------------------------|
D|--------7------------------7-----7----------------7------------------------|
G|------7------------------7-----7-------------------------------------------|
D|---------------------------------------------------------------------------|
Then back to the beginning until this part which is straightforward
d|---------------------------------------------------------------------------|
B|---5-7-8---8-7-5---5-7-0---1-1s3-0-----------------------------------------|
G|---------------------------------------------------------------------------|
D|---------------------------------------------------------------------------|
G|---5-7-9---9-7-5---5-7-0---2-2s4-0-----------------------------------------|
D|---------------------------------------------------------------------------|