Sie sind auf Seite 1von 3

Wir Sind Am Leben Chords by Rosenstolz

+
|
|
|
|
|
+

--------------------------------------------------------------------- +
Ultimate Guitar Tabs Archive - your #1 source for tabs!
|
http://www.ultimate-guitar.com/
|
|
Over 800,000 guitar, guitar pro and bass tabs! Also lessons, news,
|
columns and guitar forums!
|
--------------------------------------------------------------------- +

Artist: Rosenstolz
Song: Wir Sind Am Leben
Rosenstolz: Wir sind am Leben
Intro: F
F
Hast
F
Hast
B
Hast
B
Wenn

Am

Am

Am
du alles probiert?
Am
du alles versucht?
C
du alles getan?
C
nicht, fang an!

F
Am
Hast du wirklich gelebt?
F
Am
Hat deine Welt sich wirklich gedreht?
B
C
Hast du alles getan?
B
C
Wenn nicht, fang an!
B
Was
C
Wen
B
Was
C
Und
B
Wer
Dm
Und

B
willst du sagen?
Am
willst du fragen?
B
willst du erleben?
Am
was willst du geben?
B
gibt dir den Frieden?
Dm
was ist liegen geblieben?

Refrain:
B
Ich kann deinen Herzschlag hren
Gm
Keiner wird dich zerstren
Dm
Du bist am Leben
F
Du bist am Leben
B
Weil dein Herz noch Feuer fngt
Gm
Weil dein Herz die liebe kennt
Dm
Du bist am Leben
F
Du bist am Leben
F
Am
An was willst du glauben?
F
Am
Oder glaubst du an dich?
B
C
Wie oft wirst du betrogen?

B
C
Wie oft belgst du dich?
F
Am
Wie viel Trn wirst du ffnen?
F
Am
Welches Schloss knackst du nie?
B
C
Wie oft kannst du widerstehen?
B
C
Und wann gehst du in die Knie?
B
B
Warum willst du weinen?
C
Am
Und wie oft bleibst du stumm?

B
B
Und fr wen wirst du beten?
C
Am
Weit du wirklich warum?
B
B
Und bei wem wirst du schlafen?
Dm
Dm
Und bei wem rennst du weg?
Refrain:
B
Ich kann deinen Herzschlag hren
Gm
Keiner wird dich zerstren
Dm
Du bist am Leben
F
Du bist am Leben
B
Weil dein Herz noch Feuer fngt
Gm
Weil dein Herz die liebe kennt
Dm
Du bist am Leben
F
Du bist am Leben
B

Gm

Dm

B
B
Und hast du dich verlaufen?
Dm
Dm
Ich bin da, bring dich nach Haus!
B
Ich kann deinen Herzschlag hren
Gm
Keiner wird dich zerstren
Dm
Du bist am Leben
F
Du bist am Leben
B

Gm

Dm
Wir sind am Leben
F
Wir sind am Leben
Refrain:
B
Ich kann deinen Herzschlag hren
Gm
Keiner wird uns zerstren
Dm
Wir sind am Leben

F
Wir sind am Leben
B
Weil dein Herz noch Feuer fngt
Gm
Weil dein Herz die liebe kennt
Dm
Wir sind am Leben
F
Wir sind am Leben

END
+--------------------------------------------------------------------------+
| This file is the author's own work and represents their interpretation
|
| of the song. You may only use this file for private study, scholarship, |
| or research.
|
+--------------------------------------------------------------------------+
Ultimate-Guitar.Com 2015
Show/hide chords diagrams

Add more chord diagrams to the list:

Gm
E
B
G
D
A
E

|-X-|---|---|---|---|
|-X-|---|---|---|---|
|-X-|---|---|---|---|
|-X-|---|-4-|---|---|
|-X-|---|-3-|---|---|
|-X-|---|---|---|---|

Dm
o
o
o
o
o
o

E
B
G
D
A
E

|-1-|---|---|---|---|
|---|---|-3-|---|---|
|---|-2-|---|---|---|
|---|---|---|---|---|
|---|---|---|---|---|
|---|---|---|---|---|

C
o
o
o
o
x
x

E
B
G
D
A
E

|---|---|---|---|---|
|-1-|---|---|---|---|
|---|---|---|---|---|
|---|-2-|---|---|---|
|---|---|-3-|---|---|
|---|---|---|---|---|

o
o
o
o
o
x

3 fr.

B
E
B
G
D
A
E

|-X-|---|---|---|---|
|-X-|---|-4-|---|---|
|-X-|---|-3-|---|---|
|-X-|---|-2-|---|---|
|-X-|---|---|---|---|
|---|---|---|---|---|
2 fr.

Am
o
o
o
o
o
x

E
B
G
D
A
E

|---|---|---|---|---|
|-1-|---|---|---|---|
|---|-3-|---|---|---|
|---|-2-|---|---|---|
|---|---|---|---|---|
|---|---|---|---|---|

F
o
o
o
o
o
x

E
B
G
D
A
E

|-X-|---|---|---|---|
|-X-|---|---|---|---|
|-X-|-2-|---|---|---|
|-X-|---|-4-|---|---|
|-X-|---|-3-|---|---|
|-X-|---|---|---|---|
1 fr.

o
o
o
o
o
o