Sie sind auf Seite 1von 2

Amoi Seg Ma Uns Wieder Chords (ver 2) by Andreas Gabalier

+
|
|
|
|
|
+

--------------------------------------------------------------------- +
Ultimate Guitar Tabs Archive - your #1 source for tabs!
|
http://www.ultimate-guitar.com/
|
|
Over 800,000 guitar, guitar pro and bass tabs! Also lessons, news,
|
columns and guitar forums!
|
--------------------------------------------------------------------- +

Artist: Andreas Gabalier


Song: Amoi Seg Ma Uns Wieder
Intro:

Em

Em
C
Uns oin is die Zeit zu gehen bestimmt
G
D
Wie a Blattl trogn vom Wind gehts zum Ursprung zruck als Kind
Em
C
Wenn des Bluat in deine Adern gfriert
G
D
Wie dei Herz aufhrt zum Schlogn und du aufi zu die Engerl fliagst
Am
C
Dann hob ka Angst und loss di anfoch trogn
G
D
Weil es gibt was nach dem Lebm, du wirst scho segn
Chorus:
G
D
G
Amoi seg ma uns wieder, Amoi schau i a von obm zua
C
G
Auf meine oitn Tag leg i mi dankend nieder
D
G
Und moch fr olle Zeitn meine Augen zua
Midtro: C

Em
C
Ois wos bleibt ist die Erinnerung
G
D
Und schn langsam wird da kloar, dass nix mehr is wias woar
Am
C
Dann soll die Hoffnung auf a Wiedesehn
G
D
Mir die Kroft in mein Herzschlog legn, um weiter zu lebm
CHORUS
Bridge:
Am
C
F
A Liacht sui da leichtn bis in die Ewigkeit
Em
C
Zur Erinnerung an die Lebenszeit
CHORUS
out
END
+--------------------------------------------------------------------------+
| This file is the author's own work and represents their interpretation
|
| of the song. You may only use this file for private study, scholarship, |
| or research.
|
+--------------------------------------------------------------------------+
Ultimate-Guitar.Com 2014
Show/hide chords diagrams

Add more chord diagrams to the list:

F
E
B
G
D
A
E

|-X-|---|---|---|---|
|-X-|---|---|---|---|
|-X-|-2-|---|---|---|
|-X-|---|-4-|---|---|
|-X-|---|-3-|---|---|
|-X-|---|---|---|---|

Am
o
o
o
o
o
o

E
B
G
D
A
E

|---|---|---|---|---|
|-1-|---|---|---|---|
|---|-3-|---|---|---|
|---|-2-|---|---|---|
|---|---|---|---|---|
|---|---|---|---|---|

D
o
o
o
o
o
x

E
B
G
D
A
E

|---|-2-|---|---|---|
|---|---|-3-|---|---|
|---|-1-|---|---|---|
|---|---|---|---|---|
|---|---|---|---|---|
|---|---|---|---|---|

o
o
o
o
x
x

1 fr.

G
E
B
G
D
A
E

|---|---|-3-|---|---|
|---|---|---|---|---|
|---|---|---|---|---|
|---|---|---|---|---|
|---|-1-|---|---|---|
|---|---|-2-|---|---|

C
o
o
o
o
o
o

E
B
G
D
A
E

|---|---|---|---|---|
|-1-|---|---|---|---|
|---|---|---|---|---|
|---|-2-|---|---|---|
|---|---|-3-|---|---|
|---|---|---|---|---|

Em
o
o
o
o
o
x

E
B
G
D
A
E

|---|---|---|---|---|
|---|---|---|---|---|
|---|---|---|---|---|
|---|-2-|---|---|---|
|---|-1-|---|---|---|
|---|---|---|---|---|

o
o
o
o
o
o