Sie sind auf Seite 1von 2

Ready Set Go Tokio Hotel

Tom: G
ready set go
this is my first tab, so sorry if it's a bit wrong.
i wanted to do this song because it's a great song, but no-one tabbed it.
intro/verse
e|---------------------------------------------------------------|
B|---------------------------------------------------------------|
G|---14-14-14--11--11--11--11------------------------------------|
D|----x--x--x---x---x---x---x--5-5-5-5-5-5-5-5-------------------|
A|---12-12-12---9---9---9---9--5-5-5-5-5-5-5-5-------------------|
E|-----------------------------3-3-3-3-3-3-3-3-----------------\-|
\
>x2
/
e|--------------------------------------------------------------|
B|--------------------------------------------------------------|
G|---14-14-14--11-11-11-11--------------------------------------|
D|----x--x--x---x--x--x--x--5-5-5-5/7-7-7-7---------------------|
A|---12-12-12---9--9--9--9--5-5-5-5/7-7-7-7---------------------|
E|--------------------------3-3-3-3/5-5-5-5---------------------|
e|-------------------------------------------------------------|
B|-------------------------------------------------------------|
G|-------------------------------------------------------------|
D|---7-7-7-7-7-7-7-7-----------5-5-5-5-5-5-5-5-----------------|
A|---7-7-7-7-7-7-7-7-----------5-5-5-5-5-5-5-5-----------------|
E|---5-5-5-5-5-5-5-5-----------3-3-3-3-3-3-3-3-----------------|
pre-chorus
e|-------------------------------------------------------------|
B|-------------------------------------------------------------|
G|---4-4-4--6-6-6--3-3-3-3-3-3-3-3-----------------------------|
D|---2-2-2--4-4-4--1-1-1-1-1-1-1-1-----------------------------|
A|---3-3-3--5-5-5--2-2-2-2-2-2-2-2-----------------------------|
E|---3-3-3--5-5-5--2-2-2-2-2-2-2-2-----------------------------|
e|-------------------------------------------------------------|
B|-------------------------------------------------------------|
G|---4-4-4--6-6-6--3-3-3--4-4-4-4-4----------------------------|
D|---2-2-2--4-4-4--1-1-1--2-2-2-2-2----------------------------|
A|---3-3-3--5-5-5--2-2-2--3-3-3-3-3----------------------------|
E|---3-3-3--5-5-5--2-2-2--3-3-3-3-3----------------------------|
chorus
e|-------------------------------------------------------------|
B|-------------------------------------------------------------|
G|-------------------------------------------------------------|
D|---4-4-4/9-9-9--7-7-7--2-2-2-2---4-4-4/9-9-9--7-2-4----------|
A|---4-4-4/9-9-9--7-7-7--2-2-2-2---4-4-4/9-9-9--7-2-4----------|
E|---2-2-2/7-7-7--5-5-5--0-0-0-0---2-2-2/7-7-7--5-0-2----------|

e|-------------------------------------------------------------|
B|-------------------------------------------------------------|
G|---7-7-7-7-7-7-7-7-------------------------------------------|
D|---7-7-7-7-7-7-7-7-9-9-9-9-9-11--5-5-5-5-5-5-2-2-2-2-2-2-----|
A|---5-5-5-5-5-5-5-5-9-9-9-9-9-11--5-5-5-5-5-5-2-2-2-2-2-2-----|
E|-------------------7-7-7-7-7--9--3-3-3-3-3-3-0-0-0-0-0-0-----|
e|-------------------------------------------------------------|
B|-------------------------------------------------------------|
G|-------------------------------------------------------------|
D|---7-7-7-7-7-7-7-7--5-5-5-5-5-5-5-5--------------------------|
A|---7-7-7-7-7-7-7-7--5-5-5-5-5-5-5-5--------------------------|
E|---5-5-5-5-5-5-5-5--3-3-3-3-3-3-3-3--------------------------|
Bridge
e|-------------------------------------------------------------|
B|-------------------------------------------------------------|
G|---9-9-x-11-11-x-14-14-x-------------------------------------|
D|---9-9-x-11-11-x-14-14-x-7-7--9~-9~--------------------------|
A|---7-7-x--9--9-x-12-12-x-7-7--9~-9~--------------------------|
E|-------------------------5-5--7~-7~--------------------------|
then play the pre-chorus
& for the last chorus instead of the firse four chords do:
e|--------|
B|--------|
G|--------|
D|---2-2--|
A|---2-2--|
E|---0-0--|
then carry on the chorus.
finish the last chorus on:
e|--------|
B|--------|
G|--------|
D|--11-11-|
A|--11-11-|
E|---9--9-|
finish the song on:
e|--------------------|
B|--------------------|
G|---9-9-x-11-11------|
D|---9-9-x-11-11-9-9~-|
A|---7-7-x--9--9-9-9~-|
E|---------------7-7~-|
thats pretty much it, it may not be 100% right but its sounds similar.