Sie sind auf Seite 1von 2

Kygo Firestone Tuning: DADGBE Arranged by Rilind Halitaj Capo 5 th Fret (DAxxxx) Partial Capo 7 th Fret covering xxDGBE

Page 1 / 2

Intro

e|----------------------------------------------------------------|

B|------------------------------------------------------3-0-------|

G|-0-0-0-0--0-0-0-0-0-0-0--0-0-0h2p0-0-0-0-0--0-0-0-0-0-----2p0---|

D|----------------------------------------------------------------| A|----------------------------------------------------------------|

D|-4------------2--------------------0------------2---------------|

e|----------------------------------------------------------------| B|----------------------------------------------------------------|

G|-0-0-0-0--0-0-0-0-0-0-0--0-0-0h2p0-0-0-0-0--0-0-0~~~------------|

D|----------------------------------------------------------------| A|----------------------------------------------------------------|

D|-4------------2--------------------0------------2---------------|

Verse

e|-------------------------------------------------|3x|

B|-----------------0-------------------------------|3x|

G|---0-2-------0h2-----2~---0h2-2-4-2~p0-0---------|3x|

D|-2---------2------------0------------------------|3x|

A|-------------------------------------------------|3x|

D|-------4~----------2----------0----------0~--2---|3x|

e|-------------------------------------------------|

B|-----------------0-------------------------------|

G|---0-2-------0h2-----2~---0h2-2-4-2~p0-----------|

D|-2---------2------------0--------------5~~~------|

A|-------------------------------------------------|

D|-------4~----------2----------0----------0~~~----|

Chorus

e|-------------------------------------------------------------| B|-------------------------------------------------------------|

G|---0-2-2-------0h2-2-------0h2-2-------0-2-2~----0---0h2-2---|

D|-2-----------------------------------2-----------------------|

A|-----------------------------------------------0---0---------|

D|---------0-0-0-------2-2-2-------4-4-4-----------------------|

e|-------------------------------------------------------------|

B|-------------------------------------------3-0---------------|

G|-------0-2-2-------0h2-2-2s7-5-4-2h5s4~--0-----2-0-----------|

D|-----2-----------0-------------------------------------------|

A|-------------------------0-----------------------------------|

D|-0-0-0-------2-2-2-------------------------------------------|

e|-------------------------------------------------------------------------|

B|-----------------0~----------0h3-0---------------------------------------|

G|-0-------0---0h2---2-2-------------2-0-------0---0h2-2-2---0---2h4-2-0---|

D|---2---2---2-------------0-------------2---2---2-------------------------|

A|-----------------------------------------------------0---0---0-----0-----|

D|-0---0---0---0-----2---2---2-----2---4---4---4---4-----------------------|

E|---------------------------------------------------------------------------|

B|-----------------0~----------0h3-0-----------------0-------0h3-3-0---------|

G|-0-------0---0h2---2-2-------------2-0-0---0-0-0-2---0-0-----------0h2p0---|

D|---2---2---2-------------0-------------------------------------------------|

A|-----------------------------------------------------0---0-----0---0-------|

D|-0---0---0---0-----2---2---2-----2---4---4---4---4-------------------------|

Kygo Firestone Tuning: DADGBE Arranged by Rilind Halitaj Capo 5 th Fret (DAxxxx) Partial Capo 7 th Fret covering xxDGBE

Page 2 / 2

e|-------------------------------------------------------------------------|

B|-----------------0~----------0h3-0---------------------------------------|

G|-0-------0---0h2---2-2-------------2-0-------0---0h2-2-2---0---2h4-2-0---|

D|---2---2---2-------------0-------------2---2---2-------------------------|

A|-----------------------------------------------------0---0---0-----0-----|

D|-0---0---0---0-----2---2---2-----2---4---4---4---4-----------------------|

E|-------------------------------------------------------------------------|

B|-----------------0~----------0h3-0-----------------0---------------------|

G|-0-------0---0h2---2-2-------------2-0-0---0-0-0-2---0-0-4h7-7-4-0h2p0---|

D|---2---2---2-------------0-----------------------------------------------|

A|-----------------------------------------------------0-------0-----------|

D|-0---0---0---0-----2---2---2-----2---4---4---4---4-----------------------|

Verse

e|-------------------------------------------------|

B|-----------------0-------------------------------|

G|---0-2-------0h2-----2~---0h2-2-4-2~p0-----0-----|

D|-2---------2------------0--------------2--2-2----|

A|-------------------------------------------------|

D|-------4~----------2----------0----------0~--2---|

e|-------------------------------------------------|

B|-----------------0-------------------------------|

G|---0-2-------0h2-----2~---0h2-2-4-2~p0-----------|

D|-2---------2------------0--------------5~~~------|

A|-------------------------------------------------|

D|-------4~----------2----------0----------0~~~----|

Chorus

e|-------------------------------------------------------------| B|-------------------------------------------------------------|

G|---0-2-2-------0h2-2-------0h2-2-------0-2-2~----0---0h2-2---|

D|-2-----------------------------------2-----------------------|

A|-----------------------------------------------0---0---------|

D|---------0-0-0-------2-2-2-------4-4-4-----------------------|

e|-------------------------------------------------------------|

B|-------------------------------------------3-0---------------|

G|-------0-2-2-------0h2-2-2s7-5-4-2h5s4~--0-----2-0-----------|

D|-----2-----------0-------------------------------------------|

A|-------------------------0-----------------------------------|

D|-0-0-0-------2-2-2-------------------------------------------|

e|-------------------------------------------------------------------------|

B|-----------------0~----------0h3-0---------------------------------------|

G|-0-------0---0h2---2-2-------------2-0-------0---0h2-2-2---0---2h4-2-0---|

D|---2---2---2-------------0-------------2---2---2-------------------------|

A|-----------------------------------------------------0---0---0-----0-----|

D|-0---0---0---0-----2---2---2-----2---4---4---4---4-----------------------|

E|---------------------------------------------------------------------------|

B|-----------------0~----------0h3-0-----------------0-------0h3-3-0---------|

G|-0-------0---0h2---2-2-------------2-0-0---0-0-0-2---0-0-----------0h2p0---|

D|---2---2---2-------------0-------------------------------------------------|

A|-----------------------------------------------------0---0-----0---0-------|

D|-0---0---0---0-----2---2---2-----2---4---4---4---4-------------------------|