Sie sind auf Seite 1von 17

Samba Pa Ti - Carlos Santana http://www.scribd.

com/doc/209920/Samba-Pa-Ti-Carlos-Santana

Fill 2: (....doubles 1st gtr....)


|-------10------|--------------5h7-5h7p5-----|---------5-|
|-------13b15....(hold)...r13------------8-7-|-(7)-7-8---|
|---------------|----------------------------|-----------|
|---------------|----------------------------|-----------|
|---------------|----------------------------|-----------|
|---------------|----------------------------|-----------|

Gtr. Solo: double time


G Am G Am ~~~~~~~~~~~~
|-----------3-5-|-(5)/7--------|--------------3-5--|------------------------|
|---3-3-3h5-----|--------------|------3-3-3h5------|--3h5p3----------(3)h5--|
|---------------|--------------|-------------------|------------------------|
|---------------|--------------|-------------------|------------------------|
|---------------|--------------|-------------------|------------------------|
|---------------|--------------|-------------------|------------------------|

G Am G Am
|-----------3-5-|-(5)/7--(7)\3-|--------------3-5--|--------------------|
|---3-3-3h5-----|--------------|------3-3-3h5------|--3h5p3-----------3-|
|---------------|--------------|-------------------|--------------------|
|---------------|--------------|-------------------|--------------------|
|---------------|--------------|-------------------|--------------------|
|---------------|--------------|-------------------|--------------------|

G Am
~~~~ ~~~~ ~~~~ ~~~~ ~~~~
|-8h10----10----10----10----10----10-|-(10)-8-7-7p5---------5--7-----|
|------------------------------------|--------------8-7--8-----------| |------------------------------------|----------------------------7--|
|------------------------------------|-------------------------------| |------------------------------------|-------------------------------|
|------------------------------------|-------------------------------|

G Am G
~~~ ~~~ ~~~ ~~~ ~~~
|-3--------------------|-------0------------7/10-|-10--10--10--7-10-7-10--10-|
|---3/5\3-5-3b5r3p0----|------0-3p0--------------|---------------------------|
|------------------2b4-|-(2b4)-----2b4r2p0-------|---------------------------|
|----------------------|------------------2------|---------------------------| |----------------------|-------------------------|---------------------------|
|----------------------|-------------------------|---------------------------|

Am G Am
~~~~ ~~~~ ~~~~ ~~~~ ~~~~
|-(10)-8-7-7p5------5-7-|-3--------12-----|---------------------------------|
|-------------8-7-8-----|---3/5\3-----15b17r15---15---15---15---15---15-----|
|-----------------------|-----------------|---------------------------------|
|-----------------------|-----------------|---------------------------------|
|-----------------------|-----------------|---------------------------------|
|-----------------------|-----------------|---------------------------------|

G Am
~~~~ ~~ ~~ ~~~~ ~~~~~~~
|------------------------------|----------------------|
|(15)-15-15-15p12--------------|----------15--(15)p12-|
|----------------14b16r14p12---|-12-14b16-------------|
|---------------------------14-|----------------------| |------------------------------|----------------------|
|------------------------------|----------------------|

1 von 17 26.02.2011 11:24


Samba Pa Ti - Carlos Santana http://www.scribd.com/doc/209920/Samba-Pa-Ti-Carlos-Santana

2 von 17 26.02.2011 11:24


Samba Pa Ti - Carlos Santana http://www.scribd.com/doc/209920/Samba-Pa-Ti-Carlos-Santana

3 von 17 26.02.2011 11:24


Samba Pa Ti - Carlos Santana http://www.scribd.com/doc/209920/Samba-Pa-Ti-Carlos-Santana

4 von 17 26.02.2011 11:24


Samba Pa Ti - Carlos Santana http://www.scribd.com/doc/209920/Samba-Pa-Ti-Carlos-Santana

5 von 17 26.02.2011 11:24


Samba Pa Ti - Carlos Santana http://www.scribd.com/doc/209920/Samba-Pa-Ti-Carlos-Santana

6 von 17 26.02.2011 11:24


Samba Pa Ti - Carlos Santana http://www.scribd.com/doc/209920/Samba-Pa-Ti-Carlos-Santana

7 von 17 26.02.2011 11:24


Samba Pa Ti - Carlos Santana http://www.scribd.com/doc/209920/Samba-Pa-Ti-Carlos-Santana

8 von 17 26.02.2011 11:24


Samba Pa Ti - Carlos Santana http://www.scribd.com/doc/209920/Samba-Pa-Ti-Carlos-Santana

9 von 17 26.02.2011 11:24


Samba Pa Ti - Carlos Santana http://www.scribd.com/doc/209920/Samba-Pa-Ti-Carlos-Santana

10 von 17 26.02.2011 11:24


Samba Pa Ti - Carlos Santana http://www.scribd.com/doc/209920/Samba-Pa-Ti-Carlos-Santana

11 von 17 26.02.2011 11:24


Samba Pa Ti - Carlos Santana http://www.scribd.com/doc/209920/Samba-Pa-Ti-Carlos-Santana

12 von 17 26.02.2011 11:24


Samba Pa Ti - Carlos Santana http://www.scribd.com/doc/209920/Samba-Pa-Ti-Carlos-Santana

13 von 17 26.02.2011 11:24


Samba Pa Ti - Carlos Santana http://www.scribd.com/doc/209920/Samba-Pa-Ti-Carlos-Santana

14 von 17 26.02.2011 11:24


Samba Pa Ti - Carlos Santana http://www.scribd.com/doc/209920/Samba-Pa-Ti-Carlos-Santana

15 von 17 26.02.2011 11:24


Samba Pa Ti - Carlos Santana http://www.scribd.com/doc/209920/Samba-Pa-Ti-Carlos-Santana

16 von 17 26.02.2011 11:24


Samba Pa Ti - Carlos Santana http://www.scribd.com/doc/209920/Samba-Pa-Ti-Carlos-Santana

17 von 17 26.02.2011 11:24