You are on page 1of 2

Download chord

Submit Updates Check new songs Give Feedback


book

Simple Guitar Song - HUmko Sirf Tumse Pyar Hai Lead


Tune Tabs

E--5----5-5--5-5-3---------------------
B------------------------6-5-----------
G-------------------------------

E--3----3-3--3-3----------------------
B----------------------6--5--3---------
G-------------------------------

E--------------5--3----------------------
B--3--5--6-----------6--5--3---------
G-------------------------------

E--------------3----------------------
B--3--5--6--------6--5--3---------
G--------------------------------5------

E------------------------5-3---------------
B-------3--5--3----6----------5-3---------3--
G--5------------------------------------5---

this is where the melody starts (i mean whistle melody)

E---------------------------------
B--3---6--5--3--------------------- (repeat 3 times)
G------------------5---------------

E---------------------------------
B--5---8--7--5--------------------- (repeat 2 times)
G------------------7---------------

end it like

E---------------------------------
B--5---8--7--5--------5\3-----------
G------------------7---------------

slight pause.. and the song starts..

E----------------------------5------------
B--3-3---------3-3--5-6---------------
G---------2-2-----------------------
humkosirf tumse pyar hai

E--3--------------3-3--------------------
B-------6--5--6----------6--5--3---------
G--------------------------------------
hum ko sirf tumse pyar hai

Guitar Tuner Guitar Lessons Guitar Basics Guitarist near me


www.indian-guitar-chords-tabs.org
Download chord
Submit Updates Check new songs Give Feedback
book
keh rahi hai dil ki bekhudi
bus tumhara intezaar hai (same as above)
(repeat according to song)

Then is the para

E---5--6--5---3--5-------5--6--5-------3----------
B----------------------------------------6--------
G-----------------------------------------
dhoondte hai hum tumko dar ba dar

E---3--5--3---------------3--5---6-8-6---3--5-------
B---------------6--5--6-----------------------
G-----------------------------------------
jaane kab kahan mil oge humko humsafar (repeat)

kaisi doorian kaisa faasla, aaye hain yahan pe sun


ke pyaar ki sada (same as above)

E---5---8----3---6------------3--------------
B--------------------------6----------6-5-3---
G-----------------------------------------
yu to tum se na door honge hum

then repeat the main line again according to song

Guitar Tuner Guitar Lessons Guitar Basics Guitarist near me


www.indian-guitar-chords-tabs.org