Sie sind auf Seite 1von 26

Tuning (this tab): Open C

Tab difficulty: intermediate

*****SCROLL DOWN FOR DURATION AND TABLATURE LEGEND*****


Only Anchors
Counterparts
GUITAR 1 - Alex
PM PM
W
E E E E H
E Q
Q
E E E
D||-------------------|-----------------------|------------------------|
A||-------------------|-----------------------|------------------------|
F||-------------------|--2--------2-----------|--2--2----2----2--2--2--|
C||-------------------|--3--------3-----------|--3--3----3----3--3--3--|
G||-------------------|-----0--0--------------|--0--0----0----0--0--0--|
C||-------------------|-----0--0--------------|--0--0----0----0--0--0--|
E Q
Q
E E E
E Q
Q
E E E
E Q
Q
E E E
------------------------|------------------------|------------------------|
------------------------|------------------------|------------------------|
------------------------|------------------------|------------------------|
--5--5----5----5--5--5--|--3--3----3----3--3--3--|--3--3----3----3--3--3--|
--3--3----3----3--3--3--|--1--1----1----1--1--1--|--1--1----1----1--1--1--|
--3--3----3----3--3--3--|--1--1----1----1--1--1--|--1--1----1----1--1--1--|
E Q
Q
E E E
E Q
Q
E E E
E Q
Q
E E E
------------------------|------------------------|------------------------|
------------------------|------------------------|------------------------|
--2--2----2----2--2--2--|------------------------|------------------------|
--3--3----3----3--3--3--|--5--5----5----5--5--5--|--3--3----3----3--3--3--|
--0--0----0----0--0--0--|--3--3----3----3--3--3--|--1--1----1----1--1--1--|
--0--0----0----0--0--0--|--3--3----3----3--3--3--|--1--1----1----1--1--1--|
PM
PM
|----3----|
|----3----|
Q
Q
Q
Q
Q
Q
E Q
Q
E E E
--------------------------------|------------------------|
--------------------------------|------------------------|
--------------------------------|--2--2----2----2--2--2--|
--3---------3----3---------3----|--3--3----3----3--3--3--|
--1----0----1----1----0----1----|--0--0----0----0--0--0--|
--1----0----1----1----0----1----|--0--0----0----0--0--0--|
E Q
Q
E E E
E Q
Q
E E E
E Q
Q
E E E
------------------------|------------------------|------------------------|
------------------------|------------------------|------------------------|
------------------------|--2--2----2----2--2--2--|--3--3----3----3--3--3--|
--5--5----5----5--5--5--|--1--1----1----1--1--1--|--1--1----1----1--1--1--|
--3--3----3----3--3--3--|--1--1----1----1--1--1--|--1--1----1----1--1--1--|
--3--3----3----3--3--3--|--1--1----1----1--1--1--|--1--1----1----1--1--1--|
E Q
Q
E E E
E Q
Q
E E E
E Q
Q
E E E
------------------------|------------------------|------------------------|

------------------------|------------------------|------------------------|
--2--2----2----2--2--2--|------------------------|------------------------|
--3--3----3----3--3--3--|--5--5----5----5--5--5--|--3--3----3----3--3--3--|
--0--0----0----0--0--0--|--3--3----3----3--3--3--|--1--1----1----1--1--1--|
--0--0----0----0--0--0--|--3--3----3----3--3--3--|--1--1----1----1--1--1--|
PM PM PM PM
E E E E E E E E
E E S S S S E E E E
--------------------------|-----------------------------------|
--------------------------|-----------------------------------|
--------------------------|-----------------------------------|
--------------------------|-----------------------------------|
--5-----------5-----5--6--|-----------------------------------|
-----3--0--1-----0--------|--8p--0--0--0--0--0--8p--0--8p--0--|
PM PM PM PM
PM PM PM PM
S S S S E E E E E E
E E S S S S E E E E
-----------------------------------|-----------------------------------|
-----------------------------------|-----------------------------------|
-----------------------------------|-----------------------------------|
-----------------------------------|-----------------------------------|
-----------------------------------|-----------------------------------|
--0--0--0--0--8p--0--8p--0--8p--0--|--8p--0--0--0--0--0--8p--0--8p--0--|
PM PM PM PM
PM PM PM PM
E E S S S S E E E E
E E S S S S E E E E
--------------------------------------|-----------------------------------|
--------------------------------------|-----------------------------------|
--------------------------------------|-----------------------------------|
--------------------------------------|-----------------------------------|
--------------------------------------|-----------------------------------|
--10--12--0--0--0--0--12--13--13--13--|--8p--0--0--0--0--0--8p--0--8p--0--|
PM PM PM PM
PM PM PM PM
S S S S E E E E E E
E E S S S S E E E E
-----------------------------------|-----------------------------------|
-----------------------------------|-----------------------------------|
-----------------------------------|-----------------------------------|
-----------------------------------|-----------------------------------|
-----------------------------------|-----------------------------------|
--0--0--0--0--8p--0--8p--0--8p--0--|--8p--0--0--0--0--0--8p--0--8p--0--|
PM PM PM PM
PM PM PM PM
E E S S S S E E E E
E E S S S S E E E E
--------------------------------------|----------------------------------|
--------------------------------------|----------------------------------|
--------------------------------------|----------------------------------|
--------------------------------------|----------------------------------|
--------------------------------------|-------------------------------5--|
--10--12--0--0--0--0--12--13--13--13--|--1p--0--0--0--0--0--1p--0--1-----|
PM PM PM PM
PM PM PM PM
S S S S E E E E E E
E E S S S S E E E E
----------------------------------|----------------------------------|

----------------------------------|----------------------------------|
----------------------------------|----------------------------------|
----------------------------------|----------------------------------|
-------------------------------5--|-------------------------------5--|
--0--0--0--0--1p--0--1p--0--1-----|--1p--0--0--0--0--0--1p--0--1-----|
PM PM PM PM PM PM PM PM PM PM PM PM
|--3--| |---3---| |---3---| |---3--|
E E E E E E E E E E E E
----------------------------------------------|
----------------------------------------------|
----------------------------------------------|
----------------------------------------------|
----------------------------------------------|
--0--0--0b--0b--0b--0b--0b--0b--0b--0b--0--0--|
PM PM PM
PM PM PM PM PM PM
S S S S Q
S S S S S S S S
----------------------------------------|
----------------------------------------|
----------------------------------------|
----------------------------------------|
--0--0--0---------0--0--0----0--0--0----|
--0--0--0---------0--0--0----0--0--0----|
PM PM PM PM PM PM PM PM PM
Q
S S S S S S S S S S S S
----------------------------------------|
----------------------------------------|
----------------------------------------|
----------------------------------------|
-------0--0--0----0--0--0----0--0--0----|
-------0--0--0----0--0--0----0--0--0----|
PM PM PM
PM PM PM PM PM PM
S S S S Q
S S S S S S S S
----------------------------------------|
----------------------------------------|
----------------------------------------|
----------------------------------------|
--0--0--0---------0--0--0----0--0--0----|
--0--0--0---------0--0--0----0--0--0----|
PM PM PM PM PM PM PM PM PM
PM PM
PM
Q
S S S S S S S S S S S S
E E E E E E E E
----------------------------------------|---------------------------|
----------------------------------------|---------------------------|
----------------------------------------|---------------------------|
----------------------------------------|-----------------7---------|
-------0--0--0----0--0--0----0--0--0----|--8--------8--------5h--7--|
-------0--0--0----0--0--0----0--0--0----|--8--8--8--8--8------------|
PM PM
PM
E E E E E E E E

PM PM
PM
E E E E E E E E

--------------------------|--------------------------|
--------------------------|--------------------------|
--------------------------|-----------------7--7--7--|
--------------------------|-----------------x--x--x--|
--5--------5-----3--5--3--|--0--------0-----5--5--5--|
--5--5--5--5--5--3--5--3--|--0--0--0--0--0-----------|
PM PM
PM
PM PM
PM
E E E E E E E E
E E E E E E E E
--------------------------|---------------------------|
--------------------------|---------------------------|
--------------------------|---------------------------|
--------------------------|-----------------7---------|
--0--------0-----0--0--0--|--8--------8--------5h--7--|
--0--0--0--0--0--0--0--0--|--8--8--8--8--8------------|
PM PM
PM
PM PM PM PM PM PM PM
E E E E E E E E
Q
E E S S E E E
--------------------------|----------------------------|
--------------------------|----------------------------|
--------------------------|----------------------------|
--------------------------|----------------------------|
--5--------5-----3--5--3--|--0----0--0--0--0--0--0--0--|
--5--5--5--5--5--3--5--3--|--0----0--0--0--0--0--0--0--|
PM PM PM PM
E E E E E E E E
E Q
Q
E E E
--------------------------|----------------------------|
--------------------------|----------------------------|
--------------------------|----------10----10--10--10--|
--------------------------|-----------x-----x---x---x--|
--0--0--0--0--0--0--0--0--|--8--8-----8-----8---8---8--|
--0--0--0--0--0--0--0--0--|--8--8----------------------|
E Q
Q
E E E
E Q
Q
E E E
E E E Q
E E E
------------------------|------------------------|-------------------------|
------------------------|------------------------|-------------------------|
----------7----7--7--7--|------------------------|-------------------------|
----------x----x--x--x--|------------------------|-------------------------|
--5--5----5----5--5--5--|--0--0----0----0--0--0--|--0--0--0--0----0--0--0--|
--5--5------------------|--0--0----0----0--0--0--|--0--0--0--0----0--0--0--|
E Q
Q
E E E
E Q
Q
E E E
E Q
Q
E E E
----------------------------|------------------------|------------------------|
----------------------------|------------------------|------------------------|
----------10----10--10--10--|----------7----7--7--7--|------------------------|
-----------x-----x---x---x--|----------x----x--x--x--|------------------------|
--8--8-----8-----8---8---8--|--5--5----5----5--5--5--|--0--0----0----0--0--0--|
--8--8----------------------|--5--5------------------|--0--0----0----0--0--0--|
|---3---|
W
E E E E E E E E E
-------------------|-------------------------------|
-------------------|-------------------------------|

-------------------|-------------------------------|
-------------------|-------------------------------|
-------------------|--4h--5p--4-----------------5--|
-------------------|-------------5--4--3--0--1-----|
PM PM PM PM PM PM PM PM PM PM PM
PM PM PM PM PM PM PM PM PM PM PM
S S E E E S S E S S E
E E S S E S S E S S E
-----------------------------------|-----------------------------------|
-----------------------------------|-----------------------------------|
-----------------------------------|-----------------------------------|
-----------------------------------|-----------------------------------|
--0--0--0--0--0--0--0--0--0--0--0--|--0--0--0--0--0--0--0--0--0--0--0--|
--1--1--1--1--1--1--1--1--1--1--1--|--1--1--1--1--1--1--1--1--1--1--1--|
PM PM PM PM PM PM PM PM PM PM PM
S S E E E S S E S S E
-----------------------------------|
-----------------------------------|
-----------------------------------|
-----------------------------------|
--0--0--0--0--0--0--0--0--0--0--0--|
--1--1--1--1--1--1--1--1--1--1--1--|
PM PM PM PM
PM PM PM
E E S S S S E E E E S S E Q
------------------------------------------------|
------------------------------------------------|
------------------------------------------------|
--5S--7--------------7S--8--8--8----------------|
--3S--5--------------5S--6--6--6--0--0--0-------|
---------0--0--0--0---------------1--1--1-------|
PM PM PM
PM PM PM PM PM PM PM PM PM
S S E H
S S E S S E S S E
-----------------------------------------------|
-----------------------------------------------|
-----------------------------------------------|
-----------------------------------------------|
--0--0--0-----------0--0--0--0--0--0--0--0--0--|
--1--1--1-----------1--1--1--1--1--1--1--1--1--|
PM PM PM PM PM PM PM PM PM PM PM
PM PM PM PM
S S E E E S S E S S E
E E S S S S E E E E
-----------------------------------|----------------------------------|
-----------------------------------|----------------------------------|
-----------------------------------|----------------------------------|
-----------------------------------|--5S--7--------------7S--8--8--8--|
--0--0--0--0--0--0--0--0--0--0--0--|--3S--5--------------5S--6--6--6--|
--1--1--1--1--1--1--1--1--1--1--1--|---------0--0--0--0---------------|
Q
S Q
S Q
E Q
Q
E Q.
H
----------------------------------------------------|-----------|
----------------------------------------------------|-----------|
--12----L-12-----L-12----10--10----10----10---------|-----------|

---x-------x--------x-----x---x-----x-----x---------|-----------|
--10----L-10-----L-10-----8---8-----8-----8---------|-----------|
----------------------------------------------------|-----------|
Q.
Q.
Q
W
Q.
Q.
Q
---------------------|-------------------|---------------------|
---------------------|-------------------|---------------------|
----------------3----|--L----------------|----------------3----|
---------3-----------|-------------------|---------3-----------|
--6------------------|-------------------|---------------------|
---------------------|-------------------|--5------------------|
Q.
Q.
Q
Q.
Q.
Q
W
---------------------|---------------------|-------------------|
---------------------|---------------------|-------------------|
----------------3----|----------------3----|--L----------------|
---------7-----------|---------3-----------|-------------------|
---------------------|--6------------------|-------------------|
--3------------------|---------------------|-------------------|
Q.
Q.
Q
Q.
Q.
Q
E E E E E E E E
---------------------|---------------------|----------------------------|
---------------------|---------------------|----------------------------|
----------------3----|----------------3----|--------10--------10--------|
---------3-----------|---------7-----------|-----8---------8---------8--|
---------------------|---------------------|--6---------6---------6-----|
--5------------------|--3------------------|----------------------------|
E E E E E E E E
E E E E E E E E
-----------------------------|-------------------------------|
-----------------------------|-------------------------------|
--10--------10--------10-----|---------10---------10---------|
---------8---------8------8--|------8----------8----------8--|
------6---------6------------|--12---------12---------12-----|
-----------------------------|-------------------------------|
E E E E E E E E
E E E E E E E E
----------------------------|----------------------------|
----------------------------|----------------------------|
--------10--------10--------|--------10--------10--------|
-----8---------8---------8--|-----8---------8---------8--|
--8---------8---------8-----|--6---------6---------6-----|
----------------------------|----------------------------|
E E E E E E E E
E E E E E E E E
-----------------------------|-------------------------------|
-----------------------------|-------------------------------|
--10--------10--------10-----|---------10---------10---------|
---------8---------8------8--|------8----------8----------8--|
------6---------6------------|--12---------12---------12-----|
-----------------------------|-------------------------------|
Q

H.

E Q

E E E

E Q

E E E

---------------------|------------------------|------------------------|
---------------------|------------------------|------------------------|
--10-----------------|------------------------|------------------------|
---8-----------------|--3--3----3----3--3--3--|--3--3----3----3--3--3--|
---8-----------------|--1--1----1----1--1--1--|--1--1----1----1--1--1--|
---------------------|--1--1----1----1--1--1--|--1--1----1----1--1--1--|
E Q
Q
E E E
E Q
Q
E E E
E Q
Q
E E E
------------------------|------------------------|------------------------|
------------------------|------------------------|------------------------|
------------------------|------------------------|------------------------|
--8--8----8----8--8--8--|--7--7----7----7--7--7--|--3--3----3----3--3--3--|
--5--5----5----5--5--5--|--3--3----3----3--3--3--|--1--1----1----1--1--1--|
--5--5----5----5--5--5--|--3--3----3----3--3--3--|--1--1----1----1--1--1--|
E Q
Q
E E E
E Q
Q
E E E
E Q
Q
E E E
------------------------|------------------------|------------------------|
------------------------|------------------------|------------------------|
------------------------|------------------------|------------------------|
--3--3----3----3--3--3--|--8--8----8----8--8--8--|--7--7----7----7--7--7--|
--1--1----1----1--1--1--|--5--5----5----5--5--5--|--3--3----3----3--3--3--|
--1--1----1----1--1--1--|--5--5----5----5--5--5--|--3--3----3----3--3--3--|
E Q
Q
E E E
W
E Q
Q
E E E
------------------------|-------------------|------------------------|
------------------------|-------------------|------------------------|
------------------------|-------------------|--7--7----7----7--7--7--|
--3--3----3----3--3--3--|-------------------|--8--8----8----8--8--8--|
--1--1----1----1--1--1--|-------------------|--5--5----5----5--5--5--|
--1--1----1----1--1--1--|-------------------|--5--5----5----5--5--5--|
E Q
Q
E E E
E Q
Q
E E E
------------------------------|------------------------|
------------------------------|------------------------|
--10--10----10----10--10--10--|--2--2----2----2--2--2--|
--10--10----10----10--10--10--|--3--3----3----3--3--3--|
---8---8-----8-----8---8---8--|--1--1----1----1--1--1--|
---8---8-----8-----8---8---8--|--1--1----1----1--1--1--|
PM PM PM PM
|--3--|
E Q
Q
E E E
Q
Q
Q
Q
Q
E E E E E
------------------------|-----------------------|----------------------|
------------------------|-----------------------|----------------------|
--3--3----3----3--3--3--|--7----8----10---------|----------------------|
--3--3----3----3--3--3--|--x----x-----x---------|----------------------|
--1--1----1----1--1--1--|--5----6-----8----3----|--5----1--1--1--1-----|
--1--1----1----1--1--1--|------------------3----|--5----1--1--1--1-----|
PM PM PM PM
W
W
E. E. T T T T E. E E.
-------------------|-------------------|-----------------------------------|
-------------------|-------------------|-----------------------------------|
-------------------|-------------------|----------------------2------------|

--1----------------|--L----------------|----------------------3------------|
--1----------------|--L----------------|--0---0---------------1---0--12\---|
--1----------------|--L----------------|--0---0---0--0--0--0------0--12\---|
E. E. E E Q.
W
W
-----------------------|-------------------|-------------------|
-----------------------|-------------------|-------------------|
-----------------------|-------------------|-------------------|
-----------------------|--0----------------|--L----------------|
--1---1---1--1---------|--0----------------|--L----------------|
--1---1---1--1---------|--0----------------|--L----------------|
-\2
PM PM
W
S S Q.
E. E. E
-------------------|--------------------------|
--0----------------|--------------------------|
--0----------------|--------------------------|
--0----------------|--------------------------|
-------------------|--0--0---------1---1---1--|
-------------------|--0--0---------1---1---1--|
PM PM
PM PM PM PM PM PM PM PM PM PM PM
S S E S S S S S S S S S S S S
----------------------------------------------|
----------------------------------------------|
----------------------------------------------|
----------------------------------------------|
--0--0-----0--0--0--0----0--0--0--0--0--0--0--|
--0--0-----0--0--0--0----0--0--0--0--0--0--0--|
PM PM
PM PM PM PM PM PM PM PM PM PM PM
S S E S S S S S S S S S S S S
----------------------------------------------|
----------------------------------------------|
----------------------------------------------|
----------------------------------------------|
--0--0-----0--0--0--0----0--0--0--0--0--0--0--|
--0--0-----0--0--0--0----0--0--0--0--0--0--0--|
PM PM
PM PM PM PM PM PM PM PM PM PM PM
S S E S S S S S S S S S S S S
E. E. E S S S S S S S S
----------------------------------------------|-----------------------------|
----------------------------------------------|-----------------------------|
----------------------------------------------|-----------------------------|
----------------------------------------------|-----------------------------|
--0--0-----0--0--0--0----0--0--0--0--0--0--0--|--1---1---1--5-------5---5-6-|
--0--0-----0--0--0--0----0--0--0--0--0--0--0--|--1---1---1----3-0-1---0-----|
PM PM
PM PM PM PM PM PM PM PM PM
PM PM PM PM
S S Q.
S S S S S S S S S S S S S S S S
---------------|-----------------------------------------------|
---------------|-----------------------------------------------|
---------------|-----------------------------------------------|
---------------|-----------------------------------------------|

--0--0---------|--0--0--0--0----0--0--0--0--0------0--0--0--0--|
--0--0---------|--0--0--0--0----0--0--0--0--0------0--0--0--0--|
PM PM PM PM PM PM PM PM PM
PM PM PM PM
S S S S S S S S S S E S S S S
----------------------------------------------|
----------------------------------------------|
----------------------------------------------|
----------------------------------------------|
----0--0--0--0--0--0--0--0--0-----0--0--0--0--|
----0--0--0--0--0--0--0--0--0-----0--0--0--0--|
PM PM PM PM PM PM PM
S S S S S S S S E. E. E
Q
Q
------------------------------------|--------------|
------------------------------------|--------------|
------------------------------------|--------------|
------------------------------------|--------------|
----0--0--0--0--0--0--0--1---1---1--|-------12\----|
----0--0--0--0--0--0--0--1---1---1--|-------12\----|
PM PM
PM PM PM PM PM PM PM PM PM PM PM
S S E S S S S S S S S S S S S
----------------------------------------------|
----------------------------------------------|
----------------------------------------------|
----------------------------------------------|
--0--0--L--0--0--0--0--L-0--0--0--0--0--0--0--|
--0--0--L--0--0--0--0--L-0--0--0--0--0--0--0--|
PM PM
PM PM PM PM PM PM PM PM PM PM PM
S S E S S S S S S S S S S S S
----------------------------------------------|
----------------------------------------------|
----------------------------------------------|
----------------------------------------------|
--1--1--L--1--1--1--1--L-1--1--1--1--1--1--1--|
--0--0--L--0--0--0--0--L-0--0--0--0--0--0--0--|
PM PM
PM PM PM PM PM PM PM PM PM PM PM
S S E S S S S S S S S S S S S
E. E. E
----------------------------------------------|-------------|
----------------------------------------------|-------------|
----------------------------------------------|-------------|
----------------------------------------------|-------------|
--0--0-----0--0--0--0----0--0--0--0--0--0--0--|--1---1---1--|
--0--0-----0--0--0--0----0--0--0--0--0--0--0--|--1---1---1--|
|---3---|
E E E E E E E E E E E E E E E E
E
-----------------------------------------------------------|
-----------------------------------------------------------|
---------------------------------5h--7---------------------|
--------------------------7h--8---------7h--8p--7----------|

--5-----------5-----5--6---------------------------8S--10--|
-----3--0--1-----0-----------------------------------------|
E Q
Q
E E E
E Q
Q
E E E
E Q
Q
E E E
------------------------|------------------------|------------------------|
------------------------|------------------------|------------------------|
--2--2----2----2--2--2--|------------------------|------------------------|
--3--3----3----3--3--3--|--5--5----5----5--5--5--|--3--3----3----3--3--3--|
--0--0----0----0--0--0--|--3--3----3----3--3--3--|--1--1----1----1--1--1--|
--0--0----0----0--0--0--|--3--3----3----3--3--3--|--1--1----1----1--1--1--|
E Q
Q
E E E
E Q
Q
E E E
E Q
Q
E E E
------------------------|------------------------|------------------------|
------------------------|------------------------|------------------------|
------------------------|--2--2----2----2--2--2--|------------------------|
--3--3----3----3--3--3--|--3--3----3----3--3--3--|--5--5----5----5--5--5--|
--1--1----1----1--1--1--|--0--0----0----0--0--0--|--3--3----3----3--3--3--|
--1--1----1----1--1--1--|--0--0----0----0--0--0--|--3--3----3----3--3--3--|
PM
PM
|----3----|
|----3----|
E Q
Q
E E E
Q
Q
Q
Q
Q
Q
------------------------|--------------------------------|
------------------------|--------------------------------|
------------------------|--------------------------------|
--3--3----3----3--3--3--|--3---------3----3---------3----|
--1--1----1----1--1--1--|--1----0----1----1----0----1----|
--1--1----1----1--1--1--|--1----0----1----1----0----1----|
E Q
Q
E E E
E Q
Q
E E E
E Q
Q
E E E
------------------------|------------------------|------------------------|
------------------------|------------------------|------------------------|
--2--2----2----2--2--2--|------------------------|--2--2----2----2--2--2--|
--3--3----3----3--3--3--|--5--5----5----5--5--5--|--3--3----3----3--3--3--|
--0--0----0----0--0--0--|--3--3----3----3--3--3--|--1--1----1----1--1--1--|
--0--0----0----0--0--0--|--3--3----3----3--3--3--|--1--1----1----1--1--1--|
E Q
Q
E E E
E Q
Q
E E E
E Q
Q
E E E
------------------------|------------------------|------------------------|
------------------------|------------------------|------------------------|
--3--3----3----3--3--3--|--2--2----2----2--2--2--|------------------------|
--3--3----3----3--3--3--|--3--3----3----3--3--3--|--5--5----5----5--5--5--|
--1--1----1----1--1--1--|--0--0----0----0--0--0--|--3--3----3----3--3--3--|
--1--1----1----1--1--1--|--0--0----0----0--0--0--|--3--3----3----3--3--3--|
E Q
E E Q
E
E Q
E E Q
E
E Q
E E Q
E
------------------------|------------------------|------------------------|
------------------------|------------------------|------------------------|
--2--2----2--2--2----2--|--3--3----3--3--3----3--|--2--2----2--2--2----2--|
--1--1----1--1--1----1--|--1--1----1--1--1----1--|--1--1----1--1--1----1--|
--1--1----1--1--1----1--|--1--1----1--1--1----1--|--1--1----1--1--1----1--|
--1--1----1--1--1----1--|--1--1----1--1--1----1--|--1--1----1--1--1----1--|

E Q
E E Q
E
E Q
E E Q
E
E Q
E E Q
E
------------------------|------------------------|------------------------|
------------------------|------------------------|------------------------|
--3--3----3--3--3----3--|--2--2----2--2--2----2--|--3--3----3--3--3----3--|
--1--1----1--1--1----1--|--3--3----3--3--3----3--|--3--3----3--3--3----3--|
--1--1----1--1--1----1--|--1--1----1--1--1----1--|--1--1----1--1--1----1--|
--1--1----1--1--1----1--|--1--1----1--1--1----1--|--1--1----1--1--1----1--|
E Q
E E Q
E
E Q
E E Q
E
------------------------|--1--1----1--1--1----1--|
--1--1----1--1--1----1--|--1--1----1--1--1----1--|
--3--3----3--3--3----3--|--3--3----3--3--3----3--|
--3--3----3--3--3----3--|--3--3----3--3--3----3--|
--1--1----1--1--1----1--|--1--1----1--1--1----1--|
--1--1----1--1--1----1--|--1--1----1--1--1----1--|
E Q
Q
E E E
E Q
Q
E E E
------------------------------|------------------------------|
--10--10----10----10--10--10--|------------------------------|
--10--10----10----10--10--10--|--10--10----10----10--10--10--|
---8---8-----8-----8---8---8--|--10--10----10----10--10--10--|
---8---8-----8-----8---8---8--|---8---8-----8-----8---8---8--|
------------------------------|---8---8-----8-----8---8---8--|
E Q
Q
E E E
E Q
Q
E E E
------------------------|------------------------------|
------------------------|------------------------------|
------------------------|------------------------------|
--8--8----8----8--8--8--|--10--10----10----10--10--10--|
--8--8----8----8--8--8--|--10--10----10----10--10--10--|
--8--8----8----8--8--8--|--10--10----10----10--10--10--|
E Q
Q
E E E
E Q
Q
E E E
------------------------------|------------------------------|
--10--10----10----10--10--10--|------------------------------|
--10--10----10----10--10--10--|--10--10----10----10--10--10--|
---8---8-----8-----8---8---8--|--10--10----10----10--10--10--|
---8---8-----8-----8---8---8--|---8---8-----8-----8---8---8--|
------------------------------|---8---8-----8-----8---8---8--|
E Q
Q
E E E
E Q
Q
E E E
------------------------|------------------------------|
------------------------|------------------------------|
------------------------|------------------------------|
--8--8----8----8--8--8--|--10--10----10----10--10--10--|
--8--8----8----8--8--8--|--10--10----10----10--10--10--|
--8--8----8----8--8--8--|--10--10----10----10--10--10--|
E Q
Q
E E E
E Q
Q
E E E
------------------------------|------------------------------|
--10--10----10----10--10--10--|------------------------------|
--10--10----10----10--10--10--|--10--10----10----10--10--10--|
---8---8-----8-----8---8---8--|--10--10----10----10--10--10--|
---8---8-----8-----8---8---8--|---8---8-----8-----8---8---8--|

------------------------------|---8---8-----8-----8---8---8--|
E Q
Q
E E E
E Q
Q
E E E
------------------------|------------------------------|
------------------------|------------------------------|
------------------------|------------------------------|
--8--8----8----8--8--8--|--10--10----10----10--10--10--|
--8--8----8----8--8--8--|--10--10----10----10--10--10--|
--8--8----8----8--8--8--|--10--10----10----10--10--10--|
E Q
Q
E E E
E Q
Q
E E E
------------------------------|------------------------------|
--10--10----10----10--10--10--|------------------------------|
--10--10----10----10--10--10--|--10--10----10----10--10--10--|
---8---8-----8-----8---8---8--|--10--10----10----10--10--10--|
---8---8-----8-----8---8---8--|---8---8-----8-----8---8---8--|
------------------------------|---8---8-----8-----8---8---8--|
PM PM
Q.
Q.
Q
W
Q
S Q
S S. S. E.
------------------------|-------------------|--------------------------|
------------------------|-------------------|--------------------------|
------------------------|-------------------|----------------------2---|
--10------10------10----|--L----------------|----------------------3---|
---8-------8------10----|--L----------------|--0----L-0----L-------1---|
---7-------8------10----|--L----------------|--0----L-0----L-0--0------|
E Q
S H
S
Q
S Q
S Q
E
E S Q
S Q
Q
-------------------------|------------------------|------------------------|
-------------------------|------------------------|------------------------|
--L----------------------|------------------------|-------7----L-7----L----|
--L----------------------|------------------------|-------x------x---------|
--L--0----L-12\--------L-|--1----L-1----L-1----1--|--L--L-5----L-5----L----|
-----0----L-12\--------L-|--1----L-1----L-1----1--|--L--L------------------|
-------||
-------||
-------||
-------||
-------||
-------||

GUITAR 2 - Jesse
PM PM
W
E E E E H
E Q
Q
E E E
D||-------------------|-----------------------|------------------------|
A||-------------------|-----------------------|------------------------|
F||-------------------|--2--------2-----------|--2--2----2----2--2--2--|
C||-------------------|--3--------3-----------|--3--3----3----3--3--3--|
G||-------------------|-----0--0--------------|--0--0----0----0--0--0--|

C||-------------------|-----0--0--------------|--0--0----0----0--0--0--|
E Q
Q
E E E
E Q
Q
E E E
E Q
Q
E E E
------------------------|------------------------|------------------------|
------------------------|------------------------|------------------------|
------------------------|------------------------|------------------------|
--5--5----5----5--5--5--|--3--3----3----3--3--3--|--3--3----3----3--3--3--|
--3--3----3----3--3--3--|--1--1----1----1--1--1--|--1--1----1----1--1--1--|
--3--3----3----3--3--3--|--1--1----1----1--1--1--|--1--1----1----1--1--1--|
E Q
Q
E E E
E Q
Q
E E E
E Q
Q
E E E
------------------------|------------------------|------------------------|
------------------------|------------------------|------------------------|
--2--2----2----2--2--2--|------------------------|------------------------|
--3--3----3----3--3--3--|--5--5----5----5--5--5--|--3--3----3----3--3--3--|
--0--0----0----0--0--0--|--3--3----3----3--3--3--|--1--1----1----1--1--1--|
--0--0----0----0--0--0--|--3--3----3----3--3--3--|--1--1----1----1--1--1--|
PM
PM
|----3----|
|----3----|
Q
Q
Q
Q
Q
Q
E Q
Q
E E E
--------------------------------|------------------------|
--------------------------------|------------------------|
--------------------------------|--2--2----2----2--2--2--|
--3---------3----3---------3----|--3--3----3----3--3--3--|
--1----0----1----1----0----1----|--0--0----0----0--0--0--|
--1----0----1----1----0----1----|--0--0----0----0--0--0--|
E Q
Q
E E E
E Q
Q
E E E
E Q
Q
E E E
------------------------|------------------------|------------------------|
------------------------|------------------------|------------------------|
------------------------|--2--2----2----2--2--2--|--3--3----3----3--3--3--|
--5--5----5----5--5--5--|--1--1----1----1--1--1--|--1--1----1----1--1--1--|
--3--3----3----3--3--3--|--1--1----1----1--1--1--|--1--1----1----1--1--1--|
--3--3----3----3--3--3--|--1--1----1----1--1--1--|--1--1----1----1--1--1--|
E Q
Q
E E E
E Q
Q
E E E
E Q
Q
E E E
------------------------|------------------------|------------------------|
------------------------|------------------------|------------------------|
--2--2----2----2--2--2--|------------------------|------------------------|
--3--3----3----3--3--3--|--5--5----5----5--5--5--|--3--3----3----3--3--3--|
--0--0----0----0--0--0--|--3--3----3----3--3--3--|--1--1----1----1--1--1--|
--0--0----0----0--0--0--|--3--3----3----3--3--3--|--1--1----1----1--1--1--|
PM PM PM PM
W
E E S S S S E E E E
-------------------|-----------------------------------|
-------------------|-----------------------------------|
-------------------|-----------------------------------|
-------------------|-----------------------------------|
-------------------|-----------------------------------|
-------------------|--8p--0--0--0--0--0--8p--0--8p--0--|

PM PM PM PM
PM PM PM PM
S S S S E E E E E E
E E S S S S E E E E
-----------------------------------|-----------------------------------|
-----------------------------------|-----------------------------------|
-----------------------------------|-----------------------------------|
-----------------------------------|-----------------------------------|
-----------------------------------|-----------------------------------|
--0--0--0--0--8p--0--8p--0--8p--0--|--8p--0--0--0--0--0--8p--0--8p--0--|
PM PM PM PM
PM PM PM PM
E
E S S S S E
E E E
E E S S S S E E E E
----------------------------------------|-----------------------------------|
----------------------------------------|-----------------------------------|
----------------------------------------|-----------------------------------|
----------------------------------------|-----------------------------------|
----------------------------------------|-----------------------------------|
--10S--12--0--0--0--0--12S--13--13--13--|--8p--0--0--0--0--0--8p--0--8p--0--|
PM PM PM PM
PM PM PM PM
S S S S E E E E E E
E E S S S S E E E E
-----------------------------------|-----------------------------------|
-----------------------------------|-----------------------------------|
-----------------------------------|-----------------------------------|
-----------------------------------|-----------------------------------|
-----------------------------------|-----------------------------------|
--0--0--0--0--8p--0--8p--0--8p--0--|--8p--0--0--0--0--0--8p--0--8p--0--|
PM PM PM PM
PM PM PM PM
E
E S S S S E
E E E
E E S S S S E E E E
----------------------------------------|----------------------------------|
----------------------------------------|----------------------------------|
----------------------------------------|----------------------------------|
----------------------------------------|----------------------------------|
----------------------------------------|-------------------------------5--|
--10S--12--0--0--0--0--12S--13--13--13--|--1p--0--0--0--0--0--1p--0--1-----|
PM PM PM PM
PM PM PM PM
S S S S E E E E E E
E E S S S S E E E E
----------------------------------|----------------------------------|
----------------------------------|----------------------------------|
----------------------------------|----------------------------------|
----------------------------------|----------------------------------|
-------------------------------5--|-------------------------------5--|
--0--0--0--0--1p--0--1p--0--1-----|--1p--0--0--0--0--0--1p--0--1-----|
PM PM PM PM PM PM PM PM PM PM PM PM
|--3--| |---3---| |---3---| |---3--|
E E E E E E E E E E E E
----------------------------------------------|
----------------------------------------------|
----------------------------------------------|
----------------------------------------------|
----------------------------------------------|
--0--0--0b--0b--0b--0b--0b--0b--0b--0b--0--0--|

PM PM PM
PM PM PM PM PM PM
S S S S Q
S S S S S S S S
----------------------------------------|
----------------------------------------|
----------------------------------------|
----------------------------------------|
--0--0--0---------0--0--0----0--0--0----|
--0--0--0---------0--0--0----0--0--0----|
PM PM PM PM PM PM PM PM PM
Q
S S S S S S S S S S S S
E E E E E E E E
----------------------------------------|----------------------------------|
----------------------------------------|----------------------------------|
----------------------------------------|--10--10--10--10--10--10--10--10--|
----------------------------------------|---x---x---x---x---x---x---x---x--|
-------0--0--0----0--0--0----0--0--0----|---8---8---8---8---8---8---8---8--|
-------0--0--0----0--0--0----0--0--0----|----------------------------------|
PM PM
PM
E E E E E E E E
E E E E E E E E
----------------------------------|----------------------------|
----------------------------------|----------------------------|
--14--14--14--14--14--14--14--14--|----------------------------|
---x---x---x---x---x---x---x---x--|-----------------10---------|
--12--12--12--12--12--12--12--12--|--8--------8---------8p--7--|
----------------------------------|--8--8--8--8--8-------------|
PM PM
PM
PM PM
PM
E E E E E E E E
E E E E E E E E
--------------------------|--------------------------|
--------------------------|--------------------------|
--------------------------|--------------------------|
--------------------------|--------------------------|
--5--------5-----3--5--3--|--0--------0-----0--0--0--|
--5--5--5--5--5--3--5--3--|--0--0--0--0--0--0--0--0--|
PM PM
PM
PM PM
PM
E E E E E E E E
E E E E E E E E
-----------------------------|----------------------------|
-----------------------------|----------------------------|
-----------------10--10--10--|----------------------------|
------------------x---x---x--|-----------------10---------|
--0--------0------8---8---8--|--8--------8---------8p--7--|
--0--0--0--0--0--------------|--8--8--8--8--8-------------|
PM PM
PM
PM PM PM PM PM PM PM
E E E E E E E E
Q
E E S S E E E
--------------------------|----------------------------|
--------------------------|----------------------------|
--------------------------|----------------------------|
--------------------------|----------------------------|
--5--------5-----3--5--3--|--0----0--0--0--0--0--0--0--|
--5--5--5--5--5--3--5--3--|--0----0--0--0--0--0--0--0--|

PM
PM
PM
PM
E E E E E E E E
E Q
Q
E E E
-----------------------------|------------------------------|
-----------------------------|------------------------------|
-----9-----10-----12-----14--|--14--14----14----14--14--14--|
-----x------x------x------x--|---x---x-----x-----x---x---x--|
--0--7--0---8--0--10--0--12--|--12--12----12----12--12--12--|
--0-----0------0------0------|------------------------------|
E Q
Q
E E E
E Q
Q
E E E
------------------------------|------------------------|
------------------------------|------------------------|
--10--10----10----10--10--10--|--7--7----7----7--7--7--|
---x---x-----x-----x---x---x--|--x--x----x----x--x--x--|
---8---8-----8-----8---8---8--|--5--5----5----5--5--5--|
------------------------------|------------------------|
E E E E E E E E
E Q
Q
E E E
--------------------------------|------------------------------|
--------------------------------|------------------------------|
--9--9--10--10--12--12--14--14--|--14--14----14----14--14--14--|
--x--x---x---x---x---x---x---x--|---x---x-----x-----x---x---x--|
--7--7---8---8--10--10--12--12--|--12--12----12----12--12--12--|
--------------------------------|------------------------------|
E Q
Q
E E E
E Q
Q
E E E
------------------------------|------------------------|
------------------------------|------------------------|
--10--10----10----10--10--10--|--7--7----7----7--7--7--|
---x---x-----x-----x---x---x--|--x--x----x----x--x--x--|
---8---8-----8-----8---8---8--|--5--5----5----5--5--5--|
------------------------------|------------------------|
|---3---|
E E E E E E E E
E E E E E E E E E
----------------------------|--------------------------------|
----------------------------|--------------------------------|
----------------------------|--------------------------------|
----------------------------|--------------------------------|
--5-----------5p--0--5h--6--|--7h--8p--7------------------8--|
-----3--0--1----------------|-------------8--7--6--0h--4-----|
PM PM PM PM PM PM PM PM PM PM PM
PM PM PM PM PM PM PM PM PM PM PM
S S E E E S S E S S E
E E S S E S S E S S E
-----------------------------------|-----------------------------------|
-----------------------------------|-----------------------------------|
-----------------------------------|-----------------------------------|
-----------------------------------|-----------------------------------|
--0--0--0--0--0--0--0--0--0--0--0--|--0--0--0--0--0--0--0--0--0--0--0--|
--1--1--1--1--1--1--1--1--1--1--1--|--1--1--1--1--1--1--1--1--1--1--1--|
PM PM PM PM PM PM PM PM PM PM PM
S S E E E S S E S S E

-----------------------------------|
-----------------------------------|
-----------------------------------|
-----------------------------------|
--0--0--0--0--0--0--0--0--0--0--0--|
--1--1--1--1--1--1--1--1--1--1--1--|
PM PM PM PM
PM PM PM
E E S S S S E E E E S S E Q
------------------------------------------------|
------------------------------------------------|
------------------------------------------------|
--5S--7--------------7S--8--8--8----------------|
--3S--5--------------5S--6--6--6--0--0--0-------|
---------0--0--0--0---------------1--1--1-------|
PM PM PM
PM PM PM PM PM PM PM PM PM
PM PM PM
PM PM PM
S S E H
S S E S S E S S E
S S E Q
S S E Q
-----------------------------------------------|------------------------------|
-----------------------------------------------|------------------------------|
-----------------------------------------------|------------------------------|
-----------------------------------------------|------------------------------|
--0--0--0-----------0--0--0--0--0--0--0--0--0--|--0--0--0-------0--0--0-------|
--1--1--1-----------1--1--1--1--1--1--1--1--1--|--1--1--1-------1--1--1-------|
PM PM PM PM
E E S S S S E E E E
----------------------------------|
----------------------------------|
----------------------------------|
----------------------------------|
--3S--5--------------5S--1--1--1--|
--3S--5--0--0--0--0--5S--1--1--1--|
Q
S Q
S Q
E Q
Q
E Q.
H
----------------------------------------------------|-----------|
----------------------------------------------------|-----------|
--15----L-15-----L-15----14--14----14----14---------|-----------|
---x-------x--------x-----x---x-----x-----x---------|-----------|
--13----L-13-----L-13----12--12----12----12---------|-----------|
----------------------------------------------------|-----------|
W
W
W
W
-------------------|-------------------|-------------------|-------------------|
-------------------|-------------------|-------------------|-------------------|
-------------------|-------------------|-------------------|-------------------|
-------------------|-------------------|-------------------|-------------------|
-------------------|-------------------|-------------------|-------------------|
-------------------|-------------------|-------------------|-------------------|
E
E E E E
E E E
E
E E E E
E E E
--------------------------------|--------------------------------|
--------------------------------|--------------------------------|
--------------------------------|--------------------------------|

----------7h--8----------7h--8--|----------7h--8----------7h--8--|
--8h--10---------8h--10---------|--8h--10---------8h--10---------|
--------------------------------|--------------------------------|
E
E E E E
E E E
E E E E E E
E
E
--------------------------------|----------------------------------|
--------------------------------|----------------------------------|
--------------------------------|--10-------------10------10S--12--|
----------7h--8----------7h--8--|------8p--7h--8------8h-----------|
--8h--10---------8h--10---------|----------------------------------|
--------------------------------|----------------------------------|
E E E E E E E E
E E E E E E E E
------------------------------|------------------------------|
------------------------------|------------------------------|
------------------------------|------------------------------|
--5h--7--7h--8--5h--7--7h--8--|--5h--7--7h--8--5h--7--7h--8--|
------------------------------|------------------------------|
------------------------------|------------------------------|
E E E E E E E E
E
E E E E
E E E
------------------------------|--------------------------------|
------------------------------|--------------------------------|
------------------------------|--------------------------------|
--3h--7--7h--8--3h--7--7h--8--|----------7h--8----------7h--8--|
------------------------------|--8h--10---------8h--10---------|
------------------------------|--------------------------------|
E E E E E E E E
E E E E E E E E
------------------------------|------------------------------|
------------------------------|------------------------------|
------------------------------|------------------------------|
--5h--7--7h--8--5h--7--7h--8--|--5h--7--7h--8--5h--7--7h--8--|
------------------------------|------------------------------|
------------------------------|------------------------------|
E E E E E E E E
Q
H.
E Q
Q
E E E
------------------------------|--------------------|------------------------|
------------------------------|--------------------|------------------------|
------------------------------|--------------------|------------------------|
--3h--7--7h--8--3h--7--7h--8--|--------------------|--3--3----3----3--3--3--|
------------------------------|--8-----------------|--1--1----1----1--1--1--|
------------------------------|--------------------|--1--1----1----1--1--1--|
E Q
Q
E E E
E Q
Q
E E E
E Q
Q
E E E
------------------------|------------------------|------------------------|
------------------------|------------------------|------------------------|
------------------------|------------------------|------------------------|
--3--3----3----3--3--3--|--8--8----8----8--8--8--|--7--7----7----7--7--7--|
--1--1----1----1--1--1--|--5--5----5----5--5--5--|--3--3----3----3--3--3--|
--1--1----1----1--1--1--|--5--5----5----5--5--5--|--3--3----3----3--3--3--|
E

------------------------------|------------------------------|
------------------------------|------------------------------|
--10--10----10----10--10--10--|--10--10----10----10--10--10--|
---x---x-----x-----x---x---x--|---x---x-----x-----x---x---x--|
---8---8-----8-----8---8---8--|---8---8-----8-----8---8---8--|
------------------------------|------------------------------|
E Q
Q
Q
E
E Q
Q
E E E
W
----------------------------|------------------------------|-------------------|
----------------------------|------------------------------|-------------------|
--15--15----15----17----17--|--14--14----14----14--14--14--|-------------------|
---x---x-----x-----x-----x--|---x---x-----x-----x---x---x--|-------------------|
--13--13----13----15----15--|--12--12----12----12--12--12--|-------------------|
----------------------------|------------------------------|-------------------|
PM
PM
PM PM
E Q
Q
E E E
E E E E E E E E
------------------------------|-------------------------------|
------------------------------|-------------------------------|
--10--10----10----10--10--10--|-------------10----------------|
---8---8-----8-----8---8---8--|------8----------8----------8--|
--12--12----12----12--12--12--|--12-----12---------12--12-----|
------------------------------|-------------------------------|
PM
PM
PM PM
PM
PM
PM PM
E E E E E E E E
E E E E E E E E
----------------------------------|-------------------------------|
----------------------------------|-------------------------------|
--------------10------------------|-------------10----------------|
------10----------10----------10--|------8----------8----------8--|
--13------13----------13--13------|--12-----12---------12--12-----|
----------------------------------|-------------------------------|
PM
PM
PM PM
E E E E E E E E
Q
Q
Q
Q
-------------------------------|------------------------|
-------------------------------|------------------10----|
-------------10----------------|--7----8----10-----x----|
------8----------8----------8--|--x----x-----x-----7----|
--12-----12---------12--12-----|--5----6-----8----------|
-------------------------------|------------------------|
PM PM PM PM
|--3--|
Q
E E E E E
W
E E E E E E E E
-----------------------|-------------------|--3--L--L--1--L--L--L--L--|
--11-------------------|-------------------|--------------------------|
---x-------------------|-------------------|--------------------3--L--|
---8-------------------|--1----------------|--L--L--L--L--L--L--L--L--|
--------1--1--1--1-----|--1----------------|--L--L--L--L--L--L--L--L--|
--------1--1--1--1-----|--1----------------|--L--L--L--L--L--L--L--L--|
PM PM PM PM
E. E. T T T T E. E

E.

E. E. E E Q.

-----------------------------------|-----------------------|
-----------------------------------|-----------------------|
----------------------2------------|-----------------------|
----------------------3------------|-----------------------|
--0---0---------------1---0--12\---|--1---1---1--1---------|
--0---0---0--0--0--0------0--12\---|--1---1---1--1---------|
PM PM PM PM PM PM PM PM PM PM PM PM PM PM
S S S S S S S S S S S S S S S S
------------------------------------------------|
------------------------------------------------|
------------------------------------------------|
------------------------------------------------|
--0--0--L-0--0--0--0--0--L-0--0--0--0--0--0--0--|
--0--0--L-0--0--0--0--0--L-0--0--0--0--0--0--0--|
PM PM PM PM PM PM PM PM PM PM PM PM PM PM
S S S S S S S S S S S S S S S S
------------------------------------------------|
------------------------------------------------|
------------------------------------------------|
------------------------------------------------|
--0--0--L-0--0--0--0--0--L-0--0--0--0--0--0--0--|
--0--0--L-0--0--0--0--0--L-0--0--0--0--0--0--0--|
PM PM PM PM PM PM PM PM PM PM PM PM PM PM
S S S S S S S S S S S S S S S S
------------------------------------------------|
------------------------------------------------|
------------------------------------------------|
------------------------------------------------|
--0--0--L-0--0--0--0--0--L-0--0--0--0--0--0--0--|
--0--0--L-0--0--0--0--0--L-0--0--0--0--0--0--0--|
PM PM
PM PM PM PM
S S E S S S S E. E. E
----------------------------------|
----------------------------------|
----------------------------------|
----------------------------------|
--0--0-----0--0--0--0--1---1---1--|
--0--0-----0--0--0--0--1---1---1--|
PM PM
PM PM PM PM PM PM PM PM PM PM PM
S S E S S S S S S S S S S S S
----------------------------------------------|
----------------------------------------------|
----------------------------------------------|
----------------------------------------------|
--0--0-----0--0--0--0----0--0--0--0--0--0--0--|
--0--0-----0--0--0--0----0--0--0--0--0--0--0--|
PM PM
PM PM PM PM PM PM PM PM PM PM PM
S S E S S S S S S S S S S S S

----------------------------------------------|
----------------------------------------------|
----------------------------------------------|
----------------------------------------------|
--0--0-----0--0--0--0----0--0--0--0--0--0--0--|
--0--0-----0--0--0--0----0--0--0--0--0--0--0--|
PM PM
PM PM PM PM PM PM PM PM PM PM PM
S S E S S S S S S S S S S S S
E. E. E S S S S S S S S
----------------------------------------------|-----------------------------|
----------------------------------------------|-----------------------------|
----------------------------------------------|-----------------------------|
----------------------------------------------|-----------------------------|
--0--0-----0--0--0--0----0--0--0--0--0--0--0--|--1---1---1--5-------5---5-6-|
--0--0-----0--0--0--0----0--0--0--0--0--0--0--|--1---1---1----3-0-1---0-----|
PM PM
PM PM PM PM PM PM PM PM PM
PM PM PM PM
Q
S S E
S S S S S S S S S S S S S S S S
----------------|-----------------------------------------------|
----------------|-----------------------------------------------|
----------------|-----------------------------------------------|
----------------|-----------------------------------------------|
-------0--0-----|--0--0--0--0----0--0--0--0--0------0--0--0--0--|
-------0--0-----|--0--0--0--0----0--0--0--0--0------0--0--0--0--|
PM PM PM PM PM PM PM PM PM
PM PM PM PM
S S S S S S S S S S E S S S S
----------------------------------------------|
----------------------------------------------|
----------------------------------------------|
----------------------------------------------|
----0--0--0--0--0--0--0--0--0-----0--0--0--0--|
----0--0--0--0--0--0--0--0--0-----0--0--0--0--|
PM PM PM PM PM PM PM
S S S S S S S S E. E. E
Q
Q
------------------------------------|--------------|
------------------------------------|--------------|
------------------------------------|--------------|
------------------------------------|--------------|
----0--0--0--0--0--0--0--1---1---1--|-------12\----|
----0--0--0--0--0--0--0--1---1---1--|-------12\----|
PM PM
PM PM PM PM PM PM PM PM PM PM PM
S S E S S S S S S S S S S S S
----------------------------------------------|
----------------------------------------------|
----------------------------------------------|
----------------------------------------------|
--0--0--L--0--0--0--0--L-0--0--0--0--0--0--0--|
--0--0--L--0--0--0--0--L-0--0--0--0--0--0--0--|
PM PM
PM PM PM PM PM PM PM PM PM PM PM
S S E S S S S S S S S S S S S

----------------------------------------------|
----------------------------------------------|
----------------------------------------------|
----------------------------------------------|
--1--1--L--1--1--1--1--L-1--1--1--1--1--1--1--|
--0--0--L--0--0--0--0--L-0--0--0--0--0--0--0--|
PM PM
PM PM PM PM PM PM PM PM PM PM PM
S S E S S S S S S S S S S S S
E. E. E
----------------------------------------------|-------------|
----------------------------------------------|-------------|
----------------------------------------------|-------------|
----------------------------------------------|-------------|
--0--0-----0--0--0--0----0--0--0--0--0--0--0--|--1---1---1--|
--0--0-----0--0--0--0----0--0--0--0--0--0--0--|--1---1---1--|
|---3---|
E E E E E E E E E E E E E E E E E
----------------------------------------------------------|
----------------------------------------------------------|
---------------------------------2h--3--------------------|
--------------------------3h--5---------3h--5p--3---------|
--5-----------5-----5--6---------------------------5S--6--|
-----3--0--1-----0----------------------------------------|
E Q
Q
E E E
E Q
Q
E E E
E Q
Q
E E E
------------------------|------------------------|------------------------|
------------------------|------------------------|------------------------|
--2--2----2----2--2--2--|------------------------|------------------------|
--3--3----3----3--3--3--|--5--5----5----5--5--5--|--3--3----3----3--3--3--|
--0--0----0----0--0--0--|--3--3----3----3--3--3--|--1--1----1----1--1--1--|
--0--0----0----0--0--0--|--3--3----3----3--3--3--|--1--1----1----1--1--1--|
E Q
Q
E E E
E Q
Q
E E E
E Q
Q
E E E
------------------------|------------------------|------------------------|
------------------------|------------------------|------------------------|
------------------------|--2--2----2----2--2--2--|------------------------|
--3--3----3----3--3--3--|--3--3----3----3--3--3--|--5--5----5----5--5--5--|
--1--1----1----1--1--1--|--0--0----0----0--0--0--|--3--3----3----3--3--3--|
--1--1----1----1--1--1--|--0--0----0----0--0--0--|--3--3----3----3--3--3--|
PM
PM
|-----3----|
|-----3----|
E Q
Q
E E E
Q
Q
Q
Q
Q
Q
------------------------|------------------------------------|
------------------------|-------------10----10---------10----|
------------------------|--10---------10----10---------10----|
--3--3----3----3--3--3--|---x----------8-----8----------8----|
--1--1----1----1--1--1--|---8----0----------------0----------|
--1--1----1----1--1--1--|--------0----------------0----------|
PM
PM
PM PM
PM
PM
PM PM
E E E E E E E E
E E E E E E E E
-------------------------------|----------------------------------|

-------------------------------|----------------------------------|
-------------10----------------|--------------10------------------|
------8----------8----------8--|------10----------10----------10--|
--12-----12---------12--12-----|--13------13----------13--13------|
-------------------------------|----------------------------------|
PM PM PM PM PM
PM PM
PM PM PM
PM PM
E E E E E E E E
E E E E E E E E
---------------------------|----------------------------|
---------------------------|---------------------8------|
-----------------10--------|-----------10-----------10--|
--7--7--7--7--7------7--7--|--7--7--7------7--7---------|
---------------------------|----------------------------|
---------------------------|----------------------------|
PM
PM
PM PM
PM
PM
PM PM
E E E E E E E E
E E E E E E E E
-------------------------------|----------------------------------|
-------------------------------|----------------------------------|
-------------10----------------|--------------10------------------|
------8----------8----------8--|------10----------10----------10--|
--12-----12---------12--12-----|--13------13----------13--13------|
-------------------------------|----------------------------------|
E Q
E E Q
E
E Q
E E Q
E
E Q
E E Q
E
------------------------|------------------------|------------------------|
------------------------|------------------------|------------------------|
--2--2----2--2--2----2--|--3--3----3--3--3----3--|--2--2----2--2--2----2--|
--1--1----1--1--1----1--|--1--1----1--1--1----1--|--1--1----1--1--1----1--|
--1--1----1--1--1----1--|--1--1----1--1--1----1--|--1--1----1--1--1----1--|
--1--1----1--1--1----1--|--1--1----1--1--1----1--|--1--1----1--1--1----1--|
E Q
E E Q
E
E
E E
E S S E E
E
------------------------|-----------------------------------------|
------------------------|-----------10h--11-----------------------|
--3--3----3--3--3----3--|--10h--12-----------10h-12p-10-----------|
--1--1----1--1--1----1--|--------------------------------12h--13--|
--1--1----1--1--1----1--|-----------------------------------------|
--1--1----1--1--1----1--|-----------------------------------------|
E
E E
E S S E E
E
E Q
Q
E E E
-----------------------------------------|--13--13----13----13--13--13--|
-----------10h--11-----------------------|---x---x-----x-----x---x---x--|
--10h--12-----------10h-12p-10-----------|--10--10----10----10--10--10--|
--------------------------------12h--13--|------------------------------|
-----------------------------------------|------------------------------|
-----------------------------------------|------------------------------|
E E E E E E E E
E E E E E E E E
--13----------13----------13------|---8---8---8---8---8---8---8---8--|
------11----------11----------11--|---8---8---8---8---8---8---8---8--|
----------14----------14----------|--10--10--10--10--10--10--10--10--|
----------------------------------|----------------------------------|
----------------------------------|----------------------------------|

----------------------------------|----------------------------------|
E E E E E E E E
E E E E E E E E
---8---8---8---8---8---8---8---8--|---8---8---8---8---8---8---8---8--|
---8---8---8---8---8---8---8---8--|---8---8---8---8---8---8---8---8--|
--10--10--10--10--10--10--10--10--|--10--10--10--10--10--10--10--10--|
----------------------------------|----------------------------------|
----------------------------------|----------------------------------|
----------------------------------|----------------------------------|
E E E E E E E E
E E E E E E E E
--12--12--12--12--12--12--12--12--|--8--8--8--8--8--8--8--8--|
---8---8---8---8---8---8---8---8--|--6--6--6--6--6--6--6--6--|
--10--10--10--10--10--10--10--10--|--9--9--9--9--9--9--9--9--|
----------------------------------|--------------------------|
----------------------------------|--------------------------|
----------------------------------|--------------------------|
E E E E E E E E
E E E E E E E E
--8--8--8--8--8--8--8--8--|-------------------------8--10--|
--6--6--6--6--6--6--6--6--|-------------10--11--13---------|
--9--9--9--9--9--9--9--9--|--9--10--12---------------------|
--------------------------|--------------------------------|
--------------------------|--------------------------------|
--------------------------|--------------------------------|
E E E E E E E E
E
E E E E E E E
--12--10--12--13--13--13--13--13--|--13p--12------12--------------12--|
----------------------------------|-----------13------13------13------|
----------------------------------|-----------------------14----------|
----------------------------------|-----------------------------------|
----------------------------------|-----------------------------------|
----------------------------------|-----------------------------------|
S S E E E E E Q
E
E E E
E E
E E
--12h-13p-12------12----------------|----------------------------------|
--------------13------13------13----|----------13------------------13--|
--------------------------14--------|--9h--10------9h--10--9h--10------|
------------------------------------|----------------------------------|
------------------------------------|----------------------------------|
------------------------------------|----------------------------------|
E
E E E E E E E
E E E E E E E
E
---------------------------------|------------------------------------|
----------13------13-------------|------------------------------------|
--9h--10------10------10--9--10--|--10--10--10--10--10--10--10b--10b--|
---------------------------------|------------------------------------|
---------------------------------|------------------------------------|
---------------------------------|------------------------------------|
E
E
E
E
E
E
E
E
Q.
Q.
Q
------------------------------------------|----------------8----|
------------------------------------------|---------6-----------|

--10b--10b--10b--10b--10b--10b--10b--10b--|--9------------------|
------------------------------------------|---------------------|
------------------------------------------|---------------------|
------------------------------------------|---------------------|
PM PM
Q
Q
Q
Q
Q
S Q
S S. S. E.
E Q
S H
S
--L-------------------|--------------------------|-------------------------|
--L----6---------6----|--------------------------|-------------------------|
--L---------9---------|----------------------2---|--L----------------------|
----------------------|----------------------3---|--L----------------------|
----------------------|--0----L-0----L-------1---|--L--0----L-12\--------L-|
----------------------|--0----L-0----L-0--0------|-----0----L-12\--------L-|
Q
S Q
S Q
E
E S Q
S Q
Q
------------------------|---------------------------|-------||
------------------------|---------------------------|-------||
------------------------|-------10-----L-10----L----|-------||
------------------------|--------x--------x---------|-------||
--1----L-1----L-1----1--|--L--L--8-----L--8----L----|-------||
--1----L-1----L-1----1--|--L--L---------------------|-------||

Duration Legend
--------------W - whole
H - half
Q - quarter
E - 8th
S - 16th
T - 32nd
X - 64th
. - note dotted
|-n-| - n-tuplets
Tablature Legend
---------------L - tied note
x - dead note
g - grace note
(n) - ghost note
> - accentuded note
NH - natural harmonic
AH - artificial harmonic
TH - tapped harmonic
SH - semi harmonic
PH - pitch harmonic
h - hammer on
p - pull off
b - bend
br - bendRelease
pb - preBend
pbr - preBendRelease
brb - bendReleaseBend
\n/ - tremolo bar dip

\n - tremolo bar dive


-/n - tremolo bar Release up
/n\ - tremolo bar inverted dip
/n - tremolo bar return
-\n - tremolo bar Release down
S - shift slide
s - legato slide
/ - slide into from below or out of upwards
\ - slide into from above or out of downwards
~ - vibrato
W - wide vibrato
tr - tril'
TP - tremolo picking
T - tapping
S - slap
P - pop
< - fade in
^ - brush up
v - brush down