You are on page 1of 285

QAU

FACULTY OF ENGINEERING
AIN SHAMS UNIVERSITY

PROGRAM REPORTS BOOK


FOR
MECHATRONICS ENGINEERING
September 2010

11517 : . 20226830947 - 20226826639: 20226830947- 20226826639: - 1


1 El-Sarayat Street, Abbassia Cairo Egypt Tel : 202 26830947-26826639 Fax 202 26830947-26826639 P.O.B #11517

QAU
FACULTY OF ENGINEERING
AIN SHAMS UNIVERSITY

Tables of Contents:I) Program Report


II) Course Reports
First Year
Second Year
Third Year
Fourth Year
Fifth Year

11517 : . 20226830947 - 20226826639: 20226830947- 20226826639: - 1


1 El-Sarayat Street, Abbassia Cairo Egypt Tel : 202 26830947-26826639 Fax 202 26830947-26826639 P.O.B #11517

QAU

FACULTY OF ENGINEERING
AIN SHAMS UNIVERSITY

I)

Program Report

11517 : . 20226830947 - 20226826639: 20226830947- 20226826639: -   1


1 El-Sarayat Street, Abbassia Cairo Egypt Tel : 202 26830947-26826639 Fax 202 26830947-26826639 P.O.B #11517

Program Report of
Mechatronics Engineering MCT 2009-2010
University: Ain Shams
Faculty: Engineering
A- Basic Information
1- Programme Title:

B.Sc in Mechanical Engineering - Mechatronics

2- Programme Type:

Single

3-Department(s): Mechatronic
4-Co-ordinator:

Dr. Magdy M. Abdelhameed

5- External evaluator:
6- Year of operation 2009/ 2010

B- Statistic
1-No. of students starting the programme :
Enrolling year in the programme

No. of students enrolled in this year


119

2-Ratio of students attending the programme this year to those of last


Year
Ratio of students enrolled in the programme in this year as precentage of last
year: 79%
3-No. and percentage of students passing in each year/Level/Semester
3rd Year Mechatronics
Year

2008-2009

4th Year Mechatronics

No. of students

Percentage of

No. of students

Percentage of

passing

students passing

passing

students passing

110

92.4%

108

97.2%

4-No. of students completing the programme and as a percentage of


Those who started

5-Grading: No. and percentage in each grade


6-First destinations of graduates
Give percentages of the graduating cohort who have
i. Proceeded to appropriate employment
ii Proceeded to other employment
iii Undertaken postgraduate study
iv. Engaged in other types of activity
v. Unknown first destination

Academic Standards
1- Achievement of programme intended learning outcomes

ILO Course Matrix


1st year First Term
Code No.

Course Title

a1

PHM
PHM
PHM
MDP
CSE
PHM

11
21
31
21
11
41

Mathematics (1)
Physics (1)
Mechanics (1)
Engineering Drawing & Projection
Computer Technology
Chemistry

x
x
x
x

PHM
PHM
PHM
MDP
HUM
MDP

11
21
31
21
x11
22

Mathematics (1)
Physics (1)
Mechanics (1)
Engineering Drawing & Projection
Technical English Language
Production Technology & Engineering History

x
x
x
x

PHM
MDP
PHM
PHM
CES
MDP

112
161
122
132
112
131

Mathematics (2)
Machine Drawing
Physics (2)
Mechanics (2)
Theory of Structures
Material Engineering and Testing

a2

a3

a4

x
x

a5

a6

b1

b2

c1

c2

c3

c4

d1

x
x
Second Term
x
x
x
x

x
x
2nd year First Term
x
x
x
x
x
x
x
x
x
x

x
x

x
x

x
x

d2

d3

PHM
MDP
EPM
MDP
MEP
HUM

112
161
112
111
111
x12

Mathematics (2)
Machine Drawing
Electrical & Electronic engineering
Manufacturing Technology
Thermodynamics
Technical Report writing

x
x

Second Term
x
x

x
x
x

x
x
3rd year First Term

MDP
MDP
MDP
MEP
MEP
HUM

251
252
211
221
281
x31

Mechanics of Machines
Machine construction
Electrical Engineering
Stress Analysis
Thermodynamics (2)
Fluid Dynamics

MDP
MDP
MDP
MEP
MEP
HUM

251
252
211
22
281
X31

Mechanics of machines (1)


Machine construction
Manufacturing Technology (2)
Heat & mass transfer
Measurements
Engineering Economy

x
x

x
x
x
Second Term

x
x

x
x

x
x

PHM
MDP
EPM
MDP
MEP
HUM

112
161
112
111
111
x12

Mathematics (2)
Machine Drawing
Electrical & Electronic engineering
Manufacturing Technology
Thermodynamics
Technical Report writing

Second Term
x
x

x
x

x
x
x

x
x
3rd year First Term

MDP
MDP
MDP
MEP
MEP
HUM

251
252
211
221
281
x31

Mechanics of Machines
Machine construction
Electrical Engineering
Stress Analysis
Thermodynamics (2)
Fluid Dynamics

x
x

x
x
x
Second Term

MDP
MDP
MDP
MEP
MEP
HUM

251
252
211
22
281
X31

Mechanics of machines (1)


Machine construction
Manufacturing Technology (2)
Heat & mass transfer
Measurements
Engineering Economy

x
x
x

x
x

x
x

4th year (1st year Mechatronics) First Term


Code No.

Course Title

a1

a2

EPM

352

Industrial Electronics & Applications

ECE

335

Electronic Engineering

CSE

314

Logic Design

CSE

324

Computer Programming

MDP

357

Systems Modelling & Simulation

HUM

x21

Management & Marketing

a3

a4

a5

a6

b1

b2

c1

c2

c3

c4

d1

d2

x
x
x
x

x
x

Second Term

ECE

334

Electronic Curcuits

CSE

315

Computer Organization

MDP

358

Automatic Control

MDP

359

Mechatronics (1)

MEP

382

Design of Applied Measurement Systems

HUM

x32

Project Management

x
x
x

x
x

d3

5th year (2nd year Mechatronics) First Term

MDP

499

Project

CSE

413

Microprocessors Based Systems

MDP

452

Pneumatic & Hydraulic Control

MDP

453

Robotics

MDP

471

Numerical Control Machines

HUM

x42

Environmental Impact of Projects

x
x

x
Second Term

ECE

496

Elective Course (1)

MDP

499

Project

CSE

473

Digital Control

CSE

496

Elective Course (2)

CSE

497

Elective Course (3)

MDP

454

Mechatronics (2)

HUM

x41

Legislation & Contracts

x
x

x
x

x
x

x
x

2. Achievement of programme aims


Knowledge and understanding outcomes of the courses were achieved as most of
the teaching and assessment methods are still conducted in a traditional manner
(through direct lectures and written exams). Also intellectual skills were achieved
through the assignments that gave the chance to the students to define problems,
analyze, and get the proper solutions.
The achievements of the practical skills were not that efficient due to lack of the
survey instruments and computer labs.
Most of the general and transferable skills were achieved through the reports
required for the different courses and through the graduating project in which the
students are working in groups and presenting their works both written and oral by
the end of the project

3. Assessment methods
The assessment methods used in the program courses were as following:
1- Written Exams (class exams, mid-term, and final exam).
2- Practical exams especially for surveying courses.
3- Oral exams for the project and some other courses.
4- Writing reports.
The practical exams are still very limited especially we still have no labs.
Also the availability of computers labs in the college is weak almost each six
students have one computer in the lab.
The availability of scientific equipments also very weak; the existing equipments
are old and give no sense about the present technology in the world.
Some other courses should also include both oral exams and reports in their
assessment methods to better reflect the transferable skills.

4. Student achievement
Concerning the jobs that the program graduates had after graduation, there is no
data base available in the department regarding this issue. However, it seems that
the market demand nowadays is high. Most of the graduates work at private
sectors since the public sector employment chances is very limited.

Quality of Learning Opportunities


5. Quality of teaching and learning
Most of the teaching methods are still traditional since it depends mainly on the
black board and chalks. This may be due to lack of the recent teaching tools such
as data shows and overhead projectors in the department or in the faculty as a
whole. The staff members should have very qualified assistant team to help them
in preparing the lectures in a power point format to be more attractive for the

students. The other teaching methods through labs and site visits are still very
limited due to lack of lab equipment and due to inflexibility of the administration
and financial procedures in the faculty to prepare for a site visit by the staff
members.
As for the learning methods, they can be achieved for example through library
books, internet search or practicing. These learning methods are very limited due
to several reasons. Some reasons can be referred to lack of computer labs that are
accessible to the internet network or due to lack of appropriate text books in the
faculty library. However, the limitation of using such learning tools can be referred
to the staff members themselves who should give more concern to the importance
of these learning tools. Weakness of the student English language also can be
considered one of the obstacles since most of the text books and relevant internet
sites are in English.

6. Effectiveness of student support systems

Commentary on both academic and pastoral/personal support for all students


Concerning the outstanding or at risk dropping out students, there no definite and
clear system in the program for support; however, it can be on the individual staff
member level. The faculty also arranges a small group class with low cost based
on the students needs and for any course in the program. As for the low income
students, the faculty financially supports some of them based on social evidence
introduced by the student.
7. Learning resources
a. No. and ratio of faculty members and their assistants to students
Scince the mechatronics is a new section the staff member is very little for the students' number
We almost have two Dr's and three instructors who are specialized in mechatronics.
So we need to send more scholarships for abroad to get new courses and to increase the no. of staff.

b. Matching of faculty members specialization to programme needs.


Faculty members specialization is adequate to programme needs. All fields of
specialization in the program are covered by more than one staff member
c. Availability and adequacy of programme handbook
Still under construction
d. Adequacy of library facilities.
The books are not enough. Not all books are recent.Text books are available. The
library is not equipped with computers for the use of students. (No computerized
search, no internet). The space is not enough compared to the number of students.
Lighting and ventilation are not available.

e. Adequacy of laboratories
We still havn't laboratories so we need the financing to construct laboratories for
students.
We need also scientific aids and equipments for the students.

f. Adequacy of computer facilities


We still havn't computer facilities so we need the financing to construct computer
facilities for students.
g. Adequacy of field/practical training resources
Practical training outside the faculty premises is organized mainly by personal
contact between department members and service centers or vehicle
manufacturers. Students also get trained due to their personal contacts.
h. Adequacy of any other programme needs
Most of the lecture rooms are not well equipped (no sound system, no white board,
no overhead projector, no data show) Ventilation is not suitable for the number of
students attending the room.

8. Quality management
a. Availability of regular evaluation and revision system for the programme
There is no regular evaluation and revision system for the program. However, the
program in the past was revised and evaluated every five years. The proposed
modifications were then transferred to the Engineering Sector in the Universities
Higher Council to be approved.
b. Effectiveness of the system
The old evaluation system is not flexible enough since any course modifications
can not be made before at least seven years from starting the program. In addition,
there were no adequate and effective tools to evaluate the program. On the other
hand, the new evaluation system is more effective and flexible. The evaluation
system is based on a rational procedure based on the opinions of all relevant
stakeholders concerning the program.
c. Effectiveness of Faculty and University laws and regulations for
progression and completion
1- Faculty and program types should be taken into consideration in distributing the
annual budget.
2- Lack of full independency for the departments to manage their affairs.
3- More flexibility is required for purchasing the necessary department equipment.
d. Effectiveness of programme external evaluation system:
i- External evaluators
The external evaluators have not been nominated so far. The university is in the
process to set the criteria for selecting external evaluators and then nominate the
external evaluators based on these criteria. Their roles will be activated in the
next year.

ii- Students
The student evaluation was to some extent adequate and effective since this is the
first time to conduct such evaluation. However, there is no uniform methodology
for distributing the evaluation forms. Some staff members distributed the forms
in the class and some others distributed in the lecture rooms.

iii- Other stakeholders


Still under construction.

e. Faculty response to student and external evaluations

9. Proposals for programme development


a. Programme structure (units/credit-hours)
1- Semester system should be cancelled to have whole year courses instead.
2- In case of having more adequate labs, more practical hours for the relevant
courses are needed.
b. Courses, deletions and additions and modifications
1- We need to join the course of Logic Design (CSE 314) with the Computer
Organization (CSE 315) in one Course.
2- We need to join the course of Electronic Engineering (ESE 335) with the
Electronic Circuit (CSE 334) in one Course.
3- We need an individual course for Cad (Computer add design).
c. Staff development requirements
1- A computer accessible to the internet network should be available for each
staff member.
2- Improving the computer skills especially regarding the presentation skills by
attending some training programs.
3- Frequent updating of the scientific information by attending the international
conferences and workshops.
4- Enhancing the scientific cooperation with the international universities
through mutual exchange of staff members.
5- Increasing the monthly salary of the staff members.

10. Progress of previous years action plan


Science It's the first time of application of this program we have no progress yet.

11. Action plan


No.

Action required

1 Establishment of individual mechatronics


department.

2 Establishment of a computer lab assigned


for public works students

3 Preparing the program handbook

4 More class and lecture room spaces or


reducing the number of accepted students
entering the faculty and consequently the
program
5 Establishment of individual mechatronics
labs
6 More recent student text books for the
library
7 Enhancement the available library space to
have good lighting and ventilation systems
8 More computers for the library connected
to the internet network and more
computers for computerized book
searching
9 Improving the computer skills regarding
the presentation ability for the staff
members and establishment of a
"technical assistance administration" in
the faculty to help in preparing the
lecture in a more impressive manner.
10 Building capacity for staff members by
attending more international conferences
and workshops and through mutual
exchange of staff members with other
international universities

Person
Responsible
The Dean and
Head of public
works
department
The Dean and
Head of public
works
department
Head of Public
works
department
The minister of
high education,
university chief,
and the faculty
Dean
The Dean

Completion Date
With in six months

After two years

With in one year

After five years

The Dean

With
in two years
Periodically

The Dean

After one year

The Dean

After one year

The Dean

After two years

The University
chief, and the
faculty Dean

Periodically

QAU
FACULTY OF ENGINEERING
AIN SHAMS UNIVERSITY

II) Course Reports

11517 : . 20226830947 - 20226826639: 20226830947- 20226826639: - 1


1 El-Sarayat Street, Abbassia Cairo Egypt Tel : 202 26830947-26826639 Fax 202 26830947-26826639 P.O.B #11517

QAU
FACULTY OF ENGINEERING
AIN SHAMS UNIVERSITY

First Year

1 - 20226830947- 20226826639: 20226830947 - 20226826639: . 11517 :


1 El-Sarayat Street, Abbassia Cairo Egypt Tel : 202 26830947-26826639 Fax 202 26830947-26826639 P.O.B #11517

Course report of

Mathematics (1) - PHM011 2009/2010


University: Ain Shams

Faculty: Engineering

Basic Information
1. Title and code :
Mathematics (1) - PHM011
2. Programme on which the course is given :
All 12 Engineering Programs

3. Year/ Level of programmes :


1. Units/Credit Hours
( i ) Lecture :

1st year (First and Second Semester)

( ii ) Tutorial /Practical :

( iii ) Total :

2. Names of lecturers contributing to the delivery of the course :


i Dr. H. Abdel Salam
ii -

Dr. F. I. Selim

iii -

Dr. M. R. Eskaros

iv -

Dr. R. M. El-hassani

Course coordinator:

Prof. Dr. R. Amin El Barkouky

External evaluator:

N.A

Course coordinator:
Signature:

Prof. Dr. R. Amin El Barkouky

B- Statistical Information

No. of students attending the course:

1837

Number

Percentage (%)

Students completing the course

1837

100 %

Passed

1506

81.98 %

Failed

331

18.02 %

Excellent

293

19.46 %

Very Good

265

17.6 %

Good

288

19.12 %

Pass

660

43.82 %

Results

Grading Of
successful students

C- Professional Information
1-- Course Teaching:

Topic

No. of
Hours

Lecturer

Derivative and its applications.

12

Dr. M. R. Eskaros & Dr. R. M. El-

Integration and its appliocations.

Dr. M. R. Eskaros & Dr. R. M. El-

Exponential and Logarithmic Functions.

Dr. M. R. Eskaros & Dr. R. M. El-

Conic Sections.

16

Dr. H. Abdel Salam & Dr. F. I. Sel

Analytical Geometry in space.

Dr. H. Abdel Salam & Dr. F. I. Sel

Inverse Trigonometric functions

Dr. H. Abdel Salam & Dr. F. I. Sel

Hyperbolic and Inverse Hyperbolic functions


4
Course coordinator:
Signature:

Prof. Dr. R. Amin El Barkouky

Dr. H. Abdel Salam & Dr. F. I. Sel

Methods of Integration

10

Dr. H. Abdel Salam & Dr. F. I. Sel

Application of Integration in polar coordinates.


6

Dr. H. Abdel Salam & Dr. F. I. Sel

Theory of Equations.

Dr. H. Abdel Salam & Dr. F. I. Sel

Matrices and Determinants.

Dr. H. Abdel Salam & Dr. F. I. Sel

Infinite Series.

Dr. H. Abdel Salam & Dr. F. I. Sel

Topics Taught as a percentage of the content specified

Reasons in detail for not teaching any topic

------ ------ ------ ------ ------ ------ ------ ------ ------ ------ -If any topics were taught which are not specified, give reasons in detail

------ ------ ------ ------ ------ ------ ------ ------ ------ ------ ----- ------ ------ ------ ------ ------ ------ ------ ------ ------ -----

2- Teaching and learning methods:

Lectures
Practical training/laboratory
Seminar/Workshop
Class Activity
Case Study:
Other assignments/homework
If teaching and learning methods were used other than, those specified, list and give reasons

------ ------ ------ ------ ------ ------ ------ ------ ------ ----- ------ ------ ------ ------ ------ ------ ------ ------ ---

3- Student assessment:

Methods of assessment
Written examination
Oral examination
Practical/laboratory work
Other assignments/class work

Course coordinator:
Signature:

Prof. Dr. R. Amin El Barkouky

Percentage of total

72 %
14%

0%
14 %

Members of examination committee

Prof. Dr. R. Amin El Barkouky & Dr. H. Abdel Salam & Dr. F. I. Selim & Dr. M
Role of external evaluator:

N.A
4- Facilities and teaching materials:

Totally adequate
Adequate to some extent
Inadequate
List any inadequacies:

------ ------ ------ ------ ------ ------ ------ ------ ------ -5-Administrative constraints:

------ ------ ------ ------ ------ ------ ------ ------ ------ ------ ----- ------ ------ ------ ------ ------ ------ ------ ------ ------ -----

6-Student evaluation of the course:


Comment

Response of course Team

------ ------ ------ ------ ------ ----------- ------ ------ ------ ------ -----

------ ------ ------ ------ ------ ----------- ------ ------ ------ ------ -----

7-Comments from external evaluator(s)


Comment

Response of course Team

------ ------ ------ ------ ------ ----------- ------ ------ ------ ------ -----

------ ------ ------ ------ ------ ----------- ------ ------ ------ ------ -----

8- Course enhancement: Progress on actions identified in the previous years action plan:

------ ------ ------ ------ ------ ------ ------ ------ ------ ------ -9- Action plan
Action required

Completion
date

------ ------ ------ ------ ------ ------ ---- ----

Course coordinator:
Signature:

Prof. Dr. R. Amin El Barkouky

Person responsible

------ ------ ------ ------

Course report of

Physics (1) - PHM021 2009/2010


University: Ain Shams

Faculty: Engineering

Basic Information
1. Title and code :
Physics (1) - PHM021
2. Programme on which the course is given :
All programs ASU - FoE offers

3. Year/ Level of programmes :


1. Units/Credit Hours
( i ) Lecture :

1 st year

( ii ) Tutorial /Practical :

( iii ) Total :

2. Names of lecturers contributing to the delivery of the course :


i Prof. Wael Fikry Farouk
ii -

Dr. Samy Abd Elrahmaan

iii -

Dr. Essmat Abd Elfatah

iv -

Dr. Hatem Elrefaie

v -

Dr. Elmozamel M. Ibrahim

vi -

Dr. Salwa Eltawel

vii -

Dr. Hesham Hunter

viii -

Dr. Walied Zeen

ix -

Dr. Mahmoud Ibrahim

Course coordinator:

Prof. Wael Fikry Farouk

External evaluator:

N.A.

Course coordinator:
Signature:

Prof. Wael Fikry Farouk

B- Statistical Information

No. of students attending the course:

1835

Number

Percentage (%)

Students completing the course

1835

100 %

Passed

1180

64.31 %

Failed

655

35.69 %

Excellent

34

2.88 %

Very Good

102

8.64 %

Good

231

19.58 %

Pass

813

68.9 %

Results

Grading Of
successful students

C- Professional Information
1-- Course Teaching:

Topic

No. of
Hours

Lecturer

Units and Dimensions

Dr. Hatem Elrefaie, Dr. Samy Abd

Physical Mechanics

Dr. Hatem Elrefaie, Dr. Samy Abd

Simple Harmonic Motion

Dr. Hatem Elrefaie, Dr. Samy Abd

Elastic Properties of Materials

Dr. Hatem Elrefaie, Dr. Samy Abd

Surface Tension

Dr. Hatem Elrefaie, Dr. Samy Abd

Hydrodynamics and Viscosity

Dr. Hatem Elrefaie, Dr. Samy Abd

Vectors

Prof. Wael Fikry Farouk, Dr. Hesha

Course coordinator:
Signature:

Prof. Wael Fikry Farouk

Electric Field

Prof. Wael Fikry Farouk, Dr. Hesha

Electric Potential

Prof. Wael Fikry Farouk, Dr. Hesha

Capacitors and Dielectrics

Prof. Wael Fikry Farouk, Dr. Hesha

Electric Current

Prof. Wael Fikry Farouk, Dr. Hesha

Magnetic Field

Prof. Wael Fikry Farouk, Dr. Hesha

Magnetic Force

Prof. Wael Fikry Farouk, Dr. Hesha

Sources of the Magnetic Field

Prof. Wael Fikry Farouk, Dr. Hesha

Electromagnetic Induction and Inductance 6

Prof. Wael Fikry Farouk, Dr. Hesha

Classification of Various Magnetic material6

Prof. Wael Fikry Farouk, Dr. Hesha

Alternating Current

Prof. Wael Fikry Farouk, Dr. Hesha

Heat Transfer

Prof. Wael Fikry Farouk, Dr. Hesha

Kinetic Theory of Gases and the Law of Equipartion


4
ofDr.
Energy
Samy Abd Elrahmaan, Dr. Elmo
First Law of Thermodynamics and Applications.
6

Dr. Samy Abd Elrahmaan, Dr. Elmo

Refraction of Light Through Prisms and Prism


4 Combinations
Dr. Samy Abd Elrahmaan, Dr. Elmo
Instruments

Dr. Samy Abd Elrahmaan, Dr. Elmo

Reflection and Refraction of Light at Spherical


4 Boundaries
Dr. Samy Abd Elrahmaan, Dr. Elmo
Thin and Thick Lenses

Dr. Samy Abd Elrahmaan, Dr. Elmo

Lens Aberrations

Dr. Samy Abd Elrahmaan, Dr. Elmo

Course coordinator:
Signature:

Prof. Wael Fikry Farouk

Topics Taught as a percentage of the content specified

Reasons in detail for not teaching any topic

------------------------------------------------------------If any topics were taught which are not specified, give reasons in detail

N.A.
2- Teaching and learning methods:

Lectures
Practical training/laboratory
Seminar/Workshop
Class Activity
Case Study:
Other assignments/homework
If teaching and learning methods were used other than, those specified, list and give reasons

------ ------ ------ ------ ------ ------ ------ ------ ------ ----- ------ ------ ------ ------ ------ ------ ------ ------ ---

3- Student assessment:

Methods of assessment
Written examination
Oral examination
Practical/laboratory work
Other assignments/class work

Percentage of total

60 %
15 %

20 %
5%

Members of examination committee

Prof. Wael Fikry Farouk, Dr. Samy Abd Elrahmaan, Dr. Essmat
Abd Elfatah, Dr. Hatem Elrefaie, Dr. Elmozamel M. Ibrahim, Dr.
Salwa Eltawel, Dr. Hesham Hunter, Dr. Walied Zeen
Role of external evaluator:

N.A.

Course coordinator:
Signature:

Prof. Wael Fikry Farouk

4- Facilities and teaching materials:

Totally adequate
Adequate to some extent
Inadequate
List any inadequacies:

1. Sound system is so bad, 2. No screen available and


projection on the wall, 3. Use of blackboard and chalk

5-Administrative constraints:

------ ------ ------ ------ ------ ------ ------ ------ ------ ------ ----- ------ ------ ------ ------ ------ ------ ------ ------ ------ -----

6-Student evaluation of the course:


Comment

Response of course Team

------ ------ ------ ------ ------ ----------- ------ ------ ------ ------ -----

------ ------ ------ ------ ------ ----------- ------ ------ ------ ------ -----

7-Comments from external evaluator(s)


Comment

Response of course Team

------ ------ ------ ------ ------ ----------- ------ ------ ------ ------ -----

------ ------ ------ ------ ------ ----------- ------ ------ ------ ------ -----

8- Course enhancement: Progress on actions identified in the previous years action plan:

------ ------ ------ ------ ------ ------ ------ ------ ------ ------ ----- ------ ------ ------ ------ ------ ------ ------ ------ ------ -----

9- Action plan

Action required

Completion
date

------ ------ ------ ------ ------ ------ ---- ----

Course coordinator:
Signature:

Prof. Wael Fikry Farouk

Person responsible

------ ------ ------ ------

Course report of

Mechanics (1) - PHM031 2008/2009


University: Ain Shams

Faculty: Engineering

Basic Information
1. Title and code :
Mechanics (1) - PHM031
2. Programme on which the course is given :
All 12 Engineering Programs

3. Year/ Level of programmes :


1. Units/Credit Hours
( i ) Lecture :

1 st year

( ii ) Tutorial /Practical :

( iii ) Total :

2. Names of lecturers contributing to the delivery of the course :


i Dr. Hoda Hashem
ii -

Dr. Ahmed Ezzat

iii -

Dr. Hussain El-Said

Course coordinator:

Prof. Dr. Abd Allah El-Marhomy

External evaluator:

---- ---- ----

Course coordinator:
Signature:

Prof. Dr. Abd Allah El-Marhomy

B- Statistical Information

No. of students attending the course:

1777

Number

Percentage (%)

Students completing the course

1777

100 %

Passed

1529

86.04 %

Failed

248

13.96 %

Excellent

201

13.15 %

Very Good

325

21.26 %

Good

364

23.81 %

Pass

639

41.79 %

Results

Grading Of
successful students

C- Professional Information
1-- Course Teaching:

Topic

No. of
Hours

Lecturer

Forces and Moments (Forces Vector Algebra


12 Moments
All Couples).
Force Systems ( Force Couple Resultant 12
Single Force
All Resultant).

Equilibrium of Particles and rigid bodies (Reaction


12
Forces
All due to Supports Equilibrium
Frames and Machines (Analysis of Frames 16
and Machines).
All
Friction (Dry Friction Sliding and Tipping
8 Belt Friction)
All

Kinematics of particles (Rectilinear motion30


of particles
All Cartesian, Cylindrical and Intri

Kinetics of particles (Newton's second law30


of motion All
Principle of Work and Energy P
Course coordinator:
Signature:

Prof. Dr. Abd Allah El-Marhomy

Topics Taught as a percentage of the content specified

Reasons in detail for not teaching any topic

All Topics had been teached


If any topics were taught which are not specified, give reasons in detail

None
2- Teaching and learning methods:

Lectures
Practical training/laboratory
Seminar/Workshop
Class Activity
Case Study:
Other assignments/homework
If teaching and learning methods were used other than, those specified, list and give reasons

------ ------ ------ ------ ------ ------ ------ ------ ------ ----- ------ ------ ------ ------ ------ ------ ------ ------ ---

3- Student assessment:

Methods of assessment
Written examination
Oral examination
Practical/laboratory work
Other assignments/class work

Percentage of total

70 %
0%

10 %
20 %

Members of examination committee

Prof. Dr. Abd Allah El-Marhomy Dr. Hoda Hashem Dr. Ahmed Ezzat Dr. Hus
Role of external evaluator:

------ ------ ------ ------ ------ -----4- Facilities and teaching materials:

Totally adequate
Adequate to some extent
Inadequate
Course coordinator:
Signature:

Prof. Dr. Abd Allah El-Marhomy

List any inadequacies:

------ ------ ------ ------ ------ ------ ------ ------ ------ -5-Administrative constraints:

------ ------ ------ ------ ------ ------ ------ ------ ------ ------ ----- ------ ------ ------ ------ ------ ------ ------ ------ ------ ----6-Student evaluation of the course:
Comment

Response of course Team

------ ------ ------ ------ ------ ----------- ------ ------ ------ ------ -----

------ ------ ------ ------ ------ ----------- ------ ------ ------ ------ -----

7-Comments from external evaluator(s)


Comment

Response of course Team

------ ------ ------ ------ ------ ----------- ------ ------ ------ ------ -----

------ ------ ------ ------ ------ ----------- ------ ------ ------ ------ -----

8- Course enhancement: Progress on actions identified in the previous years action plan:

------ ------ ------ ------ ------ ------ ------ ------ ------ ------ ----- ------ ------ ------ ------ ------ ------ ------ ------ ------ -----

9- Action plan

Action required

Completion
date

------ ------ ------ ------ ------ ------ ---- ----

Course coordinator:
Signature:

Prof. Dr. Abd Allah El-Marhomy

Person responsible

------ ------ ------ ------

Course report of

Engineering Drawing & Projection - MDP021 2009/2010


University: Ain Shams

Faculty: Engineering

Basic Information
1. Title and code :
Engineering Drawing & Projection - MDP021

2. Programme on which the course is given :


B. Sc. in Engineering
3. Year/ Level of programmes :
1. Units/Credit Hours
( i ) Lecture :

1 st year

30

( ii ) Tutorial /Practical :

120

( iii ) Total :

150

2. Names of lecturers contributing to the delivery of the course :


i Prof. Sabet R. Ghaprial
ii -

Prof. Hesham aly Senbel

iii -

Prof. Ebrahim Shaker

iv -

Dr. Ahmed El-hamaky

v -

-------------------------------

vi -

-------------------------------

vii -

-------------------------------

viii -

-------------------------------

Course coordinator:

Prof. Dr. Hesham Aly senbel

External evaluator:

---- ---- ----

Course coordinator:
Signature:

Prof. Dr. Hesham Aly senbel

B- Statistical Information

No. of students attending the course:

1779

Number

Percentage (%)

Students completing the course

1779

100 %

Passed

1552

87.24 %

Failed

227

12.76 %

Excellent

135

8.7 %

Very Good

247

15.91 %

Good

346

22.29 %

Pass

824

53.09 %

Results

Grading Of
successful students

C- Professional Information
1-- Course Teaching:

Topic

No. of
Hours

Lecturer

Conventional lettering and


dimensioning

10

Prof. Hesham Senbel

Geometric constructios

10

Prof. Hesham senbel

Theories of view derivation

15

Prof. H. Senbel & Prof.


Ebrahim Shaker

Orthographic projection

15

Prof. Senbel and Prof.


Shaker

Projection of points, lines and surfaces

20

Prof. Senbel and Prof.


Shaker

Derivation of views and sectioning

20

Prof. Hesham Senbel

Course coordinator:
Signature:

Prof. Dr. Hesham Aly senbel

Intersection of bodies

20

Prof. Ebrahem Shaker

Steel constructio

20

Prof. Hesham Senbel

Computer aided drafting

20

Prof. Hesham Senbel

Topics Taught as a percentage of the content specified

>90%

70% - 90%

<70 %

Reasons in detail for not teaching any topic

------ ------ ------ ------ ------ ------ ------ ------ ------ ------ ----- ------ ------ ------ ------ ------ ------ ------ ------ ------ ----If any topics were taught which are not specified, give reasons in detail

------ ------ ------ ------ ------ ------ ------ ------ ------ ------ -2- Teaching and learning methods:
Lectures
Practical training/laboratory
Seminar/Workshop
Class Activity
Case Study:
Other assignments/homework
If teaching and learning methods were used other than, those specified, list and give reasons

NA
3- Student assessment:
Methods of assessment
Written examination

Percentage of total

60%

Oral examination

0%

Practical/laboratory work

0%

Other assignments/class work

40 %

Members of examination committee

Prof. Dr. sabet R. ghaprial

Prof. Dr. Hesham Aly Senbel

Role of external evaluator:


Course coordinator:
Signature:

Prof. Dr. Hesham Aly senbel

NA
4- Facilities and teaching materials:
Totally adequate
Adequate to some extent
Inadequate
List any inadequacies:

Computer and Data Show


5-Administrative constraints:

NA

6-Student evaluation of the course:


Response of course Team

Comment

------ ------ ------ ------ ------ ----------- ------ ------ ------ ------ -----

------ ------ ------ ------ ------ ----------- ------ ------ ------ ------ -----

7-Comments from external evaluator(s)


Comment

Response of course Team

------ ------ ------ ------ ------ ----------- ------ ------ ------ ------ -----

------ ------ ------ ------ ------ ----------- ------ ------ ------ ------ -----

8- Course enhancement: Progress on actions identified in the previous years action plan:

------ ------ ------ ------ ------ ------ ------ ------ ------ ------ ----- ------ ------ ------ ------ ------ ------ ------ ------ ------ ----9- Action plan
Action required

Completion
date

------ ------ ------ ------ ------ ------ ---- ----

Course coordinator:
Signature:

Prof. Dr. Hesham Aly senbel

Person responsible

------ ------ ------ ------

Course report of

Computer Technology - CSE011 2009/2010


University: Ain Shams

Faculty: Engineering

Basic Information
1. Title and code :
Computer Technology - CSE011

2. Programme on which the course is given :


All Programs
3. Year/ Level of programmes :
1. Units/Credit Hours
( i ) Lecture :

1 st year

( ii ) Tutorial /Practical :

( iii ) Total :

2. Names of lecturers contributing to the delivery of the course :


i Dr. Mohamed Watheq El-Kharashi
ii -

Dr. Mahmoud Khalil

iii -

Dr. Mohamed Nabil

iv -

Dr. Mohamed Sobh

v -

Dr. Mohamed Taher

vi -

Dr. Hossam Hassan

vii viii -

Course coordinator:

Prof. Hani Kamal Mahdi, Prof. Ashraf Salem

External evaluator:

---- ---- ----

Course coordinator:
Signature:

Prof. Hani Kamal Mahdi, Prof. Ashraf Salem

B- Statistical Information

No. of students attending the course:

1722

Number

Percentage (%)

Students completing the course

1722

100 %

Passed

1626

94.43 %

Failed

96

5.57 %

Excellent

192

11.81 %

Very Good

305

18.76 %

Good

510

31.37 %

Pass

619

38.07 %

Results

Grading Of
successful students

C- Professional Information
1-- Course Teaching:

Topic

No. of
Hours

Lecturer

Introduction to Microsoft Excel

Dr. Mohamed Nabil

Data representation

Dr. Mohamed Nabil

Controlling program flow

Dr. Mahmoud Khalil

Flowcharts

Dr. Mahmoud Khalil

Introduction to programming

Dr. Mohamed Watheq ElKharashi

Functions

Dr. Mohamed Sobh

Advanced data types

Dr. Mohamed Sobh

Course coordinator:
Signature:

Prof. Hani Kamal Mahdi, Prof. Ashraf Salem

Solving engineering problems

Dr. Mohamed Sobh

The components of a computer system

Dr. Hossam Hassan

Computer networks

Dr. Hossam Hassan

File system

Dr. Hossam Hassan

Process management

Dr. Mohamed Taher

Components of an operating system

Dr. Mohamed Taher

Multimedia systems

Dr. Mohamed Taher

Topics Taught as a percentage of the content specified

>90%

70% - 90%

<70 %

Reasons in detail for not teaching any topic

------ ------ ------ ------ ------ ------ ------ ------ ------ ------ ----- ------ ------ ------ ------ ------ ------ ------ ------ ------ ----- ------ ------ ------ ------ ------ ------ ------ ------ ------ ----------- ------ ------ ------ ------ ------ ------ ------ ------ ------ ----- ------ ------ ------ ------ ------ ------ ------ ------ ------ ---If any topics were taught which are not specified, give reasons in detail

------ ------ ------ ------ ------ ------ ------ ------ ------ ------ ----- ------ ------ ------ ------ ------ ------ ------ ------ ------ ----- ------ ------ ------ ------ ------ ------ ------ ------ ------ ----------- ------ ------ ------ ------ ------ ------ ------ ------ ------ ----- ------ ------ ------ ------ ------ ------ ------ ------ ------ ---2- Teaching and learning methods:
Lectures
Practical training/laboratory
Seminar/Workshop
Class Activity
Course coordinator:
Signature:

Prof. Hani Kamal Mahdi, Prof. Ashraf Salem

Case Study:
Other assignments/homework
If teaching and learning methods were used other than, those specified, list and give reasons

------ ------ ------ ------ ------ ------ ------ ------ ------ ----- ------ ------ ------ ------ ------ ------ ------ ------ ----- ------ ------ ------ ------ ------ ------ ------ ------ ----- ------ ---3- Student assessment:
Methods of assessment
Written examination

67 %

Oral examination

0%

Practical/laboratory work

20 %

Other assignments/class work

13 %

Members of examination committee

i. Dr. Mohamed Nabil


ii. Dr. Mahmoud Khalil
iii. Dr. Mohamed Sobh
iv. Dr. Hossam Hassan
v. Dr. Mohamed Taher
vi. Dr. Hassan Shihatah
vii. Dr. Mohamed Watheq El-Kharashi
viii. Dr. Ashraf Salem
ix. Dr. Hani Kamal Mahdi
Role of external evaluator:

------ ------ ------ ------ ------ -----4- Facilities and teaching materials:
Totally adequate
Adequate to some extent
Inadequate
List any inadequacies:

Course coordinator:
Signature:

Percentage of total

Prof. Hani Kamal Mahdi, Prof. Ashraf Salem

------ ------ ------ ------ ------ ------ ------ ------ ------ ----- ------ ------ ------ ------ ------ ------ ------ ------ ----- ------ ------ ------ ------ ------ ------ ------ ------ ----- ------ ---5-Administrative constraints:

------ ------ ------ ------ ------ ------ ------ ------ ------ ------ ----- ------ ------ ------ ------ ------ ------ ------ ------ ------ ----- ------ ------ ------ ------ ------ ------ ------ ------ ------ ----------- -----6-Student evaluation of the course:
Response of course Team

Comment

------ ------ ------ ------ ------ ----------- ------ ------ ------ ------ -----

------ ------ ------ ------ ------ ----------- ------ ------ ------ ------ -----

------ ------ ------ ------ ------ ----------- ------ ------ ------ ------ -----

------ ------ ------ ------ ------ ----------- ------ ------ ------ ------ -----

7-Comments from external evaluator(s)


Comment

Response of course Team

------ ------ ------ ------ ------ ----------- ------ ------ ------ ------ -----

------ ------ ------ ------ ------ ----------- ------ ------ ------ ------ -----

8- Course enhancement: Progress on actions identified in the previous years action plan:

------ ------ ------ ------ ------ ------ ------ ------ ------ ------ ----- ------ ------ ------ ------ ------ ------ ------ ------ ------ ----- ------ ------ ------ ------ ------ ------ ------ ------ ------ ----------- ------ ------ ------ ------ ------ ------ ------ ------ ------ ----- ------ ------ ------ ------ ------ ------ ------ ------ ------ ---9- Action plan
Action required

Completion
date

------ ------ ------ ------ ------ ------ ---- ---Course coordinator:


Signature:

Prof. Hani Kamal Mahdi, Prof. Ashraf Salem

Person responsible

------ ------ ------ ------

Course report of

Chemistry - PHM041 2009/2010


University: Ain Shams

Faculty: Engineering

Basic Information
1. Title and code :
Chemistry - PHM041
2. Programme on which the course is given :
All 12 Engineering Programs

3. Year/ Level of programmes :


1. Units/Credit Hours
( i ) Lecture :

1st year (First and Second Semester)

( ii ) Tutorial /Practical :

( iii ) Total :

2. Names of lecturers contributing to the delivery of the course :


i Prof. Dr. I. A. Attia
ii -

Prof. S. M. Abd Elhalim

iii -

Dr. A. M. Hataba

iv -

Dr. R. A. Rashad

v -

Dr. A. A. Mahmoud

vi -

Dr. A. O. Habib

vii -

Dr. M. S. Shehab

Course coordinator:

Prof. Dr. I. A. Attia

External evaluator:

---- ---- ----

Course coordinator:
Signature:

Prof. Dr. I. A. Attia

B- Statistical Information

No. of students attending the course:

1773

Number

Percentage (%)

Students completing the course

1773

100 %

Passed

1442

81.33 %

Failed

331

18.67 %

Excellent

101

7%

Very Good

279

19.35 %

Good

407

28.22 %

Pass

655

45.42 %

Results

Grading Of
successful students

C- Professional Information
1-- Course Teaching:

Topic

No. of
Hours

Lecturer

Gaseous state

Prof. S. M. Abd Elhalim & Dr. A. A

Liquids

Prof. Dr. I. A. Attia & Dr. A. A. Ma

Solid state.

Dr. A. A. Mahmoud & Dr. A. O. Ha

Thermochemistry .

Dr. A. A. Mahmoud & Dr. A. O. Ha

Thermodynamics

Dr. A. M. Hataba & Dr. A. A. Mah

Solutions

Dr. A. M. Hataba & Dr. A. A. Mah

Ionic equilibrium

Dr. A. M. Hataba & Dr. A. O. Habi

Course coordinator:
Signature:

Prof. Dr. I. A. Attia

Electrochemistry and corrosion

Prof. Dr. I. A. Attia & Prof. S. M. A

Cement and water treatment

Dr. A. A. Mahmoud & Dr. A. O. Ha

Polymers.

Dr. A. A. Mahmoud & Dr. A. O. Ha

Fuels and combustion

Dr. A. A. Mahmoud & Dr. A. O. Ha

Topics Taught as a percentage of the content specified

Reasons in detail for not teaching any topic

------ ------ ------ ------ ------ ------ ------ ------ ------ ------ ----- ------ ------ ------ ------ ------ ------ ------ ------ ------ ----If any topics were taught which are not specified, give reasons in detail

------ ------ ------ ------ ------ ------ ------ ------ ------ ------ -2- Teaching and learning methods:

Lectures
Practical training/laboratory
Seminar/Workshop
Class Activity
Case Study:
Other assignments/homework
If teaching and learning methods were used other than, those specified, list and give reasons

------ ------ ------ ------ ------ ------ ------ ------ ------ ----- ------ ------ ------ ------ ------ ------ ------ ------ ---

3- Student assessment:

Methods of assessment
Written examination
Oral examination
Practical/laboratory work
Other assignments/class work

Members of examination committee

Dr. A. O. Habib
Course coordinator:
Signature:

Prof. Dr. I. A. Attia

Percentage of total

60 %

5%
25 %
10 %

Role of external evaluator:

------ ------ ------ ------ ------ -----4- Facilities and teaching materials:

Totally adequate
Adequate to some extent
Inadequate
List any inadequacies:

------ ------ ------ ------ ------ ------ ------ ------ ------ ----- ------ ------ ------ ------ ------ ------ ------ ------ ---

5-Administrative constraints:

------ ------ ------ ------ ------ ------ ------ ------ ------ ------ ----- ------ ------ ------ ------ ------ ------ ------ ------ ------ ----6-Student evaluation of the course:
Comment

Response of course Team

------ ------ ------ ------ ------ ----------- ------ ------ ------ ------ -----

------ ------ ------ ------ ------ ----------- ------ ------ ------ ------ -----

7-Comments from external evaluator(s)


Comment

Response of course Team

------ ------ ------ ------ ------ ----------- ------ ------ ------ ------ -----

------ ------ ------ ------ ------ ----------- ------ ------ ------ ------ -----

8- Course enhancement: Progress on actions identified in the previous years action plan:

------ ------ ------ ------ ------ ------ ------ ------ ------ ------ ----- ------ ------ ------ ------ ------ ------ ------ ------ ------ ----9- Action plan
Action required

Completion
date

------ ------ ------ ------ ------ ------ ---- ----

Course coordinator:
Signature:

Prof. Dr. I. A. Attia

Person responsible

------ ------ ------ ------

Course report of

Production Technology & Engineering History - MDP022


2009/2010
University: Ain Shams

Faculty: Engineering

Basic Information
1. Title and code :
Production Technology & Engineering History - MDP022

2. Programme on which the course is given :


All Programms
3. Year/ Level of programmes :
1. Units/Credit Hours
( i ) Lecture :

prep

( ii ) Tutorial /Practical :

( iii ) Total :

2. Names of lecturers contributing to the delivery of the course :


i Prof. Dr. Mostafa Shaaban
ii -

Prof. Dr. Monir koura

iii -

Dr. Aly Eldesouky

iv -

Dr. Adel Rizk

v -

Dr. Mohamed Awad

vi -

-------------------------------

vii -

-------------------------------

viii -

-------------------------------

Course coordinator:

Prof. Dr. Monir Koura

External evaluator:

---- ---- ----

Course coordinator:
Signature:

Prof. Dr. Monir Koura

B- Statistical Information

No. of students attending the course:

1806

Number

Percentage (%)

Students completing the course

1806

100 %

Passed

1530

84.72 %

Failed

276

15.28 %

Excellent

.2 %

Very Good

53

3.46 %

Good

290

18.95 %

Pass

1184

77.39 %

Results

Grading Of
successful students

C- Professional Information
1-- Course Teaching:

Topic

No. of
Hours

Lecturer

Engineering Materials

Dr. Mohamed Awad

Casting and joining of metals

Dr. Mohamed Awad

Basic Forming Processes

Dr. Adel Rizk

Polymers forming

Dr. Mohamed Awad

Machining fundamentals

Dr. Adel Rizk

Machining processes

Dr. Adel Rizk

Economics of manufacturiung

Dr. Monir koura

Course coordinator:
Signature:

Prof. Dr. Monir Koura

Standardization and quality control

Dr. Monir koura

Maintenance system

Dr. Monir Koura

Introduction to art and scince

Dr. Mostafa Shaaban

History of Engineering

12

Dr. Mostafa shaaban

Methods and tools used

12

Dr. Mostafa Shaaban

Technology transfer

Dr. Aly eldesouky

Environmental issues

Dr. Aly Eldesouky

Innovations

Dr. Aly El desouky

Engineering Ethics

Dr. Aly El desouky

Topics Taught as a percentage of the content specified

>90%

70% - 90%

<70 %

Reasons in detail for not teaching any topic

------ ------ ------ ------ ------ ------ ------ ------ ------ ------ ----- ------ ------ ------ ------ ------ ------ ------ ------ ------ ----- ------ ------ ------ ------ ------ ------ ------ ------ ------ ----------- ------ ------ ------ ------ ------ ------ ------ ------ ------ ----- ------ ------ ------ ------ ------ ------ ------ ------ ------ ---If any topics were taught which are not specified, give reasons in detail

------ ------ ------ ------ ------ ------ ------ ------ ------ ------ ----- ------ ------ ------ ------ ------ ------ ------ ------ ------ ----- ------ ------ ------ ------ ------ ------ ------ ------ ------ ----------- ------ ------ ------ ------ ------ ------ ------ ------ ------ ----- ------ ------ ------ ------ ------ ------ ------ ------ ------ ----

Course coordinator:
Signature:

Prof. Dr. Monir Koura

2- Teaching and learning methods:


Lectures
Practical training/laboratory
Seminar/Workshop
Class Activity
Case Study:
Other assignments/homework
If teaching and learning methods were used other than, those specified, list and give reasons

------ ------ ------ ------ ------ ------ ------ ------ ------ ----- ------ ------ ------ ------ ------ ------ ------ ------ ----- ------ ------ ------ ------ ------ ------ ------ ------ ----- ------ ---3- Student assessment:
Methods of assessment
Written examination

Percentage of total

60 %

Oral examination

20 %

Practical/laboratory work

10 %

Other assignments/class work

10%

Members of examination committee

Dr. Monir Dr. Mostafa Dr. Aly Dr. Adel Dr. Awad
Role of external evaluator:

------ ------ ------ ------ ------ -----4- Facilities and teaching materials:
Totally adequate
Adequate to some extent
Inadequate
List any inadequacies:

------ ------ ------ ------ ------ ------ ------ ------ ------ ----- ------ ------ ------ ------ ------ ------ ------ ------ ----- ------ ------ ------ ------ ------ ------ ------ ------ ----- ------ ---Course coordinator:
Signature:

Prof. Dr. Monir Koura

5-Administrative constraints:

------ ------ ------ ------ ------ ------ ------ ------ ------ ------ ----- ------ ------ ------ ------ ------ ------ ------ ------ ------ ----- ------ ------ ------ ------ ------ ------ ------ ------ ------ ----------- ------ ------ ------ ------ ------ ------ ------ ------ ------ ----- ------ ------ ------ ------ ------ ------ ------ ------ ------ ---6-Student evaluation of the course:
Comment

Response of course Team

No comment

------ ------ ------ ------ ------ ----------- ------ ------ ------ ------ -----

7-Comments from external evaluator(s)


Comment

Response of course Team

------ ------ ------ ------ ------ ----------- ------ ------ ------ ------ -----

------ ------ ------ ------ ------ ----------- ------ ------ ------ ------ -----

8- Course enhancement: Progress on actions identified in the previous years action plan:

------ ------ ------ ------ ------ ------ ------ ------ ------ ------ ----- ------ ------ ------ ------ ------ ------ ------ ------ ------ ----- ------ ------ ------ ------ ------ ------ ------ ------ ------ ----------- ------ ------ ------ ------ ------ ------ ------ ------ ------ ----- ------ ------ ------ ------ ------ ------ ------ ------ ------ ---9- Action plan
Action required

Completion
date

------ ------ ------ ------ ------ ------ ---- ----

Course coordinator:
Signature:

Prof. Dr. Monir Koura

Person responsible

------ ------ ------ ------

QAU
FACULTY OF ENGINEERING
AIN SHAMS UNIVERSITY

Second Year

1 - 20226830947- 20226826639: 20226830947 - 20226826639: . 11517 :


1 El-Sarayat Street, Abbassia Cairo Egypt Tel : 202 26830947-26826639 Fax 202 26830947-26826639 P.O.B #11517

Course report of

Mathematics (2)_M - PHM112M 2009/2010


University: Ain Shams

Faculty: Engineering

Basic Information
1. Title and code :
Mathematics (2)_M - PHM112M
2. Programme on which the course is given :
4 programs of mechnical engineering

3. Year/ Level of programmes :


1. Units/Credit Hours
( i ) Lecture :

1st year mechanical engineering (First and Second Semester)

( ii ) Tutorial /Practical :

( iii ) Total :

12

2. Names of lecturers contributing to the delivery of the course :


i Prof. Dr. Ragaa. M. Bahaa-el Din
ii -

Dr. Nadia Anwer Said

Course coordinator:

Prof. Dr. Ragaa. M. Bahaa-el Din

External evaluator:

---- ---- ----

Course coordinator:
Signature:

Prof. Dr. Ragaa. M. Bahaa-el Din

B- Statistical Information

No. of students attending the course:

515

Number

Percentage (%)

Students completing the course

515

100 %

Passed

339

65.83
65
%

Failed

176

34.17
34
%

Excellent

29

8.55 %

Very Good

24

7.08 %

Good

60

17.7
17 %

Pass

226

66.67
66
%

Results

Grading Of
successful students

C- Professional Information
1-- Course Teaching:

Topic

No. of
Hours

Lecturer

Functions of several variables; limits, continuity,


6
partial
Dr.derivatives
N. A. Said and the chain rule
Normal lines and tangent planes to surfaces.3

Dr. N. A. Said

Double integrals- Area and volume- Polar coordinates10


Dr.Change
N. A. Said
of variables and Jacobian

Triple integral- cylindrical and spherical coordinates7


Dr.
Line
N.integralsA. SAid Greens theorem- S
Extrema of functions and Lagrange multiplies.
3

Prof.Dr. R. M. Bahaa

Maclaurin and Taylor series- Expansion of3functions of


Prof.Dr.
one andR.several
M. Bahaa
variables.

Basic concepts of differential equations- Solution


20
of different
Prof.Dr.types
R. M.ofBahaa
euations of the firs
Course coordinator:
Signature:

Prof. Dr. Ragaa. M. Bahaa-el Din

Laplace transform: properties- inverse transform


14 and the
Prof.
convolution
Dr. R. M. Bahaa
Solution of differe

Partial differential equations; classification-12DAlambert


Dr. solution
N. A. Said
of the wave problem- S
Fourier series- Odd and even harmonics- Half
7 range expansions
Prof.Dr. R. M. Bahaa
Probability

14

Dr. N. A. Said

Interpolation

Prof.Dr. R. M. Bahaa

Topics Taught as a percentage of the content specified

Reasons in detail for not teaching any topic

------ ------ ------ ------ ------ ------ ------ ------ ------ ------ ----- ------ ------ ------ ------ ------ ------ ------ ------ ------ ----If any topics were taught which are not specified, give reasons in detail

------ ------ ------ ------ ------ ------ ------ ------ ------ ------ -2- Teaching and learning methods:

Lectures
Practical training/laboratory
Seminar/Workshop
Class Activity
Case Study:
Other assignments/homework
If teaching and learning methods were used other than, those specified, list and give reasons

------ ------ ------ ------ ------ ------ ------ ------ ------ ----- ------ ------ ------ ------ ------ ------ ------ ------ ---

3- Student assessment:

Methods of assessment
Written examination
Oral examination
Practical/laboratory work
Other assignments/class work

Course coordinator:
Signature:

Prof. Dr. Ragaa. M. Bahaa-el Din

Percentage of total

72 %
0%
14 %
14 %

Members of examination committee

Prof. Dr. R. M. Bahaa-el Din & Dr. N. A. Said


Role of external evaluator:

------ ------ ------ ------ ------ -----4- Facilities and teaching materials:

Totally adequate
Adequate to some extent
Inadequate
List any inadequacies:

------ ------ ------ ------ ------ ------ ------ ------ ------ ----- ------ ------ ------ ------ ------ ------ ------ ------ ---

5-Administrative constraints:

------ ------ ------ ------ ------ ------ ------ ------ ------ ------ ----- ------ ------ ------ ------ ------ ------ ------ ------ ------ -----

6-Student evaluation of the course:


Comment

Response of course Team

------ ------ ------ ------ ------ ----------- ------ ------ ------ ------ -----

------ ------ ------ ------ ------ ----------- ------ ------ ------ ------ -----

7-Comments from external evaluator(s)


Comment

Response of course Team

------ ------ ------ ------ ------ ----------- ------ ------ ------ ------ -----

------ ------ ------ ------ ------ ----------- ------ ------ ------ ------ -----

8- Course enhancement: Progress on actions identified in the previous years action plan:

------ ------ ------ ------ ------ ------ ------ ------ ------ ------ ----- ------ ------ ------ ------ ------ ------ ------ ------ ------ -----

9- Action plan

Action required

Completion
date

------ ------ ------ ------ ------ ------ ---- ----

Course coordinator:
Signature:

Prof. Dr. Ragaa. M. Bahaa-el Din

Person responsible

------ ------ ------ ------

Course report of

Physics (2) - PHM122 2009/2010


University: Ain Shams

Faculty: Engineering

Basic Information
1. Title and code :
Physics (2) - PHM122
2. Programme on which the course is given :
B. Sc in mechanical engineering [power production automotive]

3. Year/ Level of programmes :


1. Units/Credit Hours
( i ) Lecture :

1 st year

( ii ) Tutorial /Practical :

( iii ) Total :

2. Names of lecturers contributing to the delivery of the course :


i Dr. Essmat Abd Elfatah
ii -

Dr. Hatem Elrefaie

Course coordinator:

Dr. Essmat Abd Elfatah

External evaluator:

N.A.

B- Statistical Information

No. of students attending the course:

Course coordinator:
Signature:

Dr. Essmat Abd Elfatah

524

Number

Percentage (%)

Students completing the course

524

100 %

Passed

315

60.11
60
%

Failed

209

39.89
39
%

Excellent

18

5.71 %

Very Good

20

6.35 %

Good

33

10.48
10
%

Pass

244

77.46
77
%

Results

Grading Of
successful students

C- Professional Information
1-- Course Teaching:

Topic

No. of
Hours

Lecturer

Ideal (natural), damped and forced vibrations.


4

Dr. Essmat Abd Elfatah

Principles of superposition.

Dr. Essmat Abd Elfatah

Speed of transverse and longitudinal waves2

Dr. Essmat Abd Elfatah

phenomena of interference, diffraction and polarization.


4
Dr. Essmat Abd Elfatah
Plancks theory of quantization of energy of2radiation, Dr. Hatem Elrefaie
Photo-electric effect, x-rays and Comptons4effect

Dr. Hatem Elrefaie

wave properties of mater and wave function2

Dr. Hatem Elrefaie

principles of quantum mechanics and Schrodinger


3
equation
Dr. Hatem Elrefaie
Atomic structure and study of the tunneling phenomenon.
3
Dr. Hatem Elrefaie
Course coordinator:
Signature:

Dr. Essmat Abd Elfatah

Topics Taught as a percentage of the content specified

Reasons in detail for not teaching any topic

------ ------ ------ ------ ------ ------ ------ ------ ------ ------ ----- ------ ------ ------ ------ ------ ------ ------ ------ ------ ----If any topics were taught which are not specified, give reasons in detail

N.A.
2- Teaching and learning methods:

Lectures
Practical training/laboratory
Seminar/Workshop
Class Activity
Case Study:
Other assignments/homework
If teaching and learning methods were used other than, those specified, list and give reasons

------ ------ ------ ------ ------ ------ ------ ------ ------ ----- ------ ------ ------ ------ ------ ------ ------ ------ ---

3- Student assessment:

Methods of assessment
Written examination
Oral examination
Practical/laboratory work
Other assignments/class work

Members of examination committee

Prof. Dr. Adel Helmy Phillips


Role of external evaluator:

N.A.
4- Facilities and teaching materials:

Totally adequate
Adequate to some extent
Inadequate
Course coordinator:
Signature:

Dr. Essmat Abd Elfatah

Percentage of total

60 %
20 %
15 %
5%

List any inadequacies:

1. Sound system is so bad, 2. No screen available and


projection on the wall, 3. Use of blackboard and chalk
5-Administrative constraints:

------ ------ ------ ------ ------ ------ ------ ------ ------ ------ ----- ------ ------ ------ ------ ------ ------ ------ ------ ------ -----

6-Student evaluation of the course:


Comment

Response of course Team

------ ------ ------ ------ ------ -----

------ ------ ------ ------ ------ ------

7-Comments from external evaluator(s)


Comment

Response of course Team

N.A.

------ ------ ------ ------ ------ ----------- ------ ------ ------ ------ -----

8- Course enhancement: Progress on actions identified in the previous years action plan:

------ ------ ------ ------ ------ ------ ------ ------ ------ ------ -9- Action plan
Action required

Completion
date

------ ------ ------ ------ ------ ------ ---- ----

Course coordinator:
Signature:

Dr. Essmat Abd Elfatah

Person responsible

------ ------ ------ ------

Course report of

Mechanics (2) - PHM132 2009/2010


University: Ain Shams

Faculty: Engineering

Basic Information
1. Title and code :
Mechanics (2) - PHM132
2. Programme on which the course is given :

3. Year/ Level of programmes :


1. Units/Credit Hours
( i ) Lecture :

1 st year Mechanical Eng.

( ii ) Tutorial /Practical :

( iii ) Total :

2. Names of lecturers contributing to the delivery of the course :


i Dr. Amal Mahmoud Abd El Hafez
ii -

Dr. Mohamed M. Attia

Course coordinator:

Prof. Dr. Abdalla El marhomy

External evaluator:

---- ---- ----

Course coordinator:
Signature:

Prof. Dr. Abdalla El marhomy

B- Statistical Information

No. of students attending the course:

559

Number

Percentage (%)

Students completing the course

527

94.28 %

Passed

338

64.14 %

Failed

189

35.86 %

Excellent

24

7.1 %

Very Good

37

10.95 %

Good

48

14.2 %

Pass

229

67.75 %

Results

Grading Of
successful students

C- Professional Information
1-- Course Teaching:

Topic

No. of
Hours

------ ------ ------ ------ ------ ------

---- ----

------ ------ ------ ------

------ ------ ------ ------ ------ ------

---- ----

------ ------ ------ ------

------ ------ ------ ------ ------ ------

---- ----

------ ------ ------ ------

------ ------ ------ ------ ------ ------

---- ----

------ ------ ------ ------

------ ------ ------ ------ ------ ------

---- ----

------ ------ ------ ------

------ ------ ------ ------ ------ ------

---- ----

------ ------ ------ ------

Course coordinator:
Signature:

Prof. Dr. Abdalla El marhomy

Lecturer

Topics Taught as a percentage of the content specified

Reasons in detail for not teaching any topic

------ ------ ------ ------ ------ ------ ------ ------ ------ ------ ----- ------ ------ ------ ------ ------ ------ ------ ------ ------ ----If any topics were taught which are not specified, give reasons in detail

------ ------ ------ ------ ------ ------ ------ ------ ------ ------ -2- Teaching and learning methods:

Lectures
Practical training/laboratory
Seminar/Workshop
Class Activity
Case Study:
Other assignments/homework
If teaching and learning methods were used other than, those specified, list and give reasons

------ ------ ------ ------ ------ ------ ------ ------ ------ ----- ------ ------ ------ ------ ------ ------ ------ ------ ---

3- Student assessment:

Methods of assessment
Written examination
Oral examination
Practical/laboratory work
Other assignments/class work

Members of examination committee

------ ------ ------ ------ ------ -----Role of external evaluator:

------ ------ ------ ------ ------ -----4- Facilities and teaching materials:

Totally adequate
Adequate to some extent
Inadequate
Course coordinator:
Signature:

Prof. Dr. Abdalla El marhomy

Percentage of total

0%
0%
0%
0%

List any inadequacies:

------ ------ ------ ------ ------ ------ ------ ------ ------ -5-Administrative constraints:

------ ------ ------ ------ ------ ------ ------ ------ ------ ------ ----- ------ ------ ------ ------ ------ ------ ------ ------ ------ -----

6-Student evaluation of the course:


Comment

Response of course Team

------ ------ ------ ------ ------ ----------- ------ ------ ------ ------ -----

------ ------ ------ ------ ------ ----------- ------ ------ ------ ------ -----

7-Comments from external evaluator(s)


Comment

Response of course Team

------ ------ ------ ------ ------ ----------- ------ ------ ------ ------ -----

------ ------ ------ ------ ------ ----------- ------ ------ ------ ------ -----

8- Course enhancement: Progress on actions identified in the previous years action plan:

------ ------ ------ ------ ------ ------ ------ ------ ------ ------ ----- ------ ------ ------ ------ ------ ------ ------ ------ ------ -----

9- Action plan

Action required

Completion
date

------ ------ ------ ------ ------ ------ ---- ----

Course coordinator:
Signature:

Prof. Dr. Abdalla El marhomy

Person responsible

------ ------ ------ ------

Course report of

Theory of Structures - CES112 2009/2010


University: Ain Shams

Faculty: Engineering

Basic Information
1. Title and code :
Theory of Structures - CES112

2. Programme on which the course is given :


B. Sc. In All Mechanical Engineering

3. Year/ Level of programmes :


1. Units/Credit Hours
( i ) Lecture :

Year 2 First Semester

( ii ) Tutorial /Practical :

( iii ) Total :

2. Names of lecturers contributing to the delivery of the course :


i Prof. Amin Saleh
ii -

-------------------------------

iii -

-------------------------------

iv -

-------------------------------

v -

-------------------------------

vi -

-------------------------------

vii -

-------------------------------

viii -

-------------------------------

Course coordinator:

Prof. Amin Saleh

External evaluator:

---- ---- ----

Course coordinator:
Signature:

Prof. Amin Saleh

B- Statistical Information

No. of students attending the course:

518

Number

Percentage (%)

Students completing the course

518

100 %

Passed

344

66.41 %

Failed

174

33.59 %

Excellent

1.74 %

Very Good

17

4.94 %

Good

47

13.66 %

Pass

274

79.65 %

Results

Grading Of
successful students

C- Professional Information
1-- Course Teaching:

Topic

No. of
Hours

Lecturer

Review of plane statics

P.Dr. Amin Saleh

Types of loads and supports

P.Dr. Amin Saleh

Determination of reactions in Beams,Frames


4 Trusses P.Dr. Amin Saleh
Stability of structures

P.Dr. Amin Saleh

Determination of internal forces in Beams 4

P.Dr. Amin Saleh

Determination of internal forces in Frames 8

P.Dr. Amin Saleh

Determination of internal forces in Plane Trusses


4

P.Dr. Amin Saleh

Properties of plain area

P.Dr. Amin Saleh

Course coordinator:
Signature:

Prof. Amin Saleh

Straining actions

P.Dr. Amin Saleh

Normal stresses in homogeneous elastic bodies


4

P.Dr. Amin Saleh

Shear stresses

P.Dr. Amin Saleh

------ ------ ------ ------ ------ ------

---- ----

------ ------ ------ ------

------ ------ ------ ------ ------ ------

---- ----

------ ------ ------ ------

------ ------ ------ ------ ------ ------

---- ----

------ ------ ------ ------

------ ------ ------ ------ ------ ------

---- ----

------ ------ ------ ------

------ ------ ------ ------ ------ ------

---- ----

------ ------ ------ ------

------ ------ ------ ------ ------ ------

---- ----

------ ------ ------ ------

------ ------ ------ ------ ------ ------

---- ----

------ ------ ------ ------

------ ------ ------ ------ ------ ------

---- ----

------ ------ ------ ------

------ ------ ------ ------ ------ ------

---- ----

------ ------ ------ ------

------ ------ ------ ------ ------ ------

---- ----

------ ------ ------ ------

------ ------ ------ ------ ------ ------

---- ----

------ ------ ------ ------

------ ------ ------ ------ ------ ------

---- ----

------ ------ ------ ------

------ ------ ------ ------ ------ ------

---- ----

------ ------ ------ ------

------ ------ ------ ------ ------ ------

---- ----

------ ------ ------ ------

Course coordinator:
Signature:

Prof. Amin Saleh

------ ------ ------ ------ ------ ------

---- ----

------ ------ ------ ------

------ ------ ------ ------ ------ ------

---- ----

------ ------ ------ ------

------ ------ ------ ------ ------ ------

---- ----

------ ------ ------ ------

------ ------ ------ ------ ------ ------

---- ----

------ ------ ------ ------

------ ------ ------ ------ ------ ------

---- ----

------ ------ ------ ------

------ ------ ------ ------ ------ ------

---- ----

------ ------ ------ ------

------ ------ ------ ------ ------ ------

---- ----

------ ------ ------ ------

------ ------ ------ ------ ------ ------

---- ----

------ ------ ------ ------

------ ------ ------ ------ ------ ------

---- ----

------ ------ ------ ------

Course coordinator:
Signature:

Prof. Amin Saleh

Topics Taught as a percentage of the content specified

>90%

70% - 90%

<70 %

Reasons in detail for not teaching any topic

------ ------ ------ ------ ------ ------ ------ ------ ------ ------ ----- ------ ------ ------ ------ ------ ------ ------ ------ ------ ----- ------ ------ ------ ------ ------ ------ ------ ------ ------ ----------- ------ ------ ------ ------ ------ ------ ------ ------ ------ ----- ------ ------ ------ ------ ------ ------ ------ ------ ------ ---If any topics were taught which are not specified, give reasons in detail

------ ------ ------ ------ ------ ------ ------ ------ ------ ------ ----- ------ ------ ------ ------ ------ ------ ------ ------ ------ ----- ------ ------ ------ ------ ------ ------ ------ ------ ------ ----------- ------ ------ ------ ------ ------ ------ ------ ------ ------ ----- ------ ------ ------ ------ ------ ------ ------ ------ ------ ---2- Teaching and learning methods:

Lectures
Practical training/laboratory
Seminar/Workshop
Class Activity
Case Study:

Other assignments/homework
If teaching and learning methods were used other than, those specified, list and give reasons

------ ------ ------ ------ ------ ------ ------ ------ ------ ----- ------ ------ ------ ------ ------ ------ ------ ------ ----- ------ ------ ------ ------ ------ ------ ------ ------ ----- ------ ---3- Student assessment:
Methods of assessment
Written examination

85 %

Oral examination

0%

Practical/laboratory work

0%

Other assignments/class work

15 %

Course coordinator:
Signature:

Percentage of total

Prof. Amin Saleh

Members of examination committee

P.Dr. Amin Saleh


Role of external evaluator:

------ ------ ------ ------ ------ -----4- Facilities and teaching materials:

Totally adequate
Adequate to some extent
Inadequate
List any inadequacies:

Data show is not available

5-Administrative constraints:

Microphone is not appropriate


Chalk and blackboard should be replaced by pens and white board.

6-Student evaluation of the course:


Response of course Team

Comment

52% of the students showed that


the explanation in lectures is not
sufficient

Many students dont write the


lectures to read at home and think
of the faculty to be as secondary

30% of the students showed that


the test hours are not enough

Most students copy exercises and


dont solve by themselves

------ ------ ------ ------ ------ ----------- ------ ------ ------ ------ -----

------ ------ ------ ------ ------ ----------- ------ ------ ------ ------ -----

------ ------ ------ ------ ------ ----------- ------ ------ ------ ------ -----

------ ------ ------ ------ ------ ----------- ------ ------ ------ ------ -----

Course coordinator:
Signature:

Prof. Amin Saleh

7-Comments from external evaluator(s)


Comment

Response of course Team

------ ------ ------ ------ ------ ----------- ------ ------ ------ ------ ---------- ------ ------ ------ ------ ----------- ------ ------ ------ ------ ---------- ------ ------ ------ ------ ----------- ------ ------ ------ ------ ---------- ------ ------ ------ ------ ----------- ------ ------ ------ ------ -----

------ ------ ------ ------ ------ ----------- ------ ------ ------ ------ ---------- ------ ------ ------ ------ ----------- ------ ------ ------ ------ ---------- ------ ------ ------ ------ ----------- ------ ------ ------ ------ ---------- ------ ------ ------ ------ ----------- ------ ------ ------ ------ -----

8- Course enhancement: Progress on actions identified in the previous years action plan:

------ ------ ------ ------ ------ ------ ------ ------ ------ ------ ----- ------ ------ ------ ------ ------ ------ ------ ------ ------ ----- ------ ------ ------ ------ ------ ------ ------ ------ ------ ----------- ------ ------ ------ ------ ------ ------ ------ ------ ------ ----- ------ ------ ------ ------ ------ ------ ------ ------ ------ ---9- Action plan
Action required

Completion
date

Person responsible

Increase Computer facilites labs

31-08-2009Faculty

Increase and Fix broken chairs

31-08-2009Faculty

Improve Class Rooms (Ventilation , Lighting


, Cleaning
,wide board ,eraser , privacy and W
31-08-2009
Faculty

Increase Teaching Hours

31-08-2009Faculty

------ ------ ------ ------ ------ ------ ---- ----

Course coordinator:
Signature:

Prof. Amin Saleh

------ ------ ------ ------

Course report of

Electrical & Electronic Engineering_pr1 - EPM112pr1


2009/2010
University: Ain Shams

Faculty: Engineering

Basic Information
1. Title and code :
Electrical & Electronic Engineering_pr1 - EPM112pr1
2. Programme on which the course is given :
B.Sc. in Mechnical Engineering: Design & Production / Mechanical Power / Automotive / Mechatronics
3. Year/ Level of programmes :

1. Units/Credit Hours
( i ) Lecture :

2nd year, Second semester

2 hours per week

( ii ) Tutorial /Practical :

1 hours per week

( iii ) Total :

2. Names of lecturers contributing to the delivery of the course :


i Prof.Dr Mahmoud Abd El-hamed
ii -

Dr Walid Helmy

iii iv v vi vii viii -

Course coordinator:

Prof.Dr Mahmoud Abd El-hamed

External evaluator:

Course coordinator:
Signature:

Prof.Dr Mahmoud Abd El-hamed

B- Statistical Information

No. of students attending the course:

516

Number

Percentage (%)

Students completing the course

516

100 %

Passed

450

87.21 %
87

Failed

66

12.79 %
12

Excellent

22

4.89 %

Very Good

71

15.78 %
15

Good

164

36.44 %
36

Pass

193

42.89 %
42

Results

Grading Of
successful students

C- Professional Information
1-- Course Teaching:

Topic

No. of
Hours

Lecturer

BASIC DEFINITIONS AND UNITS

Prof.Dr Mahmoud Abd El-

CIRCUIT ELEMENTS

Prof.Dr Mahmoud Abd El-

SIMPLE RESISTIVE CIRCUITS.

Prof.Dr Mahmoud Abd El-

NETWORK THEOREMS FOR DC NETWORKS


9

Prof.Dr Mahmoud Abd El-

INDUCTORS AND CAPACITORS

Prof.Dr Mahmoud Abd El-

ANALYSIS OF SINUSOIDAL STEADY 6

Dr Walid Helmy

NETWORK THEOREMS FOR AC NETWORKS


5

Dr Walid Helmy

Course coordinator:
Signature:

Prof.Dr Mahmoud Abd El-hamed

POWER IN ELECTRIC CIRCUITS

Course coordinator:
Signature:

Prof.Dr Mahmoud Abd El-hamed

Dr Walid Helmy

Topics Taught as a percentage of the content specified

>90%

70% - 90%

<70 %

Reasons in detail for not teaching any topic

If any topics were taught which are not specified, give reasons in detail

2- Teaching and learning methods:


Lectures
Practical training/laboratory
Seminar/Workshop
Class Activity
Case Study:
Other assignments/homework
If teaching and learning methods were used other than, those specified, list and give reasons

3- Student assessment:
Methods of assessment
Written examination

70 %

Oral examination

0%

Practical/laboratory work

0%

Other assignments/class work

30 %

Course coordinator:
Signature:

Percentage of total

Prof.Dr Mahmoud Abd El-hamed

Members of examination committee

Prof.Dr Mahmoud Abd El-hamed / Dr Walid Helmy


Role of external evaluator:

4- Facilities and teaching materials:


Totally adequate
Adequate to some extent
Inadequate
List any inadequacies:

5-Administrative constraints:

6-Student evaluation of the course:


Comment

Course coordinator:
Signature:

Response of course Team

Prof.Dr Mahmoud Abd El-hamed

7-Comments from external evaluator(s)


Comment

Response of course Team

8- Course enhancement: Progress on actions identified in the previous years action plan:

9- Action plan
Action required

Course coordinator:
Signature:

Completion
date

Prof.Dr Mahmoud Abd El-hamed

Person responsible

Course report of

Manufacturing Technology (1) - MDP111 2009/2010


University: Ain Shams

Faculty: Engineering

Basic Information
1. Title and code :
Manufacturing Technology (1) - MDP111

2. Programme on which the course is given :


Design and Production Engineering

3. Year/ Level of programmes :


1. Units/Credit Hours
( i ) Lecture :

1 st year

11

( ii ) Tutorial /Practical :

12

( iii ) Total :

23

2. Names of lecturers contributing to the delivery of the course :


i Pro,Dr. Mohamed Abdel MOhsen-------------------------ii -

---Dr>Tayseer Ahmed Mohamed----------------------------

iii -

-------------------------------

iv -

-------------------------------

v -

-------------------------------

vi -

-------------------------------

vii -

-------------------------------

viii -

-------------------------------

Course coordinator:

Prof. Dr. M.AbdelMohsen----------

External evaluator:

---- ---- ----

Course coordinator:
Signature:

Prof. Dr.
M.AbdelMohsen----------

B- Statistical Information

No. of students attending the course:

508

Number

Percentage (%)

Students completing the course

508

100 %

Passed

457

89.96 %

Failed

51

10.04 %

Excellent

53

11.6 %

Very Good

116

25.38 %

Good

146

31.95 %

Pass

142

31.07 %

Results

Grading Of
successful students

C- Professional Information
1-- Course Teaching:

Topic

No. of
Hours

Lecturer

Metal cutting fundametals-

Prof. Dr. M.Abdel Mohsen

Turning

Prof. Dr. M.Abdel Mohsen

Grinding

Prof. Dr. M.Abdel Mohsen

Shaping

Prof. Dr. M.Abdel Mohsen

Milling

Prof. Dr. M.Abdel Mohsen

DRilling

Prof. Dr. M.Abdel Mohsen

Non conventional cutting

Prof. Dr. M.Abdel Mohsen

Metal forming Fundamentals

Dr. Tayseer Ahmed

Course coordinator:
Signature:

Prof. Dr.
M.AbdelMohsen----------

Rolling

Dr. Tayseer Ahmed

Extrusion

Dr. Tayseer Ahmed

Forging

Dr. Tayseer Ahmed

Deep drawing

Dr. Tayseer Ahmed

spining

Dr. Tayseer Ahmed

Sheet metal work

Dr. Tayseer Ahmed

Course coordinator:
Signature:

Prof. Dr.
M.AbdelMohsen----------

Topics Taught as a percentage of the content specified

>90%

70% - 90%

<70 %

Reasons in detail for not teaching any topic

spent more time in a particukar item that was not well understood

If any topics were taught which are not specified, give reasons in detail

To understand the main topics you may need to explain more basics
or fundamnetals that was not meant to be

2- Teaching and learning methods:

Lectures
Practical training/laboratory
Seminar/Workshop
Class Activity
Case Study:

Other assignments/homework
If teaching and learning methods were used other than, those specified, list and give reasons

------ ------ ------ ------ ------ ------ ------ ------ ------ ----- ------ ------ ------ ------ ------ ------ ------ ------ ----- ------ ------ ------ ------ ------ ------ ------ ------ ----- ------ ---3- Student assessment:
Methods of assessment
Written examination

60 %

Oral examination

10 %

Practical/laboratory work

30 %

Other assignments/class work

0%

Course coordinator:
Signature:

Percentage of total

Prof. Dr.
M.AbdelMohsen----------

Members of examination committee

Prof. Dr. M.Abdel Mohsen and Dr. Tayseer Ahmed


Role of external evaluator:

------ ------ ------ ------ ------ -----4- Facilities and teaching materials:

Totally adequate
Adequate to some extent
Inadequate
List any inadequacies:

New technical Videos as well as test rigs are added to the


Lab to ease understanding the topics

5-Administrative constraints:

------ ------ ------ ------ ------ ------ ------ ------ ------ ------ ----- --

6-Student evaluation of the course:


Response of course Team

Comment

Enjoing the coarse and


understanding the material and
looking forward for summer

No comment

------ ------ ------ ------ ------ ----------- ------ ------ ------ ------ -----

------ ------ ------ ------ ------ ----------- ------ ------ ------ ------ -----

------ ------ ------ ------ ------ ----------- ------ ------ ------ ------ -----

------ ------ ------ ------ ------ ----------- ------ ------ ------ ------ -----

------ ------ ------ ------ ------ ----------- ------ ------ ------ ------ -----

------ ------ ------ ------ ------ ----------- ------ ------ ------ ------ -----

Course coordinator:
Signature:

Prof. Dr.
M.AbdelMohsen----------

7-Comments from external evaluator(s)


Comment

Response of course Team

------ ------ ------ ------ ------ ----------- ------ ------ ------ ------ ---------- ------ ------ ------ ------ ----------- ------ ------ ------ ------ ---------- ------ ------ ------ ------ ----------- ------ ------ ------ ------ ---------- ------ ------ ------ ------ ----------- ------ ------ ------ ------ -----

------ ------ ------ ------ ------ ----------- ------ ------ ------ ------ ---------- ------ ------ ------ ------ ----------- ------ ------ ------ ------ ---------- ------ ------ ------ ------ ----------- ------ ------ ------ ------ ---------- ------ ------ ------ ------ ----------- ------ ------ ------ ------ -----

8- Course enhancement: Progress on actions identified in the previous years action plan:

------ ------ ------ ------ ------ ------ ------ ------ ------ ------ ----- ------ ------ ------ ------ ------ ------ ------ ------ ------ ----- ------ ------ ------ ------ ------ ------ ------ ------ ------ ----------- ------ ------ ------ ------ ------ ------ ------ ------ ------ ----- ------ ------ ------ ------ ------ ------ ------ ------ ------ ---9- Action plan
Action required

Completion
date

Person responsible

------ ------ ------ ------ ------ ------ ---- ----

------ ------ ------ ------

------ ------ ------ ------ ------ ------ ---- ----

------ ------ ------ ------

------ ------ ------ ------ ------ ------ ---- ----

------ ------ ------ ------

------ ------ ------ ------ ------ ------ ---- ----

------ ------ ------ ------

------ ------ ------ ------ ------ ------ ---- ----

------ ------ ------ ------

Course coordinator:
Signature:

Prof. Dr.
M.AbdelMohsen----------

Course report of

Thermodynamics (1) - MEP111 2009/2010


University: Ain Shams

Faculty: Engineering

Basic Information
1. Title and code :
Thermodynamics (1) - MEP111

2. Programme on which the course is given :


Mechanical Power Engineering

3. Year/ Level of programmes :


1. Units/Credit Hours
( i ) Lecture :

2nd year

( ii ) Tutorial /Practical :

( iii ) Total :

2. Names of lecturers contributing to the delivery of the course :


i Prof. Dr. Mahmoud Abo El Nasr
ii -

Dr. Nashwa Abbas

iii -

Dr. Mostafa Abd El Khaliq

iv -

Dr. Mahmoud Kamal

v -

-------------------------------

vi -

-------------------------------

vii -

-------------------------------

viii -

-------------------------------

Course coordinator:

Prof. Dr. Mahmoud Abo El Nasr

External evaluator:

Course coordinator:
Signature:

Prof. Dr. Mahmoud Abo


El Nasr

B- Statistical Information

No. of students attending the course:

516

Number

Percentage (%)

Students completing the course

516

100 %

Passed

393

76.16 %

Failed

123

23.84 %

Excellent

64

16.28 %

Very Good

101

25.7 %

Good

103

26.21 %

Pass

125

31.81 %

Results

Grading Of
successful students

C- Professional Information
1-- Course Teaching:

Topic
Basic Concepts and Definitions

No. of
Hours

Lecturer

Dr. Nashwa Abbas

Work definition and heat transfer definition8

Dr. Nashwa Abbas

Ideal gases and state equations

Dr. Nashwa Abbas

First law of thermodynamics

Dr. Nashwa Abbas

First Law for closed systems

12

Dr. Nashwa Abbas

Gas mixtures and Dalton's law


Combustion Processes
Course coordinator:
Signature:

Prof. Dr. Mahmoud Abo


El Nasr

Dr. Mahmoud Kamal


8

Dr. Mahmoud Kamal

Reciprocating Compressors

Dr. Mostafa Abd El Khaliq

------ ------ ------ ------ ------ ------

---- ----

------ ------ ------ ------

------ ------ ------ ------ ------ ------

---- ----

------ ------ ------ ------

------ ------ ------ ------ ------ ------

---- ----

------ ------ ------ ------

------ ------ ------ ------ ------ ------

---- ----

------ ------ ------ ------

------ ------ ------ ------ ------ ------

---- ----

------ ------ ------ ------

------ ------ ------ ------ ------ ------

---- ----

------ ------ ------ ------

------ ------ ------ ------ ------ ------

---- ----

------ ------ ------ ------

------ ------ ------ ------ ------ ------

---- ----

------ ------ ------ ------

------ ------ ------ ------ ------ ------

---- ----

------ ------ ------ ------

------ ------ ------ ------ ------ ------

---- ----

------ ------ ------ ------

------ ------ ------ ------ ------ ------

---- ----

------ ------ ------ ------

------ ------ ------ ------ ------ ------

---- ----

------ ------ ------ ------

------ ------ ------ ------ ------ ------

---- ----

------ ------ ------ ------

------ ------ ------ ------ ------ ------

---- ----

------ ------ ------ ------

------ ------ ------ ------ ------ ------

---- ----

------ ------ ------ ------

------ ------ ------ ------ ------ ------

---- ----

------ ------ ------ ------

------ ------ ------ ------ ------ ------

---- ----

------ ------ ------ ------

Course coordinator:
Signature:

Prof. Dr. Mahmoud Abo


El Nasr

------ ------ ------ ------ ------ ------

---- ----

------ ------ ------ ------

------ ------ ------ ------ ------ ------

---- ----

------ ------ ------ ------

------ ------ ------ ------ ------ ------

---- ----

------ ------ ------ ------

------ ------ ------ ------ ------ ------

---- ----

------ ------ ------ ------

------ ------ ------ ------ ------ ------

---- ----

------ ------ ------ ------

------ ------ ------ ------ ------ ------

---- ----

------ ------ ------ ------

------ ------ ------ ------ ------ ------

---- ----

------ ------ ------ ------

------ ------ ------ ------ ------ ------

---- ----

------ ------ ------ ------

------ ------ ------ ------ ------ ------

---- ----

------ ------ ------ ------

Course coordinator:
Signature:

Prof. Dr. Mahmoud Abo


El Nasr

Topics Taught as a percentage of the content specified

>90%

70% - 90%

<70 %

Reasons in detail for not teaching any topic

------ ------ ------ ------ ------ ------ ------ ------ ------ ------ ----- ------ ------ ------ ------ ------ ------ ------ ------ ------ ----N/a- ------ ------ ------ ------ ------ ------ ------ ------ ------ ----- ------ ------ ------ ------ ------ ------ ------ ------ ------ ----------- ------ ------ ------ ------ ------ ------ ------ ------ ------ --If any topics were taught which are not specified, give reasons in detail

------ ------ ------ ------ ------ ------ ------ ------ ------ ------ ----- ------ ------ ------ ------ ------ ------ ------ ------ ------ ----N/a- ------ ------ ------ ------ ------ ------ ------ ------ ------ ----- ------ ------ ------ ------ ------ ------ ------ ------ ------ ----------- ------ ------ ------ ------ ------ ------ ------ ------ ------ --2- Teaching and learning methods:

Lectures
Practical training/laboratory
Seminar/Workshop
Class Activity
Case Study:

Other assignments/homework
If teaching and learning methods were used other than, those specified, list and give reasons

------ ------ ------ ------ ------ ------ ------ ------ ------ ----- ------ ------ ------ ------ ------ ------ ------ ------ ----- ------ ------ ------ ------ ------ ------ ------ ------ ----- ------ ---3- Student assessment:
Methods of assessment
Written examination

70%

Oral examination

20%

Practical/laboratory work

0%

Other assignments/class work

10%

Course coordinator:
Signature:

Percentage of total

Prof. Dr. Mahmoud Abo


El Nasr

Members of examination committee

Prof. Dr. Mahmoud Abo El Nasr, Dr. Mostafa Abd El Khaliq, Dr. Nashwa Abas, Dr.
Role of external evaluator:

------ ------ ------ ------ ------ -----4- Facilities and teaching materials:

Totally adequate
Adequate to some extent
Inadequate
List any inadequacies:

- ------ ------ ------ ------ ------ ------ ------ ------ ----------- ------ ------ ------ ------ ------ ------ ------ ------ ----- ------ ------ ---5-Administrative constraints:

---- ------ ------ ------ ------ ------ ------ ------ ------ ------ ----- ------ ------ ------ ------ ------ ------ ------ ------ ------ ----------- ------ ------ ------ ------ ------ ------ ------ ------ ------ ----- ------ ------ ------ ------ ------ ------ ------ ------ ------ ----

6-Student evaluation of the course:


Response of course Team

Comment

------ ------ ------ ------ ------ -----

------ ------ ------ ------ ------ ----------- ------ ------ ------ ------ -----

------ ------ ------ ------ ------ ----------- ------ ------ ------ ------ -----

------ ------ ------ ------ ------ ----------- ------ ------ ------ ------ -----

------ ------ ------ ------ ------ ----------- ------ ------ ------ ------ -----

------ ------ ------ ------ ------ ----------- ------ ------ ------ ------ -----

------ ------ ------ ------ ------ ----------- ------ ------ ------ ------ -----

------ ------ ------ ------ ------ ----------- ------ ------ ------ ------ -----

Course coordinator:
Signature:

Prof. Dr. Mahmoud Abo


El Nasr

7-Comments from external evaluator(s)


Comment

Response of course Team

------ ------ ------ ------ ------ ----------- ------ ------ ------ ------ ---------- ------ ------ ------ ------ ----------- ------ ------ ------ ------ ---------- ------ ------ ------ ------ ----------- ------ ------ ------ ------ ---------- ------ ------ ------ ------ ----------- ------ ------ ------ ------ -----

------ ------ ------ ------ ------ ----------- ------ ------ ------ ------ ---------- ------ ------ ------ ------ ----------- ------ ------ ------ ------ ---------- ------ ------ ------ ------ ----------- ------ ------ ------ ------ ---------- ------ ------ ------ ------ ----------- ------ ------ ------ ------ -----

8- Course enhancement: Progress on actions identified in the previous years action plan:

------ ------ ------ ------ ------ ------ ------ ------ ------ ------ ----- ------ ------ ------ ------ ------ ------ ------ ------ ------ ----- ------ ------ ------ ------ ------ ------ ------ ------ ------ ----------- ------ ------ ------ ------ ------ ------ ------ ------ ------ ----- ------ ------ ------ ------ ------ ------ ------ ------ ------ ---9- Action plan
Action required

Completion
date

Person responsible

----- ------ ------ ------ ------ ------

------ ------ ------ ------ ------ ------ ---- ----

------ ------ ------ ------

------ ------ ------ ------ ------ ------ ---- ----

------ ------ ------ ------

------ ------ ------ ------ ------ ------ ---- ----

------ ------ ------ ------

------ ------ ------ ------ ------ ------ ---- ----

------ ------ ------ ------

Course coordinator:
Signature:

Prof. Dr. Mahmoud Abo


El Nasr

Course report of

Management & Marketing - HUMx21_MEP 2009/2010


University: Ain Shams

Faculty: Engineering

Basic Information
1. Title and code :
Management & Marketing - HUMx21_MEP

2. Programme on which the course is given :


Mechanical Power Engineering

3. Year/ Level of programmes :


1. Units/Credit Hours
( i ) Lecture :

4 th year

30

( ii ) Tutorial /Practical :

15

( iii ) Total :

45

2. Names of lecturers contributing to the delivery of the course :


i Dr. Mohamed H.Gabr
ii iii iv v vi vii viii -

Course coordinator:

Dr. Mohamed H. gabr

External evaluator:

---- ---- ----

Course coordinator:
Signature:

Dr. Mohamed H. gabr

B- Statistical Information

No. of students attending the course:

184

Number

Percentage (%)

Students completing the course

182

98.91 %

Passed

172

94.51 %

Failed

10

5.48999999999999 %

Excellent

1.16 %

Very Good

22

12.79 %

Good

62

36.05 %

Pass

86

50 %

Results

Grading Of
successful students

C- Professional Information
1-- Course Teaching:

Topic

No. of
Hours

Lecturer

Engineering and management. Management 4DefinitionsDr.


andAshraf
levels.Ghorab
Managerial skills and roles

Strategic management. Strategic planning processes.


10
SWOT
Dr. Ashraf
analysis.
Ghorab
Personal and corporate s

Market and marketing definitions. Selling and


10 marketing.
Dr.Marketing
Mohamed principles
H. gabr and managemen

Changes and challenges to marketing. Marketin


6 planning.
Dr. Consumer
Mohamed behavior
H. gabr and market resea
------ ------ ------ ------ ------ ------

---- ----

------ ------ ------ ------

------ ------ ------ ------ ------ ------

---- ----

------ ------ ------ ------

------ ------ ------ ------ ------ ------

---- ----

------ ------ ------ ------

Course coordinator:
Signature:

Dr. Mohamed H. gabr

------ ------ ------ ------ ------ ------

---- ----

------ ------ ------ ------

------ ------ ------ ------ ------ ------

---- ----

------ ------ ------ ------

------ ------ ------ ------ ------ ------

---- ----

------ ------ ------ ------

------ ------ ------ ------ ------ ------

---- ----

------ ------ ------ ------

------ ------ ------ ------ ------ ------

---- ----

------ ------ ------ ------

------ ------ ------ ------ ------ ------

---- ----

------ ------ ------ ------

------ ------ ------ ------ ------ ------

---- ----

------ ------ ------ ------

------ ------ ------ ------ ------ ------

---- ----

------ ------ ------ ------

------ ------ ------ ------ ------ ------

---- ----

------ ------ ------ ------

------ ------ ------ ------ ------ ------

---- ----

------ ------ ------ ------

------ ------ ------ ------ ------ ------

---- ----

------ ------ ------ ------

------ ------ ------ ------ ------ ------

---- ----

------ ------ ------ ------

------ ------ ------ ------ ------ ------

---- ----

------ ------ ------ ------

------ ------ ------ ------ ------ ------

---- ----

------ ------ ------ ------

------ ------ ------ ------ ------ ------

---- ----

------ ------ ------ ------

------ ------ ------ ------ ------ ------

---- ----

------ ------ ------ ------

------ ------ ------ ------ ------ ------

---- ----

------ ------ ------ ------

------ ------ ------ ------ ------ ------

---- ----

------ ------ ------ ------

Course coordinator:
Signature:

Dr. Mohamed H. gabr

------ ------ ------ ------ ------ ------

---- ----

------ ------ ------ ------

------ ------ ------ ------ ------ ------

---- ----

------ ------ ------ ------

------ ------ ------ ------ ------ ------

---- ----

------ ------ ------ ------

------ ------ ------ ------ ------ ------

---- ----

------ ------ ------ ------

------ ------ ------ ------ ------ ------

---- ----

------ ------ ------ ------

------ ------ ------ ------ ------ ------

---- ----

------ ------ ------ ------

------ ------ ------ ------ ------ ------

---- ----

------ ------ ------ ------

------ ------ ------ ------ ------ ------

---- ----

------ ------ ------ ------

------ ------ ------ ------ ------ ------

---- ----

------ ------ ------ ------

Course coordinator:
Signature:

Dr. Mohamed H. gabr

Topics Taught as a percentage of the content specified

>90%

70% - 90%

<70 %

Reasons in detail for not teaching any topic

------ ------ ------ ------ ------ ------ ------ ------ ------ ------ ----- ------ ------ ------ ------ ------ ------ ------ ------ ------ ----- ------ ------ ------ ------ ------ ------ ------ ------ ------ ----------- ------ ------ ------ ------ ------ ------ ------ ------ ------ ----- ------ ------ ------ ------ ------ ------ ------ ------ ------ ---If any topics were taught which are not specified, give reasons in detail

------ ------ ------ ------ ------ ------ ------ ------ ------ ------ ----- ------ ------ ------ ------ ------ ------ ------ ------ ------ ----- ------ ------ ------ ------ ------ ------ ------ ------ ------ ----------- ------ ------ ------ ------ ------ ------ ------ ------ ------ ----- ------ ------ ------ ------ ------ ------ ------ ------ ------ ---2- Teaching and learning methods:

Lectures
Practical training/laboratory
Seminar/Workshop
Class Activity
Case Study:

Other assignments/homework
If teaching and learning methods were used other than, those specified, list and give reasons

Prepareb a market research for a selected marketing


problem

3- Student assessment:
Methods of assessment
Written examination

67 %

Oral examination

0%

Practical/laboratory work

0%

Other assignments/class work

33 %

Course coordinator:
Signature:

Percentage of total

Dr. Mohamed H. gabr

Members of examination committee

Dr. mohamed H. Gabr -Dr. Ashraf Gorab


Role of external evaluator:

------ ------ ------ ------ ------ -----4- Facilities and teaching materials:

Totally adequate
Adequate to some extent
Inadequate
List any inadequacies:

------ ------ ------ ------ ------ ------ ------ ------ ------ ----- ------ ------ ------ ------ ------ ------ ------ ------ ----- ------ ------ ------ ------ ------ ------ ------ ------ ----- ------ ---5-Administrative constraints:

------ ------ ------ ------ ------ ------ ------ ------ ------ ------ ----- ------ ------ ------ ------ ------ ------ ------ ------ ------ ----- ------ ------ ------ ------ ------ ------ ------ ------ ------ ----------- ------ ------ ------ ------ ------ ------ ------ ------ ------ ----- ------ ------ ------ ------ ------ ------ ------ ------ ------ ---6-Student evaluation of the course:
Response of course Team

Comment

------ ------ ------ ------ ------ ----------- ------ ------ ------ ------ -----

------ ------ ------ ------ ------ ----------- ------ ------ ------ ------ -----

------ ------ ------ ------ ------ ----------- ------ ------ ------ ------ -----

------ ------ ------ ------ ------ ----------- ------ ------ ------ ------ -----

------ ------ ------ ------ ------ ----------- ------ ------ ------ ------ -----

------ ------ ------ ------ ------ ----------- ------ ------ ------ ------ -----

------ ------ ------ ------ ------ ----------- ------ ------ ------ ------ -----

------ ------ ------ ------ ------ ----------- ------ ------ ------ ------ -----

Course coordinator:
Signature:

Dr. Mohamed H. gabr

7-Comments from external evaluator(s)


Comment

Response of course Team

------ ------ ------ ------ ------ ----------- ------ ------ ------ ------ ---------- ------ ------ ------ ------ ----------- ------ ------ ------ ------ ---------- ------ ------ ------ ------ ----------- ------ ------ ------ ------ ---------- ------ ------ ------ ------ ----------- ------ ------ ------ ------ -----

------ ------ ------ ------ ------ ----------- ------ ------ ------ ------ ---------- ------ ------ ------ ------ ----------- ------ ------ ------ ------ ---------- ------ ------ ------ ------ ----------- ------ ------ ------ ------ ---------- ------ ------ ------ ------ ----------- ------ ------ ------ ------ -----

8- Course enhancement: Progress on actions identified in the previous years action plan:

------ ------ ------ ------ ------ ------ ------ ------ ------ ------ ----- ------ ------ ------ ------ ------ ------ ------ ------ ------ ----- ------ ------ ------ ------ ------ ------ ------ ------ ------ ----------- ------ ------ ------ ------ ------ ------ ------ ------ ------ ----- ------ ------ ------ ------ ------ ------ ------ ------ ------ ---9- Action plan
Action required

Completion
date

Person responsible

------ ------ ------ ------ ------ ------ ---- ----

------ ------ ------ ------

------ ------ ------ ------ ------ ------ ---- ----

------ ------ ------ ------

------ ------ ------ ------ ------ ------ ---- ----

------ ------ ------ ------

------ ------ ------ ------ ------ ------ ---- ----

------ ------ ------ ------

------ ------ ------ ------ ------ ------ ---- ----

------ ------ ------ ------

Course coordinator:
Signature:

Dr. Mohamed H. gabr

QAU
FACULTY OF ENGINEERING
AIN SHAMS UNIVERSITY

Third Year

1 - 20226830947- 20226826639: 20226830947 - 20226826639: . 11517 :


1 El-Sarayat Street, Abbassia Cairo Egypt Tel : 202 26830947-26826639 Fax 202 26830947-26826639 P.O.B #11517

Course report of

Mechanics of Machines (1) - MDP251 2009/2010


University: Ain Shams

Faculty: Engineering

Basic Information
1. Title and code :
Mechanics of Machines (1) - MDP251

2. Programme on which the course is given :


Mechanical Engineering

3. Year/ Level of programmes :


1. Units/Credit Hours
( i ) Lecture :

2 st year

( ii ) Tutorial /Practical :

( iii ) Total :

2. Names of lecturers contributing to the delivery of the course :


i Prof. Dr. Taher Abo El Yazeed.
ii -

Dr. Hossam Dogheam

iii -

Dr. Ahmed Aly

iv -

-------------------------------

v -

-------------------------------

vi -

-------------------------------

vii -

-------------------------------

viii -

-------------------------------

Course coordinator:

Dr. Hossam Dogheam

External evaluator:

---- ---- ----

Course coordinator:
Signature:

Dr. Hossam Dogheam

B- Statistical Information

No. of students attending the course:

472

Number

Percentage (%)

Students completing the course

472

100 %

Passed

304

64.41 %

Failed

168

35.59 %

Excellent

1.32 %

Very Good

16

5.26 %

Good

41

13.49 %

Pass

243

79.93 %

Results

Grading Of
successful students

C- Professional Information
1-- Course Teaching:

Topic

No. of
Hours

Lecturer

Introduction, definition, and Basics of mechanisms,


11
Degrees
Dr. Hossam
of freedom,
Dogheam
Types of mechanisms

procating engine, Inversions of double slider mechanism

Dr. Hossam Dogheam

Motor vehicle steering mechanism

Dr. Hossam Dogheam

Hook's joint

Dr. Hossam Dogheam

Mechanisms Velocity Analysis

Dr. Hossam Dogheam

Mechanisms Acceleration Analysis

Dr. Hossam Dogheam

12

Dr. Hossam Dogheam

Dr. Hossam Dogheam

nalysis, Friction and inertia-effect, Center of percussion,


Flywheel and turning moment diagram
Course coordinator:
Signature:

Dr. Hossam Dogheam

Motion of followers, Cam profile and motion of followers

16

Dr. Hossam Dogheam

Gears: Types of gears, Gear geometry and gear trains.

16

Dr. Ahmed Aly

ng of the reciprocating engines and engine out of balance.

16

Dr. Ahmed Aly

Gyroscopes.

Dr. Ahmed Aly

------ ------ ------ ------ ------ ------

---- ----

------ ------ ------ ------

------ ------ ------ ------ ------ ------

---- ----

------ ------ ------ ------

------ ------ ------ ------ ------ ------

---- ----

------ ------ ------ ------

------ ------ ------ ------ ------ ------

---- ----

------ ------ ------ ------

------ ------ ------ ------ ------ ------

---- ----

------ ------ ------ ------

------ ------ ------ ------ ------ ------

---- ----

------ ------ ------ ------

------ ------ ------ ------ ------ ------

---- ----

------ ------ ------ ------

------ ------ ------ ------ ------ ------

---- ----

------ ------ ------ ------

------ ------ ------ ------ ------ ------

---- ----

------ ------ ------ ------

------ ------ ------ ------ ------ ------

---- ----

------ ------ ------ ------

------ ------ ------ ------ ------ ------

---- ----

------ ------ ------ ------

------ ------ ------ ------ ------ ------

---- ----

------ ------ ------ ------

------ ------ ------ ------ ------ ------

---- ----

------ ------ ------ ------

Course coordinator:
Signature:

Dr. Hossam Dogheam

------ ------ ------ ------ ------ ------

---- ----

------ ------ ------ ------

------ ------ ------ ------ ------ ------

---- ----

------ ------ ------ ------

------ ------ ------ ------ ------ ------

---- ----

------ ------ ------ ------

------ ------ ------ ------ ------ ------

---- ----

------ ------ ------ ------

------ ------ ------ ------ ------ ------

---- ----

------ ------ ------ ------

------ ------ ------ ------ ------ ------

---- ----

------ ------ ------ ------

------ ------ ------ ------ ------ ------

---- ----

------ ------ ------ ------

------ ------ ------ ------ ------ ------

---- ----

------ ------ ------ ------

------ ------ ------ ------ ------ ------

---- ----

------ ------ ------ ------

Course coordinator:
Signature:

Dr. Hossam Dogheam

Topics Taught as a percentage of the content specified

>90%

70% - 90%

<70 %

Reasons in detail for not teaching any topic

------ ------ ------ ------ ------ ------ ------ ------ ------ ------ ----- ------ ------ ------ ------ ------ ------ ------ ------ ------ ----- ------ ------ ------ ------ ------ ------ ------ ------ ------ ----------- ------ ------ ------ ------ ------ ------ ------ ------ ------ ----- ------ ------ ------ ------ ------ ------ ------ ------ ------ ---If any topics were taught which are not specified, give reasons in detail

------ ------ ------ ------ ------ ------ ------ ------ ------ ------ ----- ------ ------ ------ ------ ------ ------ ------ ------ ------ ----- ------ ------ ------ ------ ------ ------ ------ ------ ------ ----------- ------ ------ ------ ------ ------ ------ ------ ------ ------ ----- ------ ------ ------ ------ ------ ------ ------ ------ ------ ---2- Teaching and learning methods:

Lectures
Practical training/laboratory
Seminar/Workshop
Class Activity
Case Study:

Other assignments/homework
If teaching and learning methods were used other than, those specified, list and give reasons

------ ------ ------ ------ ------ ------ ------ ------ ------ ----- ------ ------ ------ ------ ------ ------ ------ ------ ----- ------ ------ ------ ------ ------ ------ ------ ------ ----- ------ ---3- Student assessment:
Methods of assessment
Written examination

70 %

Oral examination

0%

Practical/laboratory work

15 %

Other assignments/class work

15 %

Course coordinator:
Signature:

Percentage of total

Dr. Hossam Dogheam

Members of examination committee

------ ------ ------ ------ ------ -----Role of external evaluator:

------ ------ ------ ------ ------ -----4- Facilities and teaching materials:

Totally adequate
Adequate to some extent
Inadequate
List any inadequacies:

------ ------ ------ ------ ------ ------ ------ ------ ------ ----- ------ ------ ------ ------ ------ ------ ------ ------ ----- ------ ------ ------ ------ ------ ------ ------ ------ ----- ------ ---5-Administrative constraints:

------ ------ ------ ------ ------ ------ ------ ------ ------ ------ ----- ------ ------ ------ ------ ------ ------ ------ ------ ------ ----- ------ ------ ------ ------ ------ ------ ------ ------ ------ ----------- ------ ------ ------ ------ ------ ------ ------ ------ ------ ----- ------ ------ ------ ------ ------ ------ ------ ------ ------ ---6-Student evaluation of the course:
Response of course Team

Comment

------ -----

------ ------ ------ ------ ------ ----------- ------ ------ ------ ------ -----

------ ------ ------ ------ ------ -----

------ ------ ------ ------ ------ ----------- ------ ------ ------ ------ -----

------ ------ ------ ------ ------ ----------- ------ ------ ------ ------ -----

------ ------ ------ ------ ------ ----------- ------ ------ ------ ------ -----

------ ------ ------ ------ ------ -----

------ ------ ------ ------ ------ ----------- ------ ------ ------ ------ -----

Course coordinator:
Signature:

Dr. Hossam Dogheam

7-Comments from external evaluator(s)


Comment

Response of course Team

------ ------ ------ ------ ------ ----------- ------ ------ ------ ------ ---------- ------ ------ ------ ------ ----------- ------ ------ ------ ------ ---------- ------ ------ ------ ------ ----------- ------ ------ ------ ------ ---------- ------ ------ ------ ------ ----------- ------ ------ ------ ------ -----

------ ------ ------ ------ ------ ----------- ------ ------ ------ ------ ---------- ------ ------ ------ ------ ----------- ------ ------ ------ ------ ---------- ------ ------ ------ ------ ----------- ------ ------ ------ ------ ---------- ------ ------ ------ ------ ----------- ------ ------ ------ ------ -----

8- Course enhancement: Progress on actions identified in the previous years action plan:

------ ------ ------ ------ ------ ------ ------ ------ ------ ------ ----- ------ ------ ------ ------ ------ ------ ------ ------ ------ ----- ------ ------ ------ ------ ------ ------ ------ ------ ------ ----------- ------ ------ ------ ------ ------ ------ ------ ------ ------ ----- ------ ------ ------ ------ ------ ------ ------ ------ ------ ---9- Action plan
Action required

Completion
date

Person responsible

------ ------ ------ ------ ------ ------ ---- ----

------ ------ ------ ------

------ ------ ------ ------ ------ ------ ---- ----

------ ------ ------ ------

------ ------ ------ ------ ------ ------ ---- ----

------ ------ ------ ------

------ ------ ------ ------ ------ ------ ---- ----

------ ------ ------ ------

------ ------ ------ ------ ------ ------ ---- ----

------ ------ ------ ------

Course coordinator:
Signature:

Dr. Hossam Dogheam

Course report of

Electrical Engineering - EPM212 2009/2010


University: Ain Shams

Faculty: Engineering

Basic Information
1. Title and code :
Electrical Engineering - EPM212
2. Programme on which the course is given :
Second year ,Mechanical Department
3. Year/ Level of programmes :

1. Units/Credit Hours
( i ) Lecture :

3rd year, First semester

2 hours per week

( ii ) Tutorial /Practical :

2 hours per week

( iii ) Total :

2. Names of lecturers contributing to the delivery of the course :


i Prof. Dr. Mahmoud Abd El-hamed Mostafa
ii -

Dr. Salem M. Al-Khodary

iii -

Dr. Walid Helmy

iv v vi vii viii -

Course coordinator:

Prof. Dr. Mahmoud Abd El-hamed Mostafa

External evaluator:

Course coordinator:
Signature:

Prof. Dr. Mahmoud Abd El-hamed Mostafa

B- Statistical Information

No. of students attending the course:

452

Number

Percentage (%)

Students completing the course

452

100 %

Passed

355

78.54 %
78

Failed

97

21.46 %
21

Excellent

.28 %

Very Good

14

3.94 %

Good

47

13.24 %
13

Pass

293

82.54 %
82

Results

Grading Of
successful students

C- Professional Information
1-- Course Teaching:

Topic

No. of
Hours

Lecturer

Revision

Prof. Dr. Mahmoud Abd El

Power system

Prof. Dr. Mahmoud Abd El

Magnetic Field laws

Prof. Dr. Mahmoud Abd El

Permeability and magnetic field intenity

Prof. Dr. Mahmoud Abd El

Magnetic circuits

Prof. Dr. Mahmoud Abd El

Hysteresis loop

Prof. Dr. Mahmoud Abd El

Eddy current and core loses

Prof. Dr. Mahmoud Abd El

Course coordinator:
Signature:

Prof. Dr. Mahmoud Abd El-hamed Mostafa

Two phase system

Prof. Dr. Mahmoud Abd El

Three phase voltage generation

Prof. Dr. Mahmoud Abd El

Three phase generator winding connecion 2

Prof. Dr. Mahmoud Abd El

Balanced three phase Y connected loads

Prof. Dr. Mahmoud Abd El

One line equivalent circuit for balanced loads


2

Prof. Dr. Mahmoud Abd El

Balanced three phase delta connected loads2

Prof. Dr. Mahmoud Abd El

Unbalanced delta connected loads

Prof. Dr. Mahmoud Abd El

Unbalanced four wire Y connected loads 2

Prof. Dr. Mahmoud Abd El

Unbalanced three wire Y connected loads 2

Prof. Dr. Mahmoud Abd El

DC Machines

Dr. Salem M. Al-Khodary

Transformers

Dr. Walid Helmy

Course coordinator:
Signature:

Prof. Dr. Mahmoud Abd El-hamed Mostafa

Topics Taught as a percentage of the content specified

>90%

70% - 90%

<70 %

Reasons in detail for not teaching any topic

If any topics were taught which are not specified, give reasons in detail

2- Teaching and learning methods:


Lectures
Practical training/laboratory
Seminar/Workshop
Class Activity
Case Study:
Other assignments/homework
If teaching and learning methods were used other than, those specified, list and give reasons

3- Student assessment:
Methods of assessment
Written examination

0%

Oral examination

0%

Practical/laboratory work

0%

Other assignments/class work

0%

Course coordinator:
Signature:

Percentage of total

Prof. Dr. Mahmoud Abd El-hamed Mostafa

Members of examination committee

Mahmoud Abd El-hamed Mostafa / Salem M. Al-Khodary / Walid Helmy


Role of external evaluator:

4- Facilities and teaching materials:


Totally adequate
Adequate to some extent
Inadequate
List any inadequacies:

5-Administrative constraints:

6-Student evaluation of the course:


Comment

Course coordinator:
Signature:

Response of course Team

Prof. Dr. Mahmoud Abd El-hamed Mostafa

7-Comments from external evaluator(s)


Comment

Response of course Team

8- Course enhancement: Progress on actions identified in the previous years action plan:

9- Action plan
Action required

Course coordinator:
Signature:

Completion
date

Prof. Dr. Mahmoud Abd El-hamed Mostafa

Person responsible

Course report of

Stress Analysis - MDP221 2009/2010


University: Ain Shams

Faculty: Engineering

Basic Information
1. Title and code :
Stress Analysis - MDP221

2. Programme on which the course is given :


All Mechanical Engineering Programmes

3. Year/ Level of programmes :


1. Units/Credit Hours
( i ) Lecture :

Third Year/First semester

( ii ) Tutorial /Practical :

( iii ) Total :

2. Names of lecturers contributing to the delivery of the course :


i Dr. Wagdy Eldesouky
ii iii -

-------------------------------

iv -

-------------------------------

v -

-------------------------------

vi -

-------------------------------

vii -

-------------------------------

viii -

-------------------------------

Course coordinator:

Dr. Wagdy Eldesouky ---------

External evaluator:

---- ---- ----

Course coordinator:
Signature:

Dr. Wagdy Eldesouky ---------

B- Statistical Information

No. of students attending the course:

451

Number

Percentage (%)

Students completing the course

451

100 %

Passed

362

80.27 %

Failed

89

19.73 %

Excellent

19

5.25 %

Very Good

27

7.46 %

Good

72

19.89 %

Pass

244

67.4 %

Results

Grading Of
successful students

C- Professional Information
1-- Course Teaching:

Topic

No. of
Hours

Lecturer

Properties of areas

Dr. Wagdy Eldesouky

Combined stresses and Mohr's circle

Dr. Wagdy Eldesouky

Theories of elastic failure

Dr. Wagdy Eldesouky

Transmission shafts

Dr. Wagdy Eldesouky

Slopes and deflections

Dr. Wagdy Eldesouky

Strains and Deformations

Dr. Wagdy Eldesouky

Statically indeterminate beams

Dr. Wagdy Eldesouky

Flexural analysis of curved beams

Dr. Wagdy Eldesouky

Course coordinator:
Signature:

Dr. Wagdy Eldesouky ---------

Thin shell pressure vessels

Dr. Wagdy Eldesouky

Thick cylinders

Dr. Wagdy Eldesouky

Buckling of compression members

Dr. Wagdy Eldesouky

Dr. Wagdy Eldesouky

------ ------ ------ ------ ------ ------

---- ----

------ ------ ------ ------

------ ------ ------ ------ ------ ------

---- ----

------ ------ ------ ------

------ ------ ------ ------ ------ ------

---- ----

------ ------ ------ ------

------ ------ ------ ------ ------ ------

---- ----

------ ------ ------ ------

------ ------ ------ ------ ------ ------

---- ----

------ ------ ------ ------

------ ------ ------ ------ ------ ------

---- ----

------ ------ ------ ------

------ ------ ------ ------ ------ ------

---- ----

------ ------ ------ ------

------ ------ ------ ------ ------ ------

---- ----

------ ------ ------ ------

------ ------ ------ ------ ------ ------

---- ----

------ ------ ------ ------

------ ------ ------ ------ ------ ------

---- ----

------ ------ ------ ------

------ ------ ------ ------ ------ ------

---- ----

------ ------ ------ ------

------ ------ ------ ------ ------ ------

---- ----

------ ------ ------ ------

------ ------ ------ ------ ------ ------

---- ----

------ ------ ------ ------

Thermal stresses in bars, plates, pistons and cylinders

Course coordinator:
Signature:

Dr. Wagdy Eldesouky ---------

------ ------ ------ ------ ------ ------

---- ----

------ ------ ------ ------

------ ------ ------ ------ ------ ------

---- ----

------ ------ ------ ------

------ ------ ------ ------ ------ ------

---- ----

------ ------ ------ ------

------ ------ ------ ------ ------ ------

---- ----

------ ------ ------ ------

------ ------ ------ ------ ------ ------

---- ----

------ ------ ------ ------

------ ------ ------ ------ ------ ------

---- ----

------ ------ ------ ------

------ ------ ------ ------ ------ ------

---- ----

------ ------ ------ ------

------ ------ ------ ------ ------ ------

---- ----

------ ------ ------ ------

------ ------ ------ ------ ------ ------

---- ----

------ ------ ------ ------

Course coordinator:
Signature:

Dr. Wagdy Eldesouky ---------

Topics Taught as a percentage of the content specified

>90%

70% - 90%

<70 %

Reasons in detail for not teaching any topic

------ ------ ------ ------ ------ ------ ------ ------ ------ ------ ----- ------ ------ ------ ------ ------ ------ ------ ------ ------ ----- ------ ------ ------ ------ ------ ------ ------ ------ ------ ----------- ------ ------ ------ ------ ------ ------ ------ ------ ------ ----- ------ ------ ------ ------ ------ ------ ------ ------ ------ ---If any topics were taught which are not specified, give reasons in detail

------ ------ ------ ------ ------ ------ ------ ------ ------ ------ ----- ------ ------ ------ ------ ------ ------ ------ ------ ------ ----- ------ ------ ------ ------ ------ ------ ------ ------ ------ ----------- ------ ------ ------ ------ ------ ------ ------ ------ ------ ----- ------ ------ ------ ------ ------ ------ ------ ------ ------ ---2- Teaching and learning methods:

Lectures
Practical training/laboratory
Seminar/Workshop
Class Activity
Case Study:

Other assignments/homework
If teaching and learning methods were used other than, those specified, list and give reasons

------ ------ ------ ------ ------ ------ ------ ------ ------ ----- ------ ------ ------ ------ ------ ------ ------ ------ ----- ------ ------ ------ ------ ------ ------ ------ ------ ----- ------ ---3- Student assessment:
Methods of assessment
Written examination

70%

Oral examination

0%

Practical/laboratory work

15 %

Other assignments/class work

15%

Course coordinator:
Signature:

Percentage of total

Dr. Wagdy Eldesouky ---------

Members of examination committee

------ ------ ------ ------ ------ -----Role of external evaluator:

------ ------ ------ ------ ------ -----4- Facilities and teaching materials:

Totally adequate
Adequate to some extent
Inadequate
List any inadequacies:

------ ------ ------ ------ ------ ------ ------ ------ ------ ----- ------ ------ ------ ------ ------ ------ ------ ------ ----- ------ ------ ------ ------ ------ ------ ------ ------ ----- ------ ---5-Administrative constraints:

------ ------ ------ ------ ------ ------ ------ ------ ------ ------ ----- ------ ------ ------ ------ ------ ------ ------ ------ ------ ----- ------ ------ ------ ------ ------ ------ ------ ------ ------ ----------- ------ ------ ------ ------ ------ ------ ------ ------ ------ ----- ------ ------ ------ ------ ------ ------ ------ ------ ------ ---6-Student evaluation of the course:
Response of course Team

Comment

no comment

------ ------ ------ ------ ------ ----------- ------ ------ ------ ------ -----

------ ------ ------ ------ ------ ----------- ------ ------ ------ ------ -----

------ ------ ------ ------ ------ ----------- ------ ------ ------ ------ -----

------ ------ ------ ------ ------ ----------- ------ ------ ------ ------ -----

------ ------ ------ ------ ------ ----------- ------ ------ ------ ------ -----

------ ------ ------ ------ ------ ----------- ------ ------ ------ ------ -----

------ ------ ------ ------ ------ ----------- ------ ------ ------ ------ -----

Course coordinator:
Signature:

Dr. Wagdy Eldesouky ---------

7-Comments from external evaluator(s)


Comment

Response of course Team

------ ------ ------ ------ ------ ----------- ------ ------ ------ ------ ---------- ------ ------ ------ ------ ----------- ------ ------ ------ ------ ---------- ------ ------ ------ ------ ----------- ------ ------ ------ ------ ---------- ------ ------ ------ ------ ----------- ------ ------ ------ ------ -----

------ ------ ------ ------ ------ ----------- ------ ------ ------ ------ ---------- ------ ------ ------ ------ ----------- ------ ------ ------ ------ ---------- ------ ------ ------ ------ ----------- ------ ------ ------ ------ ---------- ------ ------ ------ ------ ----------- ------ ------ ------ ------ -----

8- Course enhancement: Progress on actions identified in the previous years action plan:

------ ------ ------ ------ ------ ------ ------ ------ ------ ------ ----- ------ ------ ------ ------ ------ ------ ------ ------ ------ ----- ------ ------ ------ ------ ------ ------ ------ ------ ------ ----------- ------ ------ ------ ------ ------ ------ ------ ------ ------ ----- ------ ------ ------ ------ ------ ------ ------ ------ ------ ---9- Action plan
Action required

Completion
date

Person responsible

------ ------ ------ ------ ------ ------ ---- ----

------ ------ ------ ------

------ ------ ------ ------ ------ ------ ---- ----

------ ------ ------ ------

------ ------ ------ ------ ------ ------ ---- ----

------ ------ ------ ------

------ ------ ------ ------ ------ ------ ---- ----

------ ------ ------ ------

------ ------ ------ ------ ------ ------ ---- ----

------ ------ ------ ------

Course coordinator:
Signature:

Dr. Wagdy Eldesouky ---------

Course report of

Thermodynamics (2) - MEP212 2009/2010


University: Ain Shams

Faculty: Engineering

Basic Information
1. Title and code :
Thermodynamics (2) - MEP212

2. Programme on which the course is given :


BSc in Mech. Eng.

3. Year/ Level of programmes :


1. Units/Credit Hours
( i ) Lecture :

3 rd year

( ii ) Tutorial /Practical :

( iii ) Total :

2. Names of lecturers contributing to the delivery of the course :


i Dr. Ahmrd El-Assy
ii -

Dr. Nashwa Abbas

iii -

Dr. Ahmed Nabil El-Sheemy

iv -

-------------------------------

v -

-------------------------------

vi -

-------------------------------

vii -

-------------------------------

viii -

-------------------------------

Course coordinator:

Dr. Ahmed El-Assy

External evaluator:

---- ---- ----

Course coordinator:
Signature:

Dr. Ahmed El-Assy

B- Statistical Information

No. of students attending the course:

498

Number

Percentage (%)

Students completing the course

498

100 %

Passed

422

84.74 %

Failed

76

15.26 %

Excellent

.47 %

Very Good

19

4.5 %

Good

72

17.06 %

Pass

329

77.96 %

Results

Grading Of
successful students

C- Professional Information
1-- Course Teaching:

Topic

No. of
Hours

Lecturer

Carnot Cycle, Clausius inequality, Entropy 12

Dr. Nashwa, Dr.Ahmed Nabil

Second Law, Engine and heat pump

Dr. Nashwa, Dr.Ahmed Nabil

Irreversibility, reversible work and Exergy8

Dr. Nashwa, Dr.Ahmed Nabil

Thrmodynamic Cycles

12

Dr. Nashwa, Dr.Ahmed El

Thermodynamic Relations

Dr.Ahmed El-Assy

------ ------ ------ ------ ------ ------

---- ----

------ ------ ------ ------

------ ------ ------ ------ ------ ------

---- ----

------ ------ ------ ------

Course coordinator:
Signature:

Dr. Ahmed El-Assy

------ ------ ------ ------ ------ ------

---- ----

------ ------ ------ ------

------ ------ ------ ------ ------ ------

---- ----

------ ------ ------ ------

------ ------ ------ ------ ------ ------

---- ----

------ ------ ------ ------

------ ------ ------ ------ ------ ------

---- ----

------ ------ ------ ------

------ ------ ------ ------ ------ ------

---- ----

------ ------ ------ ------

------ ------ ------ ------ ------ ------

---- ----

------ ------ ------ ------

------ ------ ------ ------ ------ ------

---- ----

------ ------ ------ ------

------ ------ ------ ------ ------ ------

---- ----

------ ------ ------ ------

------ ------ ------ ------ ------ ------

---- ----

------ ------ ------ ------

------ ------ ------ ------ ------ ------

---- ----

------ ------ ------ ------

------ ------ ------ ------ ------ ------

---- ----

------ ------ ------ ------

------ ------ ------ ------ ------ ------

---- ----

------ ------ ------ ------

------ ------ ------ ------ ------ ------

---- ----

------ ------ ------ ------

------ ------ ------ ------ ------ ------

---- ----

------ ------ ------ ------

------ ------ ------ ------ ------ ------

---- ----

------ ------ ------ ------

------ ------ ------ ------ ------ ------

---- ----

------ ------ ------ ------

------ ------ ------ ------ ------ ------

---- ----

------ ------ ------ ------

------ ------ ------ ------ ------ ------

---- ----

------ ------ ------ ------

Course coordinator:
Signature:

Dr. Ahmed El-Assy

------ ------ ------ ------ ------ ------

---- ----

------ ------ ------ ------

------ ------ ------ ------ ------ ------

---- ----

------ ------ ------ ------

------ ------ ------ ------ ------ ------

---- ----

------ ------ ------ ------

------ ------ ------ ------ ------ ------

---- ----

------ ------ ------ ------

------ ------ ------ ------ ------ ------

---- ----

------ ------ ------ ------

------ ------ ------ ------ ------ ------

---- ----

------ ------ ------ ------

------ ------ ------ ------ ------ ------

---- ----

------ ------ ------ ------

------ ------ ------ ------ ------ ------

---- ----

------ ------ ------ ------

------ ------ ------ ------ ------ ------

---- ----

------ ------ ------ ------

Course coordinator:
Signature:

Dr. Ahmed El-Assy

Topics Taught as a percentage of the content specified

>90%

70% - 90%

<70 %

Reasons in detail for not teaching any topic

------ ------ ------ ------ ------ ------ ------ ------ ------ ------ ----- ------ ------ ------ ------ ------ ------ ------ ------ ------ ----- ------ ------ ------ ------ ------ ------ ------ ------ ------ ----------- ------ ------ ------ ------ ------ ------ ------ ------ ------ ----- ------ ------ ------ ------ ------ ------ ------ ------ ------ ---If any topics were taught which are not specified, give reasons in detail

------ ------ ------ ------ ------ ------ ------ ------ ------ ------ ----- ------ ------ ------ ------ ------ ------ ------ ------ ------ ----- ------ ------ ------ ------ ------ ------ ------ ------ ------ ----------- ------ ------ ------ ------ ------ ------ ------ ------ ------ ----- ------ ------ ------ ------ ------ ------ ------ ------ ------ ---2- Teaching and learning methods:

Lectures
Practical training/laboratory
Seminar/Workshop
Class Activity
Case Study:

Other assignments/homework
If teaching and learning methods were used other than, those specified, list and give reasons

------ ------ ------ ------ ------ ------ ------ ------ ------ ----- ------ ------ ------ ------ ------ ------ ------ ------ ----- ------ ------ ------ ------ ------ ------ ------ ------ ----- ------ ---3- Student assessment:
Methods of assessment
Written examination

60 %

Oral examination

20 %

Practical/laboratory work

0%

Other assignments/class work

20 %

Course coordinator:
Signature:

Percentage of total

Dr. Ahmed El-Assy

Members of examination committee

Dr El-Assy, Dr Nashwa, Dr Ahmed Nabil


Role of external evaluator:

------ ------ ------ ------ ------ -----4- Facilities and teaching materials:

Totally adequate
Adequate to some extent
Inadequate
List any inadequacies:

Need Proper Lab

5-Administrative constraints:

------ ------ ------ ------ ------ ------ ------ ------ ------ ------ ----- ------ ------ ------ ------ ------ ------ ------ ------ ------ ----- ------ ------ ------ ------ ------ ------ ------ ------ ------ ----------- ------ ------ ------ ------ ------ ------ ------ ------ ------ ----- ------ ------ ------ ------ ------ ------ ------ ------ ------ ---6-Student evaluation of the course:
Response of course Team

Comment

------ ------ ------ ------ ------ ----------- ------ ------ ------ ------ -----

------ ------ ------ ------ ------ ----------- ------ ------ ------ ------ -----

------ ------ ------ ------ ------ ----------- ------ ------ ------ ------ -----

------ ------ ------ ------ ------ ----------- ------ ------ ------ ------ -----

------ ------ ------ ------ ------ ----------- ------ ------ ------ ------ -----

------ ------ ------ ------ ------ ----------- ------ ------ ------ ------ -----

------ ------ ------ ------ ------ ----------- ------ ------ ------ ------ -----

------ ------ ------ ------ ------ ----------- ------ ------ ------ ------ -----

Course coordinator:
Signature:

Dr. Ahmed El-Assy

7-Comments from external evaluator(s)


Comment

Response of course Team

------ ------ ------ ------ ------ ----------- ------ ------ ------ ------ ---------- ------ ------ ------ ------ ----------- ------ ------ ------ ------ ---------- ------ ------ ------ ------ ----------- ------ ------ ------ ------ ---------- ------ ------ ------ ------ ----------- ------ ------ ------ ------ -----

------ ------ ------ ------ ------ ----------- ------ ------ ------ ------ ---------- ------ ------ ------ ------ ----------- ------ ------ ------ ------ ---------- ------ ------ ------ ------ ----------- ------ ------ ------ ------ ---------- ------ ------ ------ ------ ----------- ------ ------ ------ ------ -----

8- Course enhancement: Progress on actions identified in the previous years action plan:

------ ------ ------ ------ ------ ------ ------ ------ ------ ------ ----- ------ ------ ------ ------ ------ ------ ------ ------ ------ ----- ------ ------ ------ ------ ------ ------ ------ ------ ------ ----------- ------ ------ ------ ------ ------ ------ ------ ------ ------ ----- ------ ------ ------ ------ ------ ------ ------ ------ ------ ---9- Action plan
Action required

Completion
date

Person responsible

------ ------ ------ ------ ------ ------ ---- ----

------ ------ ------ ------

------ ------ ------ ------ ------ ------ ---- ----

------ ------ ------ ------

------ ------ ------ ------ ------ ------ ---- ----

------ ------ ------ ------

------ ------ ------ ------ ------ ------ ---- ----

------ ------ ------ ------

------ ------ ------ ------ ------ ------ ---- ----

------ ------ ------ ------

Course coordinator:
Signature:

Dr. Ahmed El-Assy

Course report of

Fluid Dynamics - MEP231 2009/2010


University: Ain Shams

Faculty: Engineering

Basic Information
1. Title and code :
Fluid Dynamics - MEP231

2. Programme on which the course is given :


Mechanical Power Engineering

3. Year/ Level of programmes :


1. Units/Credit Hours
( i ) Lecture :

3 th year

( ii ) Tutorial /Practical :

( iii ) Total :

2. Names of lecturers contributing to the delivery of the course :


i Prof Dr Mohamed A. El-Samanoudy
ii -

Dr. Yasser EL-Fangary-------------------------------

iii -

Dr. Mahmoud Kamal-------------------------------

iv -

-------------------------------

v -

-------------------------------

vi -

-------------------------------

vii -

-------------------------------

viii -

-------------------------------

Course coordinator:

Prof M.. El-Samanoudy

External evaluator:

Prof Dr Hani Ahmad Munib, Helwan University---- ----

Course coordinator:
Signature:

Prof M.. El-Samanoudy

B- Statistical Information

No. of students attending the course:

466

Number

Percentage (%)

Students completing the course

466

100 %

Passed

373

80.04 %

Failed

93

19.96 %

Excellent

12

3.22 %

Very Good

26

6.97 %

Good

50

13.4 %

Pass

285

76.41 %

Results

Grading Of
successful students

C- Professional Information
1-- Course Teaching:

Topic

No. of
Hours

Lecturer

1-Fundamental Concepts: F. Properties-- 8

Dr. Yasser EL-Fangary

2-Fluid Statics.

16

Dr. Yasser EL-Fangary

3-Basic Equationsof Fluid Mechanics------14

Dr. Yasser EL-Fangary

4-Dimensional Analysis and Similitude.

Dr. Mahmoud Kamal

5-Flow in Closed Conduits.

22

Dr. Yasser EL-Fangary

6- Compressible Flow------ ------ ------ 12

Prof Dr M.El-Samanoudy------

7- Flow Over Immersed Bodies----- ------ 10

Prof Dr M.El-Samanoudy------

Course coordinator:
Signature:

Prof M.. El-Samanoudy

------ ------ ------ ------ ------ ------

---- ----

------ ------ ------ ------

------ ------ ------ ------ ------ ------

---- ----

------ ------ ------ ------

------ ------ ------ ------ ------ ------

---- ----

------ ------ ------ ------

------ ------ ------ ------ ------ ------

---- ----

------ ------ ------ ------

------ ------ ------ ------ ------ ------

---- ----

------ ------ ------ ------

------ ------ ------ ------ ------ ------

---- ----

------ ------ ------ ------

------ ------ ------ ------ ------ ------

---- ----

------ ------ ------ ------

---- ----

------ ------ ------ ------

------ ------ ------ ------ ------ ------

---- ----

------ ------ ------ ------

------ ------ ------ ------ ------ ------

---- ----

------ ------ ------ ------

------ ------ ------ ------ ------ ------

---- ----

------ ------ ------ ------

------ ------ ------ ------ ------ ------

---- ----

------ ------ ------ ------

------ ------ ------ ------ ------ ------

---- ----

------ ------ ------ ------

------ ------ ------ ------ ------ ------

---- ----

------ ------ ------ ------

------ ------ ------ ------ ------ ------

---- ----

------ ------ ------ ------

------ ------ ------ ------ ------ ------

---- ----

------ ------ ------ ------

------ ------ ------ ------ ------ ------

---- ----

------ ------ ------ ------

------ ------ ------ ------ ------ ------

---- ----

------ ------ ------ ------

Course coordinator:
Signature:

Prof M.. El-Samanoudy

------ ------ ------ ------ ------ ------

---- ----

------ ------ ------ ------

------ ------ ------ ------ ------ ------

---- ----

------ ------ ------ ------

------ ------ ------ ------ ------ ------

---- ----

------ ------ ------ ------

------ ------ ------ ------ ------ ------

---- ----

------ ------ ------ ------

------ ------ ------ ------ ------ ------

---- ----

------ ------ ------ ------

------ ------ ------ ------ ------ ------

---- ----

------ ------ ------ ------

------ ------ ------ ------ ------ ------

---- ----

------ ------ ------ ------

------ ------ ------ ------ ------ ------

---- ----

------ ------ ------ ------

------ ------ ------ ------ ------ ------

---- ----

------ ------ ------ ------

Course coordinator:
Signature:

Prof M.. El-Samanoudy

Topics Taught as a percentage of the content specified

>90%

70% - 90%

<70 %

Reasons in detail for not teaching any topic

-A small chapter on Inviscid flow-,as found requires extra


time ------ ------ ------ ------ ------ ------ ------ ------ ------ ----- ------ ------ ------ ------ ------ ------ ------ ------ ------ ----------- ------ ------ ------ ------ ------ ------ ------ ------ ------ ----- ------ ------ ------ ------ ------ ------ ---If any topics were taught which are not specified, give reasons in detail

------ ------ ------ ------ ------ ------ ------ ------ ------ ------ ----N/a------ ------ ------ ------ ------ ------ ------ ------ ------ ----- ------ ------ ------ ------ ------ ------ ------ ------ ------ ----------- ------ ------ ------ ------ ------ ------ ------ ------ ------ ----- ------ ------ ------ ------ ------ ------ ------ ---2- Teaching and learning methods:

Lectures
Practical training/laboratory
Seminar/Workshop
Class Activity
Case Study:

Other assignments/homework
If teaching and learning methods were used other than, those specified, list and give reasons

- ----

3- Student assessment:
Methods of assessment
Written examination

60%

Oral examination

20%

Practical/laboratory work

10%

Other assignments/class work

10%

Course coordinator:
Signature:

Percentage of total

Prof M.. El-Samanoudy

Members of examination committee

Prof M.El-Samanoudy, Dr.Yasser El-Fangary, DrMahmoud Kamal &.


Role of external evaluator:

------ ------ ------ ------ ------ -----4- Facilities and teaching materials:

Totally adequate
Adequate to some extent
Inadequate
List any inadequacies:

Some Test rigs and experimental equipments with


instumentation are to be supplied to replace old ones and to
complete tle laboratory furnishing of items needed.
5-Administrative constraints:

slow and very limited cooperation to help furnishing the required


items. ------ ------ ------ ------ ------ ------ ------ ------ ------ ----- ------ -------- ------ ------ ------ ------ ------ ------ ------ ----- ------ ------ ------ ------ ------ ------ ------ ------ ------ ----- ------ ------ ------ ------ ------ ------ ------ ------ ------ --------6-Student evaluation of the course:
Response of course Team

Comment

I have not got the evaluation .


Probably ,it is not not made fot
Acopy of the student comments is

---No
comment--- ------ ------ ------ ----- ------ ------ ------ ------ ------ ----

------ ------ ------ ------ ------ ----------- ------ ------ ------ ------ -----

------ ------ ------ ------ ------ ----------- ------ ------ ------ ------ -----

------ ------ ------ ------ ------ ----------- ------ ------ ------ ------ -----

------ ------ ------ ------ ------ ----------- ------ ------ ------ ------ -----

------ ------ ------ ------ ------ ----------- ------ ------ ------ ------ -----

------ ------ ------ ------ ------ ----------- ------ ------ ------ ------ -----

Course coordinator:
Signature:

Prof M.. El-Samanoudy

7-Comments from external evaluator(s)


Comment

Response of course Team

None--- ------ ------ ------ ------ ----- ------ ------ ------ ------ ------ ------- ------ ------ ------ ------ ----------- ------ ------ ------ ------ ---------- ------ ------ ------ ------ ----------- ------ ------ ------ ------ ---------- ------ ------ ------ ------ ----------- ------ ------ ------ ------ -----

------ ------ ------ ------ ------ ----------- ------ ------ ------ ------ ---------- ------ ------ ------ ------ ----------- ------ ------ ------ ------ ---------- ------ ------ ------ ------ ----------- ------ ------ ------ ------ ---------- ------ ------ ------ ------ ----------- ------ ------ ------ ------ -----

8- Course enhancement: Progress on actions identified in the previous years action plan:

------ ------ ------ ------ ------ ------ ------ ------ ------ ------ ----- ------ ------ ------ ------ ------ ------ ------ ------ ------ ----- ------ ------ ------ ------ ------ ------ ------ ------ ------ ----------- ------ ------ ------ ------ ------ ------ ------ ------ ------ ----- ------ ------ ------ ------ ------ ------ ------ ------ ------ ---9- Action plan
Action required

Completion
date

Person responsible

Furnishing required laboratory equipments.


soon

The Head of the department and the Fa

------ ------ ------ ------ ------ ------ ---- ----

------ ------ ------ ------

------ ------ ------ ------ ------ ------ ---- ----

------ ------ ------ ------

------ ------ ------ ------ ------ ------ ---- ----

------ ------ ------ ------

------ ------ ------ ------ ------ ------ ---- ----

------ ------ ------ ------

Course coordinator:
Signature:

Prof M.. El-Samanoudy

Course report of

Mechanics of Machines (1) - MDP251 2009/2010


University: Ain Shams

Faculty: Engineering

Basic Information
1. Title and code :
Mechanics of Machines (1) - MDP251

2. Programme on which the course is given :


Mechanical Engineering

3. Year/ Level of programmes :


1. Units/Credit Hours
( i ) Lecture :

2 st year

( ii ) Tutorial /Practical :

( iii ) Total :

2. Names of lecturers contributing to the delivery of the course :


i Prof. Dr. Taher Abo El Yazeed.
ii -

Dr. Hossam Dogheam

iii -

Dr. Ahmed Aly

iv -

-------------------------------

v -

-------------------------------

vi -

-------------------------------

vii -

-------------------------------

viii -

-------------------------------

Course coordinator:

Dr. Hossam Dogheam

External evaluator:

---- ---- ----

Course coordinator:
Signature:

Dr. Hossam Dogheam

B- Statistical Information

No. of students attending the course:

472

Number

Percentage (%)

Students completing the course

472

100 %

Passed

304

64.41 %

Failed

168

35.59 %

Excellent

1.32 %

Very Good

16

5.26 %

Good

41

13.49 %

Pass

243

79.93 %

Results

Grading Of
successful students

C- Professional Information
1-- Course Teaching:

Topic

No. of
Hours

Lecturer

Introduction, definition, and Basics of mechanisms,


11
Degrees
Dr. Hossam
of freedom,
Dogheam
Types of mechanisms

procating engine, Inversions of double slider mechanism

Dr. Hossam Dogheam

Motor vehicle steering mechanism

Dr. Hossam Dogheam

Hook's joint

Dr. Hossam Dogheam

Mechanisms Velocity Analysis

Dr. Hossam Dogheam

Mechanisms Acceleration Analysis

Dr. Hossam Dogheam

12

Dr. Hossam Dogheam

Dr. Hossam Dogheam

nalysis, Friction and inertia-effect, Center of percussion,


Flywheel and turning moment diagram
Course coordinator:
Signature:

Dr. Hossam Dogheam

Motion of followers, Cam profile and motion of followers

16

Dr. Hossam Dogheam

Gears: Types of gears, Gear geometry and gear trains.

16

Dr. Ahmed Aly

ng of the reciprocating engines and engine out of balance.

16

Dr. Ahmed Aly

Gyroscopes.

Dr. Ahmed Aly

------ ------ ------ ------ ------ ------

---- ----

------ ------ ------ ------

------ ------ ------ ------ ------ ------

---- ----

------ ------ ------ ------

------ ------ ------ ------ ------ ------

---- ----

------ ------ ------ ------

------ ------ ------ ------ ------ ------

---- ----

------ ------ ------ ------

------ ------ ------ ------ ------ ------

---- ----

------ ------ ------ ------

------ ------ ------ ------ ------ ------

---- ----

------ ------ ------ ------

------ ------ ------ ------ ------ ------

---- ----

------ ------ ------ ------

------ ------ ------ ------ ------ ------

---- ----

------ ------ ------ ------

------ ------ ------ ------ ------ ------

---- ----

------ ------ ------ ------

------ ------ ------ ------ ------ ------

---- ----

------ ------ ------ ------

------ ------ ------ ------ ------ ------

---- ----

------ ------ ------ ------

------ ------ ------ ------ ------ ------

---- ----

------ ------ ------ ------

------ ------ ------ ------ ------ ------

---- ----

------ ------ ------ ------

Course coordinator:
Signature:

Dr. Hossam Dogheam

------ ------ ------ ------ ------ ------

---- ----

------ ------ ------ ------

------ ------ ------ ------ ------ ------

---- ----

------ ------ ------ ------

------ ------ ------ ------ ------ ------

---- ----

------ ------ ------ ------

------ ------ ------ ------ ------ ------

---- ----

------ ------ ------ ------

------ ------ ------ ------ ------ ------

---- ----

------ ------ ------ ------

------ ------ ------ ------ ------ ------

---- ----

------ ------ ------ ------

------ ------ ------ ------ ------ ------

---- ----

------ ------ ------ ------

------ ------ ------ ------ ------ ------

---- ----

------ ------ ------ ------

------ ------ ------ ------ ------ ------

---- ----

------ ------ ------ ------

Course coordinator:
Signature:

Dr. Hossam Dogheam

Topics Taught as a percentage of the content specified

>90%

70% - 90%

<70 %

Reasons in detail for not teaching any topic

------ ------ ------ ------ ------ ------ ------ ------ ------ ------ ----- ------ ------ ------ ------ ------ ------ ------ ------ ------ ----- ------ ------ ------ ------ ------ ------ ------ ------ ------ ----------- ------ ------ ------ ------ ------ ------ ------ ------ ------ ----- ------ ------ ------ ------ ------ ------ ------ ------ ------ ---If any topics were taught which are not specified, give reasons in detail

------ ------ ------ ------ ------ ------ ------ ------ ------ ------ ----- ------ ------ ------ ------ ------ ------ ------ ------ ------ ----- ------ ------ ------ ------ ------ ------ ------ ------ ------ ----------- ------ ------ ------ ------ ------ ------ ------ ------ ------ ----- ------ ------ ------ ------ ------ ------ ------ ------ ------ ---2- Teaching and learning methods:

Lectures
Practical training/laboratory
Seminar/Workshop
Class Activity
Case Study:

Other assignments/homework
If teaching and learning methods were used other than, those specified, list and give reasons

------ ------ ------ ------ ------ ------ ------ ------ ------ ----- ------ ------ ------ ------ ------ ------ ------ ------ ----- ------ ------ ------ ------ ------ ------ ------ ------ ----- ------ ---3- Student assessment:
Methods of assessment
Written examination

70 %

Oral examination

0%

Practical/laboratory work

15 %

Other assignments/class work

15 %

Course coordinator:
Signature:

Percentage of total

Dr. Hossam Dogheam

Members of examination committee

------ ------ ------ ------ ------ -----Role of external evaluator:

------ ------ ------ ------ ------ -----4- Facilities and teaching materials:

Totally adequate
Adequate to some extent
Inadequate
List any inadequacies:

------ ------ ------ ------ ------ ------ ------ ------ ------ ----- ------ ------ ------ ------ ------ ------ ------ ------ ----- ------ ------ ------ ------ ------ ------ ------ ------ ----- ------ ---5-Administrative constraints:

------ ------ ------ ------ ------ ------ ------ ------ ------ ------ ----- ------ ------ ------ ------ ------ ------ ------ ------ ------ ----- ------ ------ ------ ------ ------ ------ ------ ------ ------ ----------- ------ ------ ------ ------ ------ ------ ------ ------ ------ ----- ------ ------ ------ ------ ------ ------ ------ ------ ------ ---6-Student evaluation of the course:
Response of course Team

Comment

------ -----

------ ------ ------ ------ ------ ----------- ------ ------ ------ ------ -----

------ ------ ------ ------ ------ -----

------ ------ ------ ------ ------ ----------- ------ ------ ------ ------ -----

------ ------ ------ ------ ------ ----------- ------ ------ ------ ------ -----

------ ------ ------ ------ ------ ----------- ------ ------ ------ ------ -----

------ ------ ------ ------ ------ -----

------ ------ ------ ------ ------ ----------- ------ ------ ------ ------ -----

Course coordinator:
Signature:

Dr. Hossam Dogheam

7-Comments from external evaluator(s)


Comment

Response of course Team

------ ------ ------ ------ ------ ----------- ------ ------ ------ ------ ---------- ------ ------ ------ ------ ----------- ------ ------ ------ ------ ---------- ------ ------ ------ ------ ----------- ------ ------ ------ ------ ---------- ------ ------ ------ ------ ----------- ------ ------ ------ ------ -----

------ ------ ------ ------ ------ ----------- ------ ------ ------ ------ ---------- ------ ------ ------ ------ ----------- ------ ------ ------ ------ ---------- ------ ------ ------ ------ ----------- ------ ------ ------ ------ ---------- ------ ------ ------ ------ ----------- ------ ------ ------ ------ -----

8- Course enhancement: Progress on actions identified in the previous years action plan:

------ ------ ------ ------ ------ ------ ------ ------ ------ ------ ----- ------ ------ ------ ------ ------ ------ ------ ------ ------ ----- ------ ------ ------ ------ ------ ------ ------ ------ ------ ----------- ------ ------ ------ ------ ------ ------ ------ ------ ------ ----- ------ ------ ------ ------ ------ ------ ------ ------ ------ ---9- Action plan
Action required

Completion
date

Person responsible

------ ------ ------ ------ ------ ------ ---- ----

------ ------ ------ ------

------ ------ ------ ------ ------ ------ ---- ----

------ ------ ------ ------

------ ------ ------ ------ ------ ------ ---- ----

------ ------ ------ ------

------ ------ ------ ------ ------ ------ ---- ----

------ ------ ------ ------

------ ------ ------ ------ ------ ------ ---- ----

------ ------ ------ ------

Course coordinator:
Signature:

Dr. Hossam Dogheam

Course report of

Manufacturing Technology (2) - MDP211 2009/2010


University: Ain Shams

Faculty: Engineering

Basic Information
1. Title and code :
Manufacturing Technology (2) - MDP211

2. Programme on which the course is given :


Mechanical Engineering

3. Year/ Level of programmes :


1. Units/Credit Hours
( i ) Lecture :

second year / second term

( ii ) Tutorial /Practical :

( iii ) Total :

2. Names of lecturers contributing to the delivery of the course :


i Prof. Dr. Mohamed A. Taha
ii -

Dr. Ahmed Farid Abdel-Ghafar

iii -

Dr. Tarek Mahmoud Mousa

iv -

-------------------------------

v -

-------------------------------

vi -

-------------------------------

vii -

-------------------------------

viii -

-------------------------------

Course coordinator:

Prof. Dr. Mohamed A. Taha

External evaluator:

---- ---- ----

Course coordinator:
Signature:

Prof. Dr. Mohamed A. Taha

B- Statistical Information

No. of students attending the course:

417

Number

Percentage (%)

Students completing the course

417

100 %

Passed

357

85.61 %
85

Failed

60

14
14.39 %

Excellent

1.12 %

Very Good

26

7.28 %

Good

75

21
21.01 %

Pass

252

70.59 %
70

Results

Grading Of
successful students

C- Professional Information
1-- Course Teaching:

Topic

No. of
Hours

Lecturer

Introduction to solidification and casting processes

Casting of wrought alloys, Continuous casting

ciples of Shaped casting, alloys & products, [processes

Prof. Dr. Mohamed A. Taha

Sand, moulding and core-making processes

Prof. Dr. Mohamed A. Taha

Liquid metal behaviour & fluid dynamics

Prof. Dr. Mohamed A. Taha

Casting design, pattern, gating, feeding systems

14

Prof. Dr. Mohamed A. Taha

Heat extraction & solidification

Prof. Dr. Mohamed A. Taha

Melt treatment & melting equipment

Dr. Dr. Tarek Mahmoud Mousa

Course coordinator:
Signature:

Prof. Dr. Mohamed A. Taha

Prof. Dr. Mohamed A. Taha


Prof. Dr. Mohamed A. Taha

Cast-iron

Dr. Tarek Mahmoud Mousa

Casting defects & finishing

Dr. Tarek Mahmoud Mousa

Dr. Tarek Mahmoud Mousa

Dr. Tarek Mahmoud Mousa

Dr. Ahmed Farid Abdel-Ghafar

Dr. Ahmed Farid Abdel-Ghafar

g, submerged arc welding, spot and seam welding, plasma

24

Dr. Ahmed Farid Abdel-Ghafar

Cold welding: cold pressure welding, adhesive welding,

10

Dr. Ahmed Farid Abdel-Ghafar

advanced welding

Dr. Ahmed Farid Abdel-Ghafar

design of weld joints and construction

Dr. Ahmed Farid Abdel-Ghafar

g of welded joints, welding defects and quality control.

Dr. Ahmed Farid Abdel-Ghafar

Quality control, environment, saety, computer application


Casting project
introduction to welding and joining principles
Classification of welding processes

------ ------ ------ ------ ------ ------

---- ----

------ ------ ------ ------

------ ------ ------ ------ ------ ------

---- ----

------ ------ ------ ------

------ ------ ------ ------ ------ ------

---- ----

------ ------ ------ ------

------ ------ ------ ------ ------ ------

---- ----

------ ------ ------ ------

------ ------ ------ ------ ------ ------

---- ----

------ ------ ------ ------

------ ------ ------ ------ ------ ------

---- ----

------ ------ ------ ------

Course coordinator:
Signature:

Prof. Dr. Mohamed A. Taha

------ ------ ------ ------ ------ ------

---- ----

------ ------ ------ ------

------ ------ ------ ------ ------ ------

---- ----

------ ------ ------ ------

------ ------ ------ ------ ------ ------

---- ----

------ ------ ------ ------

------ ------ ------ ------ ------ ------

---- ----

------ ------ ------ ------

------ ------ ------ ------ ------ ------

---- ----

------ ------ ------ ------

------ ------ ------ ------ ------ ------

---- ----

------ ------ ------ ------

------ ------ ------ ------ ------ ------

---- ----

------ ------ ------ ------

------ ------ ------ ------ ------ ------

---- ----

------ ------ ------ ------

------ ------ ------ ------ ------ ------

---- ----

------ ------ ------ ------

Course coordinator:
Signature:

Prof. Dr. Mohamed A. Taha

Topics Taught as a percentage of the content specified

>90%

70% - 90%

<70 %

Reasons in detail for not teaching any topic

------ ------ ------ ------ ------ ------ ------ ------ ------ ------ ----- ------ ------ ------ ------ ------ ------ ------ ------ ------ ----- ------ ------ ------ ------ ------ ------ ------ ------ ------ ----------- ------ ------ ------ ------ ------ ------ ------ ------ ------ ----- ------ ------ ------ ------ ------ ------ ------ ------ ------ ---If any topics were taught which are not specified, give reasons in detail

------ ------ ------ ------ ------ ------ ------ ------ ------ ------ ----- ------ ------ ------ ------ ------ ------ ------ ------ ------ ----- ------ ------ ------ ------ ------ ------ ------ ------ ------ ----------- ------ ------ ------ ------ ------ ------ ------ ------ ------ ----- ------ ------ ------ ------ ------ ------ ------ ------ ------ ---2- Teaching and learning methods:

Lectures
Practical training/laboratory
Seminar/Workshop
Class Activity
Case Study:

Other assignments/homework
If teaching and learning methods were used other than, those specified, list and give reasons

------ ------ ------ ------ ------ ------ ------ ------ ------ ----- ------ ------ ------ ------ ------ ------ ------ ------ ----- ------ ------ ------ ------ ------ ------ ------ ------ ----- ------ ---3- Student assessment:
Methods of assessment
Written examination

60 %

Oral examination

20%

Practical/laboratory work

10%

Other assignments/class work

10 %

Course coordinator:
Signature:

Percentage of total

Prof. Dr. Mohamed A. Taha

Members of examination committee

------ ------ ------ ------ ------ -----Role of external evaluator:

------ ------ ------ ------ ------ -----4- Facilities and teaching materials:

Totally adequate
Adequate to some extent
Inadequate
List any inadequacies:

------ ------ ------ ------ ------ ------ ------ ------ ------ ----- ------ ------ ------ ------ ------ ------ ------ ------ ----- ------ ------ ------ ------ ------ ------ ------ ------ ----- ------ ---5-Administrative constraints:

------ ------ ------ ------ ------ ------ ------ ------ ------ ------ ----- ------ ------ ------ ------ ------ ------ ------ ------ ------ ----- ------ ------ ------ ------ ------ ------ ------ ------ ------ ----------- ------ ------ ------ ------ ------ ------ ------ ------ ------ ----- ------ ------ ------ ------ ------ ------ ------ ------ ------ ---6-Student evaluation of the course:
Response of course Team

Comment

------ ------ ------ ------ ------ ----------- ------ ------ ------ ------ -----

------ ------ ------ ------ ------ ----------- ------ ------ ------ ------ -----

------ ------ ------ ------ ------ ----------- ------ ------ ------ ------ -----

------ ------ ------ ------ ------ ----------- ------ ------ ------ ------ -----

------ ------ ------ ------ ------ ----------- ------ ------ ------ ------ -----

------ ------ ------ ------ ------ ----------- ------ ------ ------ ------ -----

------ ------ ------ ------ ------ ----------- ------ ------ ------ ------ -----

------ ------ ------ ------ ------ ----------- ------ ------ ------ ------ -----

Course coordinator:
Signature:

Prof. Dr. Mohamed A. Taha

7-Comments from external evaluator(s)


Comment

Response of course Team

------ ------ ------ ------ ------ ----------- ------ ------ ------ ------ ---------- ------ ------ ------ ------ ----------- ------ ------ ------ ------ ---------- ------ ------ ------ ------ ----------- ------ ------ ------ ------ ---------- ------ ------ ------ ------ ----------- ------ ------ ------ ------ -----

------ ------ ------ ------ ------ ----------- ------ ------ ------ ------ ---------- ------ ------ ------ ------ ----------- ------ ------ ------ ------ ---------- ------ ------ ------ ------ ----------- ------ ------ ------ ------ ---------- ------ ------ ------ ------ ----------- ------ ------ ------ ------ -----

8- Course enhancement: Progress on actions identified in the previous years action plan:

------ ------ ------ ------ ------ ------ ------ ------ ------ ------ ----- ------ ------ ------ ------ ------ ------ ------ ------ ------ ----- ------ ------ ------ ------ ------ ------ ------ ------ ------ ----------- ------ ------ ------ ------ ------ ------ ------ ------ ------ ----- ------ ------ ------ ------ ------ ------ ------ ------ ------ ---9- Action plan
Action required

Completion
date

Person responsible

------ ------ ------ ------ ------ ------ ---- ----

------ ------ ------ ------

------ ------ ------ ------ ------ ------ ---- ----

------ ------ ------ ------

------ ------ ------ ------ ------ ------ ---- ----

------ ------ ------ ------

------ ------ ------ ------ ------ ------ ---- ----

------ ------ ------ ------

------ ------ ------ ------ ------ ------ ---- ----

------ ------ ------ ------

Course coordinator:
Signature:

Prof. Dr. Mohamed A. Taha

Course report of

Heat & Mass Transfer - MEP221 2009/2010


University: Ain Shams

Faculty: Engineering

Basic Information
1. Title and code :
Heat & Mass Transfer - MEP221

2. Programme on which the course is given :


MECHANICAL POWER ENGINEERING

3. Year/ Level of programmes :


1. Units/Credit Hours
( i ) Lecture :

3 rd year

( ii ) Tutorial /Practical :

( iii ) Total :

2. Names of lecturers contributing to the delivery of the course :


i Dr. Gameel Weesa Younan
ii -

Dr. Moustafa Abdel Khalek

iii -

Dr. Yasser Saad Fangary

iv -

Dr. Ahmed Nabil El Sheemi

v -

-------------------------------

vi -

-------------------------------

vii -

-------------------------------

viii -

-------------------------------

Course coordinator:

Dr. Yasser Saad Fangary

External evaluator:

---- ---- ----

Course coordinator:
Signature:

Dr. Yasser Saad Fangary

B- Statistical Information

No. of students attending the course:

494

Number

Percentage (%)

Students completing the course

494

100 %

Passed

341

69.03 %

Failed

153

30.97 %

Excellent

1.47 %

Very Good

13

3.81 %

Good

34

9.97 %

Pass

289

84.75 %

Results

Grading Of
successful students

C- Professional Information
1-- Course Teaching:

Topic

No. of
Hours

Lecturer

Introduction to heat transfer

Dr. Gameel Weesa

Convection heat transfer

30

Dr. Yasser Fangary

Fundamentals of radiation heat transfer

27

Dr. Ahmed Nabil

Heat exchangers

12

Dr. Moustafa Abdel Khalek

Mass Transfer

14

Dr. Yasser Fangary

------ ------ ------ ------ ------ ------

---- ----

------ ------ ------ ------

------ ------ ------ ------ ------ ------

---- ----

------ ------ ------ ------

Course coordinator:
Signature:

Dr. Yasser Saad Fangary

------ ------ ------ ------ ------ ------

---- ----

------ ------ ------ ------

------ ------ ------ ------ ------ ------

---- ----

------ ------ ------ ------

------ ------ ------ ------ ------ ------

---- ----

------ ------ ------ ------

------ ------ ------ ------ ------ ------

---- ----

------ ------ ------ ------

------ ------ ------ ------ ------ ------

---- ----

------ ------ ------ ------

------ ------ ------ ------ ------ ------

---- ----

------ ------ ------ ------

------ ------ ------ ------ ------ ------

---- ----

------ ------ ------ ------

------ ------ ------ ------ ------ ------

---- ----

------ ------ ------ ------

------ ------ ------ ------ ------ ------

---- ----

------ ------ ------ ------

------ ------ ------ ------ ------ ------

---- ----

------ ------ ------ ------

------ ------ ------ ------ ------ ------

---- ----

------ ------ ------ ------

------ ------ ------ ------ ------ ------

---- ----

------ ------ ------ ------

------ ------ ------ ------ ------ ------

---- ----

------ ------ ------ ------

------ ------ ------ ------ ------ ------

---- ----

------ ------ ------ ------

------ ------ ------ ------ ------ ------

---- ----

------ ------ ------ ------

------ ------ ------ ------ ------ ------

---- ----

------ ------ ------ ------

------ ------ ------ ------ ------ ------

---- ----

------ ------ ------ ------

------ ------ ------ ------ ------ ------

---- ----

------ ------ ------ ------

Course coordinator:
Signature:

Dr. Yasser Saad Fangary

------ ------ ------ ------ ------ ------

---- ----

------ ------ ------ ------

------ ------ ------ ------ ------ ------

---- ----

------ ------ ------ ------

------ ------ ------ ------ ------ ------

---- ----

------ ------ ------ ------

------ ------ ------ ------ ------ ------

---- ----

------ ------ ------ ------

------ ------ ------ ------ ------ ------

---- ----

------ ------ ------ ------

------ ------ ------ ------ ------ ------

---- ----

------ ------ ------ ------

------ ------ ------ ------ ------ ------

---- ----

------ ------ ------ ------

------ ------ ------ ------ ------ ------

---- ----

------ ------ ------ ------

------ ------ ------ ------ ------ ------

---- ----

------ ------ ------ ------

Course coordinator:
Signature:

Dr. Yasser Saad Fangary

Topics Taught as a percentage of the content specified

>90%

70% - 90%

<70 %

Reasons in detail for not teaching any topic

------ ------ ------ ------ ------ ------ ------ ------ ------ ------ ----- ------ ------ ------ ------ ------ ------ ------ ------ ------ ----- ------ ------ ------ ------ ------ ------ ------ ------ ------ ----------- ------ ------ ------ ------ ------ ------ ------ ------ ------ ----- ------ ------ ------ ------ ------ ------ ------ ------ ------ ---If any topics were taught which are not specified, give reasons in detail

Due to the development of the science some additional topics were


added in the part of heat trqansfer by convection.

2- Teaching and learning methods:

Lectures
Practical training/laboratory
Seminar/Workshop
Class Activity
Case Study:

Other assignments/homework
If teaching and learning methods were used other than, those specified, list and give reasons

------ ------ ------ ------ ------ ------ ------ ------ ------ ----- ------ ------ ------ ------ ------ ------ ------ ------ ----- ------ ------ ------ ------ ------ ------ ------ ------ ----- ------ ---3- Student assessment:
Methods of assessment
Written examination

57 %

Oral examination

20 %

Practical/laboratory work

0%

Other assignments/class work

23 %

Course coordinator:
Signature:

Percentage of total

Dr. Yasser Saad Fangary

Members of examination committee

Dr. Gameel weesa, Dr. Moustafa Abdel Khalek, Dr. Yasser Fangary, Dr. Ahmed El S
Role of external evaluator:

------ ------ ------ ------ ------ -----4- Facilities and teaching materials:

Totally adequate
Adequate to some extent
Inadequate
List any inadequacies:

No heat transfer laboratory available.

5-Administrative constraints:

------ ------ ------ ------ ------ ------ ------ ------ ------ ------ ----- ------ ------ ------ ------ ------ ------ ------ ------ ------ ----- ------ ------ ------ ------ ------ ------ ------ ------ ------ ----------- ------ ------ ------ ------ ------ ------ ------ ------ ------ ----- ------ ------ ------ ------ ------ ------ ------ ------ ------ ---6-Student evaluation of the course:
Response of course Team

Comment

------ ------ ------ ------ ------ ----------- ------ ------ ------ ------ -----

------ ------ ------ ------ ------ ----------- ------ ------ ------ ------ -----

------ ------ ------ ------ ------ ----------- ------ ------ ------ ------ -----

------ ------ ------ ------ ------ ----------- ------ ------ ------ ------ -----

------ ------ ------ ------ ------ ----------- ------ ------ ------ ------ -----

------ ------ ------ ------ ------ ----------- ------ ------ ------ ------ -----

------ ------ ------ ------ ------ ----------- ------ ------ ------ ------ -----

------ ------ ------ ------ ------ ----------- ------ ------ ------ ------ -----

Course coordinator:
Signature:

Dr. Yasser Saad Fangary

7-Comments from external evaluator(s)


Comment

Response of course Team

------ ------ ------ ------ ------ ----------- ------ ------ ------ ------ ---------- ------ ------ ------ ------ ----------- ------ ------ ------ ------ ---------- ------ ------ ------ ------ ----------- ------ ------ ------ ------ ---------- ------ ------ ------ ------ ----------- ------ ------ ------ ------ -----

------ ------ ------ ------ ------ ----------- ------ ------ ------ ------ ---------- ------ ------ ------ ------ ----------- ------ ------ ------ ------ ---------- ------ ------ ------ ------ ----------- ------ ------ ------ ------ ---------- ------ ------ ------ ------ ----------- ------ ------ ------ ------ -----

8- Course enhancement: Progress on actions identified in the previous years action plan:

Preparing experiments for heat transfer.

9- Action plan
Action required

Preparing experiments

Completion
date

2011

Person responsible

Dr. Yasser Fangary

------ ------ ------ ------ ------ ------ ---- ----

------ ------ ------ ------

------ ------ ------ ------ ------ ------ ---- ----

------ ------ ------ ------

------ ------ ------ ------ ------ ------ ---- ----

------ ------ ------ ------

------ ------ ------ ------ ------ ------ ---- ----

------ ------ ------ ------

Course coordinator:
Signature:

Dr. Yasser Saad Fangary

Course report of

Measurements - MEP281 2009/2010


University: Ain Shams

Faculty: Engineering

Basic Information
1. Title and code :
Measurements - MEP281

2. Programme on which the course is given :


Mechanical Power Engineering

3. Year/ Level of programmes :


1. Units/Credit Hours
( i ) Lecture :

3 th year

( ii ) Tutorial /Practical :

( iii ) Total :

2. Names of lecturers contributing to the delivery of the course :


i Prof. Dr. Mohamed A. El-Samanoudy
ii -

Prof. Dr. Nabil Abd-El-Aziz-------------------------------

iii -

Dr. Yasser Saad Fangary-------------------------------

iv -

Dr. Hossam Safaa-------------------------------

v -

Dr. Ahmad Nabil El-Sheemy-------------------------------

vi -

-------------------------------

vii -

-------------------------------

viii -

-------------------------------

Course coordinator:

Prof M.. El-Samanoudy

External evaluator:

Prof Dr Hani Ahmad Munib, Helwan University---- ----

Course coordinator:
Signature:

Prof M.. El-Samanoudy

B- Statistical Information

No. of students attending the course:

493

Number

Percentage (%)

Students completing the course

493

100 %

Passed

416

84.38 %

Failed

77

15.62 %

Excellent

1.44 %

Very Good

22

5.29 %

Good

45

10.82 %

Pass

343

82.45 %

Results

Grading Of
successful students

C- Professional Information
1-- Course Teaching:

Topic

No. of
Hours

Lecturer

1-Measuring instrument, Error-Analysis

11

Prof Dr M.El-Samanoudy

2-Pressure measurements

13

Prof Dr M.El-Samanoudy

3-Flow measurements------ ------ ------

15

Prof Dr Nabil Abd El Aziz

4-Velocity measurements ------ ------ -----15

Dr. Yasser EL-Fangary

5-Temperature measurements.

Dr Hossam Safaa

15

6-Force,Stress and strain measurements--- 12


- ------ ------ ------ ------ -----Course coordinator:
Signature:

Prof M.. El-Samanoudy

Dr Ahmad N.El-Sheemy

------ ------ ------ ------ ------ ------

---- ----

------ ------ ------ ------

------ ------ ------ ------ ------ ------

---- ----

------ ------ ------ ------

------ ------ ------ ------ ------ ------

---- ----

------ ------ ------ ------

------ ------ ------ ------ ------ ------

---- ----

------ ------ ------ ------

------ ------ ------ ------ ------ ------

---- ----

------ ------ ------ ------

------ ------ ------ ------ ------ ------

---- ----

------ ------ ------ ------

------ ------ ------ ------ ------ ------

---- ----

------ ------ ------ ------

---- ----

------ ------ ------ ------

------ ------ ------ ------ ------ ------

---- ----

------ ------ ------ ------

------ ------ ------ ------ ------ ------

---- ----

------ ------ ------ ------

------ ------ ------ ------ ------ ------

---- ----

------ ------ ------ ------

------ ------ ------ ------ ------ ------

---- ----

------ ------ ------ ------

------ ------ ------ ------ ------ ------

---- ----

------ ------ ------ ------

------ ------ ------ ------ ------ ------

---- ----

------ ------ ------ ------

------ ------ ------ ------ ------ ------

---- ----

------ ------ ------ ------

------ ------ ------ ------ ------ ------

---- ----

------ ------ ------ ------

------ ------ ------ ------ ------ ------

---- ----

------ ------ ------ ------

------ ------ ------ ------ ------ ------

---- ----

------ ------ ------ ------

Course coordinator:
Signature:

Prof M.. El-Samanoudy

------ ------ ------ ------ ------ ------

---- ----

------ ------ ------ ------

------ ------ ------ ------ ------ ------

---- ----

------ ------ ------ ------

------ ------ ------ ------ ------ ------

---- ----

------ ------ ------ ------

------ ------ ------ ------ ------ ------

---- ----

------ ------ ------ ------

------ ------ ------ ------ ------ ------

---- ----

------ ------ ------ ------

------ ------ ------ ------ ------ ------

---- ----

------ ------ ------ ------

------ ------ ------ ------ ------ ------

---- ----

------ ------ ------ ------

------ ------ ------ ------ ------ ------

---- ----

------ ------ ------ ------

------ ------ ------ ------ ------ ------

---- ----

------ ------ ------ ------

Course coordinator:
Signature:

Prof M.. El-Samanoudy

Topics Taught as a percentage of the content specified

>90%

70% - 90%

<70 %

Reasons in detail for not teaching any topic

-A small part on gas analysis,as found requires extra


time ------ ------ ------ ------ ------ ------ ------ ------ ------ ----- ------ ------ ------ ------ ------ ------ ------ ------ ------ ----------- ------ ------ ------ ------ ------ ------ ------ ------ ------ ----- ------ ------ ------ ------ ------ ------ ---If any topics were taught which are not specified, give reasons in detail

------ ------ ------ ------ ------ ------ ------ ------ ------ ------ ----N/a------ ------ ------ ------ ------ ------ ------ ------ ------ ----- ------ ------ ------ ------ ------ ------ ------ ------ ------ ----------- ------ ------ ------ ------ ------ ------ ------ ------ ------ ----- ------ ------ ------ ------ ------ ------ ------ ---2- Teaching and learning methods:

Lectures
Practical training/laboratory
Seminar/Workshop
Class Activity
Case Study:

Other assignments/homework
If teaching and learning methods were used other than, those specified, list and give reasons

- ----

3- Student assessment:
Methods of assessment
Written examination

60%

Oral examination

10%

Practical/laboratory work

30%

Other assignments/class work

Course coordinator:
Signature:

Percentage of total

Prof M.. El-Samanoudy

Members of examination committee

Prof M.El-Samanoudy, Prof DrNabil Abd ELaziz, DrYasser Fangary , DrHossam Saf
Role of external evaluator:

------ ------ ------ ------ ------ -----4- Facilities and teaching materials:

Totally adequate
Adequate to some extent
Inadequate
List any inadequacies:

Some Test rigs and experimental equipments with


instumentation are to be supplied to replace old ones and to
complete tle laboratory furnishing of items needed.
5-Administrative constraints:

slow and very limited cooperation to help furnishing the required


items. ------ ------ ------ ------ ------ ------ ------ ------ ------ ----- ------ -------- ------ ------ ------ ------ ------ ------ ------ ----- ------ ------ ------ ------ ------ ------ ------ ------ ------ ----- ------ ------ ------ ------ ------ ------ ------ ------ ------ --------6-Student evaluation of the course:
Response of course Team

Comment

A copy of the evaluation is


enclosed, it is quite
satifactory----- ------ ------ ------ --

---No
comment--- ------ ------ ------ ----- ------ ------ ------ ------ ------ ----

------ ------ ------ ------ ------ ----------- ------ ------ ------ ------ -----

------ ------ ------ ------ ------ ----------- ------ ------ ------ ------ -----

------ ------ ------ ------ ------ ----------- ------ ------ ------ ------ -----

------ ------ ------ ------ ------ ----------- ------ ------ ------ ------ -----

------ ------ ------ ------ ------ ----------- ------ ------ ------ ------ -----

------ ------ ------ ------ ------ ----------- ------ ------ ------ ------ -----

Course coordinator:
Signature:

Prof M.. El-Samanoudy

7-Comments from external evaluator(s)


Comment

Response of course Team

None--- ------ ------ ------ ------ ----- ------ ------ ------ ------ ------ ------- ------ ------ ------ ------ ----------- ------ ------ ------ ------ ---------- ------ ------ ------ ------ ----------- ------ ------ ------ ------ ---------- ------ ------ ------ ------ ----------- ------ ------ ------ ------ -----

------ ------ ------ ------ ------ ----------- ------ ------ ------ ------ ---------- ------ ------ ------ ------ ----------- ------ ------ ------ ------ ---------- ------ ------ ------ ------ ----------- ------ ------ ------ ------ ---------- ------ ------ ------ ------ ----------- ------ ------ ------ ------ -----

8- Course enhancement: Progress on actions identified in the previous years action plan:

------ ------ ------ ------ ------ ------ ------ ------ ------ ------ ----- ------ ------ ------ ------ ------ ------ ------ ------ ------ ----- ------ ------ ------ ------ ------ ------ ------ ------ ------ ----------- ------ ------ ------ ------ ------ ------ ------ ------ ------ ----- ------ ------ ------ ------ ------ ------ ------ ------ ------ ---9- Action plan
Action required

Completion
date

Person responsible

Furnishing required laboratory equipments.


soon

The Head of the department and the Fa

------ ------ ------ ------ ------ ------ ---- ----

------ ------ ------ ------

------ ------ ------ ------ ------ ------ ---- ----

------ ------ ------ ------

------ ------ ------ ------ ------ ------ ---- ----

------ ------ ------ ------

------ ------ ------ ------ ------ ------ ---- ----

------ ------ ------ ------

Course coordinator:
Signature:

Prof M.. El-Samanoudy

Course report of

Engineering Economy - HUMx31_MDP 2009/2010


University: Ain Shams

Faculty: Engineering

Basic Information
1. Title and code :
Engineering Economy - HUMx31_MDP

2. Programme on which the course is given :

3. Year/ Level of programmes :


1. Units/Credit Hours
( i ) Lecture :

1 st year

( ii ) Tutorial /Practical :

( iii ) Total :

2. Names of lecturers contributing to the delivery of the course :


i Prof. S.E.Z. Abdel Barr
ii -

Dr.Mohamed El Said

iii -

-------------------------------

iv -

-------------------------------

v -

-------------------------------

vi -

-------------------------------

vii -

-------------------------------

viii -

-------------------------------

Course coordinator:

Prof. S.E.Z. Abdel Barr

External evaluator:

---- ---- ----

Course coordinator:
Signature:

Prof. S.E.Z. Abdel Barr

B- Statistical Information

No. of students attending the course:

558

Number

Percentage (%)

Students completing the course

558

100 %

Passed

402

72.04 %

Failed

156

27.96 %

Excellent

34

8.46 %

Very Good

58

14.43 %

Good

81

20.15 %

Pass

229

56.97 %

Results

Grading Of
successful students

C- Professional Information
1-- Course Teaching:

Topic

No. of
Hours

Lecturer

Introduction to engineering economics study.


1

Prof. S.E.Z. Abdel Barr

Basic concepts and cash flow diagrams.

Prof. S.E.Z. Abdel Barr

Factors and their use.

Prof. S.E.Z. Abdel Barr

Interest rates calculations.

Prof. S.E.Z. Abdel Barr

Present worth and capitalized cost.

Prof. S.E.Z. Abdel Barr

Annual worth evaluation

Dr. Mohamed el Said

Rate of return calculations.

Dr. Mohamed el Said

Benefit/ Cost evaluation.

Prof. S.E.Z. Abdel Barr

Course coordinator:
Signature:

Prof. S.E.Z. Abdel Barr

Replacement analysis.

Prof. S.E.Z. Abdel Barr

Break even analysis

Prof. S.E.Z. Abdel Barr

Inflation and factors calculations.

Dr. Mohamed el Said

Cost accounting.

Dr. Mohamed el Said

Depreciation models.

Prof. S.E.Z. Abdel Barr

Basics of income taxes and after tax economic


3 analysis.
Dr. Mohamed el Said
Decision making under risk.

Prof. S.E.Z. Abdel Barr

------ ------ ------ ------ ------ ------

---- ----

------ ------ ------ ------

------ ------ ------ ------ ------ ------

---- ----

------ ------ ------ ------

------ ------ ------ ------ ------ ------

---- ----

------ ------ ------ ------

------ ------ ------ ------ ------ ------

---- ----

------ ------ ------ ------

------ ------ ------ ------ ------ ------

---- ----

------ ------ ------ ------

------ ------ ------ ------ ------ ------

---- ----

------ ------ ------ ------

------ ------ ------ ------ ------ ------

---- ----

------ ------ ------ ------

------ ------ ------ ------ ------ ------

---- ----

------ ------ ------ ------

------ ------ ------ ------ ------ ------

---- ----

------ ------ ------ ------

------ ------ ------ ------ ------ ------

---- ----

------ ------ ------ ------

Course coordinator:
Signature:

Prof. S.E.Z. Abdel Barr

------ ------ ------ ------ ------ ------

---- ----

------ ------ ------ ------

------ ------ ------ ------ ------ ------

---- ----

------ ------ ------ ------

------ ------ ------ ------ ------ ------

---- ----

------ ------ ------ ------

------ ------ ------ ------ ------ ------

---- ----

------ ------ ------ ------

------ ------ ------ ------ ------ ------

---- ----

------ ------ ------ ------

------ ------ ------ ------ ------ ------

---- ----

------ ------ ------ ------

------ ------ ------ ------ ------ ------

---- ----

------ ------ ------ ------

------ ------ ------ ------ ------ ------

---- ----

------ ------ ------ ------

------ ------ ------ ------ ------ ------

---- ----

------ ------ ------ ------

Course coordinator:
Signature:

Prof. S.E.Z. Abdel Barr

Topics Taught as a percentage of the content specified

>90%

70% - 90%

<70 %

Reasons in detail for not teaching any topic

------ ------ ------ ------ ------ ------ ------ ------ ------ ------ ----- ------ ------ ------ ------ ------ ------ ------ ------ ------ ----- ------ ------ ------ ------ ------ ------ ------ ------ ------ ----------- ------ ------ ------ ------ ------ ------ ------ ------ ------ ----- ------ ------ ------ ------ ------ ------ ------ ------ ------ ---If any topics were taught which are not specified, give reasons in detail

------ ------ ------ ------ ------ ------ ------ ------ ------ ------ ----- ------ ------ ------ ------ ------ ------ ------ ------ ------ ----- ------ ------ ------ ------ ------ ------ ------ ------ ------ ----------- ------ ------ ------ ------ ------ ------ ------ ------ ------ ----- ------ ------ ------ ------ ------ ------ ------ ------ ------ ---2- Teaching and learning methods:

Lectures
Practical training/laboratory
Seminar/Workshop
Class Activity
Case Study:

Other assignments/homework
If teaching and learning methods were used other than, those specified, list and give reasons

------ ------ ------ ------ ------ ------ ------ ------ ------ ----- ------ ------ ------ ------ ------ ------ ------ ------ ----- ------ ------ ------ ------ ------ ------ ------ ------ ----- ------ ---3- Student assessment:
Methods of assessment
Written examination

70%

Oral examination

0%

Practical/laboratory work

15 %

Other assignments/class work

15%

Course coordinator:
Signature:

Percentage of total

Prof. S.E.Z. Abdel Barr

Members of examination committee

------ ------ ------ ------ ------ -----Role of external evaluator:

------ ------ ------ ------ ------ -----4- Facilities and teaching materials:

Totally adequate
Adequate to some extent
Inadequate
List any inadequacies:

------ ------ ------ ------ ------ ------ ------ ------ ------ ----- ------ ------ ------ ------ ------ ------ ------ ------ ----- ------ ------ ------ ------ ------ ------ ------ ------ ----- ------ ---5-Administrative constraints:

------ ------ ------ ------ ------ ------ ------ ------ ------ ------ ----- ------ ------ ------ ------ ------ ------ ------ ------ ------ ----- ------ ------ ------ ------ ------ ------ ------ ------ ------ ----------- ------ ------ ------ ------ ------ ------ ------ ------ ------ ----- ------ ------ ------ ------ ------ ------ ------ ------ ------ ---6-Student evaluation of the course:
Response of course Team

Comment

------ ------ ------ ------ ------ ----------- ------ ------ ------ ------ -----

------ ------ ------ ------ ------ ----------- ------ ------ ------ ------ -----

------ ------ ------ ------ ------ ----------- ------ ------ ------ ------ -----

------ ------ ------ ------ ------ ----------- ------ ------ ------ ------ -----

------ ------ ------ ------ ------ ----------- ------ ------ ------ ------ -----

------ ------ ------ ------ ------ ----------- ------ ------ ------ ------ -----

------ ------ ------ ------ ------ ----------- ------ ------ ------ ------ -----

------ ------ ------ ------ ------ ----------- ------ ------ ------ ------ -----

Course coordinator:
Signature:

Prof. S.E.Z. Abdel Barr

7-Comments from external evaluator(s)


Comment

Response of course Team

------ ------ ------ ------ ------ ----------- ------ ------ ------ ------ ---------- ------ ------ ------ ------ ----------- ------ ------ ------ ------ ---------- ------ ------ ------ ------ ----------- ------ ------ ------ ------ ---------- ------ ------ ------ ------ ----------- ------ ------ ------ ------ -----

------ ------ ------ ------ ------ ----------- ------ ------ ------ ------ ---------- ------ ------ ------ ------ ----------- ------ ------ ------ ------ ---------- ------ ------ ------ ------ ----------- ------ ------ ------ ------ ---------- ------ ------ ------ ------ ----------- ------ ------ ------ ------ -----

8- Course enhancement: Progress on actions identified in the previous years action plan:

------ ------ ------ ------ ------ ------ ------ ------ ------ ------ ----- ------ ------ ------ ------ ------ ------ ------ ------ ------ ----- ------ ------ ------ ------ ------ ------ ------ ------ ------ ----------- ------ ------ ------ ------ ------ ------ ------ ------ ------ ----- ------ ------ ------ ------ ------ ------ ------ ------ ------ ---9- Action plan
Action required

Completion
date

Person responsible

------ ------ ------ ------ ------ ------ ---- ----

------ ------ ------ ------

------ ------ ------ ------ ------ ------ ---- ----

------ ------ ------ ------

------ ------ ------ ------ ------ ------ ---- ----

------ ------ ------ ------

------ ------ ------ ------ ------ ------ ---- ----

------ ------ ------ ------

------ ------ ------ ------ ------ ------ ---- ----

------ ------ ------ ------

Course coordinator:
Signature:

Prof. S.E.Z. Abdel Barr

QAU
FACULTY OF ENGINEERING
AIN SHAMS UNIVERSITY

Fourth Year

1 - 20226830947- 20226826639: 20226830947 - 20226826639: . 11517 :


1 El-Sarayat Street, Abbassia Cairo Egypt Tel : 202 26830947-26826639 Fax 202 26830947-26826639 P.O.B #11517

Course report of

Industrial Electronics & Applications - EPM352 2009/2010


University: Ain Shams

Faculty: Engineering

Basic Information
1. Title and code :
Industrial Electronics & Applications - EPM352
2. Programme on which the course is given :
B.Sc. in Mechnical Engineering: Design & Production / Mechanical Power / Automotive / Mechatronics
3. Year/ Level of programmes :

1. Units/Credit Hours
( i ) Lecture :

4th year, First semester

4 hours per week

( ii ) Tutorial /Practical :

2 hours per week

( iii ) Total :

2. Names of lecturers contributing to the delivery of the course :


i Prof. A. D. Elkoshairy
ii -

Prof. Aziz Ebrahim

iii iv v vi vii viii -

Course coordinator:

Prof. A. D. Elkoshairy

External evaluator:

Prof. A. A. Elstaar

Course coordinator:
Signature:

Prof. A. D. Elkoshairy

B- Statistical Information

No. of students attending the course:

111

Number

Percentage (%)

Students completing the course

111

100 %

Passed

107

96.4 %
96

Failed

3.60 %

Excellent

1.87 %

Very Good

6.54 %

Good

39

36.45 %
36

Pass

59

55.14 %
55

Results

Grading Of
successful students

C- Professional Information
1-- Course Teaching:

Topic
Introduction to power electronics

No. of
Hours
4

Lecturer
Prof. Aziz Ebrahim

Static and dynamic characteristics of power12semiconductor


Prof. Aziz
devices
Ebrahim
Switching losses and cooling of power semiconductor
6
Prof.
devices
Aziz Ebrahim
Single and three phase rectifier circuits

Prof. Aziz Ebrahim

Single and three phase AC voltage controllers


6

Prof. Aziz Ebrahim

DC choppers

Prof. Aziz Ebrahim

Single and three phase bridge inverters

Prof. A. D. Elkoshairy

Course coordinator:
Signature:

Prof. A. D. Elkoshairy

Protection methods

Prof. A. D. Elkoshairy

Electric motor drives

28

Prof. A. D. Elkoshairy

Course coordinator:
Signature:

Prof. A. D. Elkoshairy

Topics Taught as a percentage of the content specified

>90%

70% - 90%

<70 %

Reasons in detail for not teaching any topic

If any topics were taught which are not specified, give reasons in detail

2- Teaching and learning methods:


Lectures
Practical training/laboratory
Seminar/Workshop
Class Activity
Case Study:
Other assignments/homework
If teaching and learning methods were used other than, those specified, list and give reasons

3- Student assessment:
Methods of assessment
Written examination

80 %

Oral examination

0%

Practical/laboratory work

0%

Other assignments/class work

20 %

Course coordinator:
Signature:

Percentage of total

Prof. A. D. Elkoshairy

Members of examination committee

Prof. Aziz Ebrahim / Prof. A. D. Elkoshairy


Role of external evaluator:

4- Facilities and teaching materials:


Totally adequate
Adequate to some extent
Inadequate
List any inadequacies:

5-Administrative constraints:

6-Student evaluation of the course:


Comment

Course coordinator:
Signature:

Response of course Team

Prof. A. D. Elkoshairy

7-Comments from external evaluator(s)


Comment

Response of course Team

8- Course enhancement: Progress on actions identified in the previous years action plan:

9- Action plan
Action required

Course coordinator:
Signature:

Prof. A. D. Elkoshairy

Completion
date

Person responsible

Course report of

Electronic Engineering - ECE335 2009/2010


University: Ain Shams

Faculty: Engineering

Basic Information
1. Title and code :
Electronic Engineering - ECE335

2. Programme on which the course is given :


Mechatronics
3. Year/ Level of programmes :
1. Units/Credit Hours
( i ) Lecture :

3rd. year

18

( ii ) Tutorial /Practical :

12

( iii ) Total :

30

2. Names of lecturers contributing to the delivery of the course :


i Prof. Dr. Adel EL-Hennawy
ii -

Prof. Dr. Ismail Hafiz

iii -

-------------------------------

iv -

-------------------------------

v -

-------------------------------

vi -

-------------------------------

vii -

-------------------------------

viii -

-------------------------------

Course coordinator:

Prof. Dr. Adel EL-Hennawy

External evaluator:

---- ---- ----

Course coordinator:
Signature:

Prof. Dr. Adel EL-Hennawy

B- Statistical Information

No. of students attending the course:

112

Number

Percentage (%)

Students completing the course

112

100 %

Passed

105

93.75 %

Failed

6.25 %

Excellent

3.81 %

Very Good

11

10.48 %

Good

38

36.19 %

Pass

52

49.52 %

Results

Grading Of
successful students

C- Professional Information
1-- Course Teaching:

Topic

No. of
Hours

Lecturer

Classification of matter

Prof. Dr. Adel ELHennawy

Simple and compound SC

Prof. Dr. Adel ELHennawy

Energy Band structure

Prof. Dr. Adel ELHennawy

Drift and Diffusion currents

Prof. Dr. Adel ELHennawy

PN junction Diode

Prof. Dr. Adel ELHennawy

Majority and minority curriers concentration


1 profiles Prof. Dr. Adel ELHennawy
Course coordinator:
Signature:

Prof. Dr. Adel EL-Hennawy

Diode, construction and operation

Prof. Dr. Adel ELHennawy

Diode current

Prof. Dr. Adel ELHennawy

Diode Applications

Prof. Dr. Adel ELHennawy

BJT, Construction and operation

Prof. Dr. Adel ELHennawy

BJT, Biasing and Qpt. stabilization

Prof. Dr. Adel ELHennawy

BJT Amplifier circuits

Prof. Dr. Adel ELHennawy

BJT AC and DC analysis

Prof. Dr. Adel ELHennawy

BJT Graphical solution

Prof. Dr. Adel ELHennawy

Field Effect Transistor (FET)

Prof. Dr. Ismail Hafiz

Junction FET Construction and operation 1

Prof. Dr. Ismail Hafiz

MOSFET Construction and operation

Prof. Dr. Ismail Hafiz

MOSFET Current/Voltage equations

Prof. Dr. Ismail Hafiz

MOSFET Characterization

Prof. Dr. Ismail Hafiz

MOSFET small signal model

Prof. Dr. Ismail Hafiz

MOSFET Amplifier

Prof. Dr. Ismail Hafiz

MOSFET DC and AC analysis

Prof. Dr. Ismail Hafiz

Course coordinator:
Signature:

Prof. Dr. Adel EL-Hennawy

Topics Taught as a percentage of the content specified

>90%

70% - 90%

<70 %

Reasons in detail for not teaching any topic

National vacancies
If any topics were taught which are not specified, give reasons in detail

All are specified


2- Teaching and learning methods:
Lectures
Practical training/laboratory
Seminar/Workshop
Class Activity
Case Study:
Other assignments/homework
If teaching and learning methods were used other than, those specified, list and give reasons

Miniprojects, to know and accustom the group and team


work. To make contact with components available in local
market. To know how carry over practice problem.
3- Student assessment:
Methods of assessment
Written examination

Percentage of total

70 %

Oral examination

0%

Practical/laboratory work

10 %

Other assignments/class work

20 %

Members of examination committee

Prof. Dr. Adel El-Hennawy and Prof. Dr. Ismail Hafiz


Role of external evaluator:

Revising, updating and continous evaluation of the course.

Course coordinator:
Signature:

Prof. Dr. Adel EL-Hennawy

4- Facilities and teaching materials:


Totally adequate
Adequate to some extent
Inadequate
List any inadequacies:

The Lab. facilities (Lab. equipment, Lab. area and available


number of assistants) are not adequate with the number of
students that approaches 112 student.

5-Administrative constraints:

Non------ ------ ------ ------ ------ ------ ------ ------ ------ ----- ------ ------ ------ ------ ------ ------ ------ ------ ------ -----6-Student evaluation of the course:
Comment

Response of course Team

Not received

------ ------ ------ ------ ------ ----------- ------ ------ ------ ------ -----

7-Comments from external evaluator(s)


Comment

Response of course Team

Non ------ ------ ------ ------ ---------- ------ ------ ------ ------ -----------

------ ------ ------ ------ ------ ----------- ------ ------ ------ ------ -----

8- Course enhancement: Progress on actions identified in the previous years action plan:

------ ------ ------ ------ ------ ------ ------ ------ ------ ------ --

Course coordinator:
Signature:

Prof. Dr. Adel EL-Hennawy

9- Action plan
Action required

Completion
date

Person responsible

Idea about Si growth

2010/11

Prof. Dr. Adel ELHennawy

Idea about Diode fabrication

2010/11

Prof. Dr. Adel ELHennawy

Idea about BJT fabrication

2010/11

Prof. Dr. Adel ELHennawy

Idea about MOSFET fabrication

2010/11

Prof. Dr. Adel ELHennawy

Course coordinator:
Signature:

Prof. Dr. Adel EL-Hennawy

Course report of

Logic Design - CSE314 2009/2010


University: Ain Shams

Faculty: Engineering

Basic Information
1. Title and code :
Logic Design - CSE314

2. Programme on which the course is given :


Mechatronics Dept
3. Year/ Level of programmes :
1. Units/Credit Hours
( i ) Lecture :

4 th year

( ii ) Tutorial /Practical :

( iii ) Total :

2. Names of lecturers contributing to the delivery of the course :


i Prof. Hossam M.A. Fahmy
ii -

-------------------------------

iii -

-------------------------------

iv -

-------------------------------

v -

-------------------------------

vi -

-------------------------------

vii -

-------------------------------

viii -

-------------------------------

Course coordinator:

Prof. Hossam M.A. Fahmy

External evaluator:

---- ---- ----

Course coordinator:
Signature:

Prof. Hossam M.A. Fahmy

B- Statistical Information

No. of students attending the course:

108

Number

Percentage (%)

Students completing the course

108

100 %

Passed

102

94.44 %

Failed

5.56 %

Excellent

5.88 %

Very Good

7.84 %

Good

30

29.41 %

Pass

58

56.86 %

Results

Grading Of
successful students

C- Professional Information
1-- Course Teaching:

Topic

No. of
Hours

Lecturer

Number systems Operation and codes

Prof. Hossam M.A. Fahmy

parity generators/checkers

Prof. Hossam M.A. Fahmy

Boolean algebra Logic gates

Prof. Hossam M.A. Fahmy

logic simplification Karnaugh maps

Prof. Hossam M.A. Fahmy

Combinational logic adders,


comparators

Prof. Hossam M.A. Fahmy

Decoders, encoders, multiplexers,


DeMultiplexers

Prof. Hossam M.A. Fahmy

Course coordinator:
Signature:

Prof. Hossam M.A. Fahmy

Flip-Flops and related devices

Prof. Hossam M.A. Fahmy

Synchronous Sequential Logic

Prof. Hossam M.A. Fahmy

Topics Taught as a percentage of the content specified

>90%

70% - 90%

<70 %

Reasons in detail for not teaching any topic

If any topics were taught which are not specified, give reasons in detail

2- Teaching and learning methods:


Lectures
Practical training/laboratory
Seminar/Workshop
Class Activity
Case Study:
Other assignments/homework
If teaching and learning methods were used other than, those specified, list and give reasons

3- Student assessment:
Methods of assessment
Written examination

70 %

Oral examination

5%

Practical/laboratory work

15 %

Other assignments/class work

10 %

Members of examination committee

Prof. Hossam M.A. Fahmy


Role of external evaluator:

------ ------ ------ ------ ------ ------

Course coordinator:
Signature:

Percentage of total

Prof. Hossam M.A. Fahmy

4- Facilities and teaching materials:


Totally adequate
Adequate to some extent
Inadequate
List any inadequacies:

5-Administrative constraints:

6-Student evaluation of the course:


Response of course Team

Comment

------ ------ ------ ------ ------ ----------- ------ ------ ------ ------ -----

------ ------ ------ ------ ------ ----------- ------ ------ ------ ------ -----

7-Comments from external evaluator(s)


Comment

Response of course Team

------ ------ ------ ------ ------ ----------- ------ ------ ------ ------ -----

------ ------ ------ ------ ------ ----------- ------ ------ ------ ------ -----

8- Course enhancement: Progress on actions identified in the previous years action plan:

9- Action plan
Action required

Completion
date

------ ------ ------ ------ ------ ------ ---- ----

Course coordinator:
Signature:

Prof. Hossam M.A. Fahmy

Person responsible

------ ------ ------ ------

Course report of

Computer Programming - CSE324 2009/2010


University: Ain Shams

Faculty: Engineering

Basic Information
1. Title and code :
Computer Programming - CSE324

2. Programme on which the course is given :


Computer and Systems Engineering
3. Year/ Level of programmes :
1. Units/Credit Hours
( i ) Lecture :

4 th year

( ii ) Tutorial /Practical :

( iii ) Total :

2. Names of lecturers contributing to the delivery of the course :


i Dr. Mohamed Shalan
ii -

-------------------------------

iii -

-------------------------------

iv -

-------------------------------

v -

-------------------------------

vi -

-------------------------------

vii -

-------------------------------

viii -

-------------------------------

Course coordinator:

Prof. Hossam Fahmy

External evaluator:

---- ---- ----

Course coordinator:
Signature:

Prof. Hossam Fahmy

B- Statistical Information

No. of students attending the course:

113

Number

Percentage (%)

Students completing the course

113

100 %

Passed

94

83.19 %

Failed

19

16.81 %

Excellent

1.06 %

Very Good

1.06 %

Good

16

17.02 %

Pass

76

80.85 %

Results

Grading Of
successful students

C- Professional Information
1-- Course Teaching:

Topic

No. of
Hours

Lecturer

Arrays

Dr. Mohamed Shalan

Case Study

Dr. Mohamed Shalan

Data Types, Variables, Constants

Dr. Mohamed Shalan

Decisions

Dr. Mohamed Shalan

Functions

Dr. Mohamed Shalan

Input/Outputs

Dr. Mohamed Shalan

Introduction to programming

Dr. Mohamed Shalan

Course coordinator:
Signature:

Prof. Hossam Fahmy

Loops

Dr. Mohamed Shalan

Memory and Files

Dr. Mohamed Shalan

Pointers

Dr. Mohamed Shalan

Strings

Dr. Mohamed Shalan

Structures

Dr. Mohamed Shalan

Topics Taught as a percentage of the content specified

>90%

70% - 90%

<70 %

Reasons in detail for not teaching any topic

If any topics were taught which are not specified, give reasons in detail

2- Teaching and learning methods:


Lectures
Practical training/laboratory
Seminar/Workshop
Class Activity
Case Study:
Other assignments/homework
If teaching and learning methods were used other than, those specified, list and give reasons

------ ------ ------ ------ ------ ------ ------ ------ ------ ----- ------ ------ ------ ------ ------ ------ ------ ------ ----- ------ ------ ------ ------ ------ ------ ------ ------ ----- ------ ----

Course coordinator:
Signature:

Prof. Hossam Fahmy

3- Student assessment:
Methods of assessment
Written examination

Percentage of total

70%

Oral examination

0%

Practical/laboratory work

15 %

Other assignments/class work

15 %

Members of examination committee

Role of external evaluator:

------ ------ ------ ------ ------ -----4- Facilities and teaching materials:
Totally adequate
Adequate to some extent
Inadequate
List any inadequacies:

5-Administrative constraints:

6-Student evaluation of the course:


Comment

Response of course Team

7-Comments from external evaluator(s)


Comment

Response of course Team

8- Course enhancement: Progress on actions identified in the previous years action plan:

9- Action plan
Action required

Course coordinator:
Signature:

Prof. Hossam Fahmy

Completion
date

Person responsible

Course report of

System's Modelling & Simulation - MDP357 2009/2010


University: Ain Shams

Faculty: Engineering

Basic Information
1. Title and code :
System's Modelling & Simulation - MDP357

2. Programme on which the course is given :


Mechatronics

3. Year/ Level of programmes :


1. Units/Credit Hours
( i ) Lecture :

3rd year / first semester

( ii ) Tutorial /Practical :

( iii ) Total :

2. Names of lecturers contributing to the delivery of the course :


i Dr. Tamer el Nady
ii -

Dr. Wael Akl

iii -

-------------------------------

iv -

-------------------------------

v -

-------------------------------

vi -

-------------------------------

vii -

-------------------------------

viii -

-------------------------------

Course coordinator:

Dr. Tamer el Nady

External evaluator:

---- ---- ----

Course coordinator:
Signature:

Dr. Tamer el Nady

B- Statistical Information

No. of students attending the course:

111

Number

Percentage (%)

Students completing the course

111

100 %

Passed

109

98.2 %
98

Failed

1.8 %

Excellent

4.59 %

Very Good

24

22
22.02 %

Good

37

33
33.94 %

Pass

43

39.45 %
39

Results

Grading Of
successful students

C- Professional Information
1-- Course Teaching:

Topic
Basics of mathematical modelling

No. of
Hours

Lecturer

Dr. Tamer el Nady

Dr. Tamer el Nady

Physical analogies

27

Dr. Tamer el Nady

Model transforms and approximations

Dr. Tamer el Nady

Simulation and basics of parameter estimation methods

Dr. Wael Akl

ual reality and their applications to product development

Dr. Wael Akl

Recent simulation software packages

Dr. Wael Akl

Simulation with practical examples

Dr. Wael Akl

ds for mechatronics systems modelling and identification.

Course coordinator:
Signature:

Dr. Tamer el Nady

------ ------ ------ ------ ------ ------

---- ----

------ ------ ------ ------

------ ------ ------ ------ ------ ------

---- ----

------ ------ ------ ------

------ ------ ------ ------ ------ ------

---- ----

------ ------ ------ ------

------ ------ ------ ------ ------ ------

---- ----

------ ------ ------ ------

------ ------ ------ ------ ------ ------

---- ----

------ ------ ------ ------

------ ------ ------ ------ ------ ------

---- ----

------ ------ ------ ------

------ ------ ------ ------ ------ ------

---- ----

------ ------ ------ ------

------ ------ ------ ------ ------ ------

---- ----

------ ------ ------ ------

------ ------ ------ ------ ------ ------

---- ----

------ ------ ------ ------

------ ------ ------ ------ ------ ------

---- ----

------ ------ ------ ------

------ ------ ------ ------ ------ ------

---- ----

------ ------ ------ ------

------ ------ ------ ------ ------ ------

---- ----

------ ------ ------ ------

------ ------ ------ ------ ------ ------

---- ----

------ ------ ------ ------

------ ------ ------ ------ ------ ------

---- ----

------ ------ ------ ------

------ ------ ------ ------ ------ ------

---- ----

------ ------ ------ ------

------ ------ ------ ------ ------ ------

---- ----

------ ------ ------ ------

------ ------ ------ ------ ------ ------

---- ----

------ ------ ------ ------

Course coordinator:
Signature:

Dr. Tamer el Nady

------ ------ ------ ------ ------ ------

---- ----

------ ------ ------ ------

------ ------ ------ ------ ------ ------

---- ----

------ ------ ------ ------

------ ------ ------ ------ ------ ------

---- ----

------ ------ ------ ------

------ ------ ------ ------ ------ ------

---- ----

------ ------ ------ ------

------ ------ ------ ------ ------ ------

---- ----

------ ------ ------ ------

------ ------ ------ ------ ------ ------

---- ----

------ ------ ------ ------

------ ------ ------ ------ ------ ------

---- ----

------ ------ ------ ------

------ ------ ------ ------ ------ ------

---- ----

------ ------ ------ ------

------ ------ ------ ------ ------ ------

---- ----

------ ------ ------ ------

Course coordinator:
Signature:

Dr. Tamer el Nady

Topics Taught as a percentage of the content specified

>90%

70% - 90%

<70 %

Reasons in detail for not teaching any topic

------ ------ ------ ------ ------ ------ ------ ------ ------ ------ ----- ------ ------ ------ ------ ------ ------ ------ ------ ------ ----- ------ ------ ------ ------ ------ ------ ------ ------ ------ ----------- ------ ------ ------ ------ ------ ------ ------ ------ ------ ----- ------ ------ ------ ------ ------ ------ ------ ------ ------ ---If any topics were taught which are not specified, give reasons in detail

------ ------ ------ ------ ------ ------ ------ ------ ------ ------ ----- ------ ------ ------ ------ ------ ------ ------ ------ ------ ----- ------ ------ ------ ------ ------ ------ ------ ------ ------ ----------- ------ ------ ------ ------ ------ ------ ------ ------ ------ ----- ------ ------ ------ ------ ------ ------ ------ ------ ------ ---2- Teaching and learning methods:

Lectures
Practical training/laboratory
Seminar/Workshop
Class Activity
Case Study:

Other assignments/homework
If teaching and learning methods were used other than, those specified, list and give reasons

------ ------ ------ ------ ------ ------ ------ ------ ------ ----- ------ ------ ------ ------ ------ ------ ------ ------ ----- ------ ------ ------ ------ ------ ------ ------ ------ ----- ------ ---3- Student assessment:
Methods of assessment
Written examination

70 %

Oral examination

0%

Practical/laboratory work

15 %

Other assignments/class work

15 %

Course coordinator:
Signature:

Percentage of total

Dr. Tamer el Nady

Members of examination committee

------ ------ ------ ------ ------ -----Role of external evaluator:

------ ------ ------ ------ ------ -----4- Facilities and teaching materials:

Totally adequate
Adequate to some extent
Inadequate
List any inadequacies:

------ ------ ------ ------ ------ ------ ------ ------ ------ ----- ------ ------ ------ ------ ------ ------ ------ ------ ----- ------ ------ ------ ------ ------ ------ ------ ------ ----- ------ ---5-Administrative constraints:

------ ------ ------ ------ ------ ------ ------ ------ ------ ------ ----- ------ ------ ------ ------ ------ ------ ------ ------ ------ ----- ------ ------ ------ ------ ------ ------ ------ ------ ------ ----------- ------ ------ ------ ------ ------ ------ ------ ------ ------ ----- ------ ------ ------ ------ ------ ------ ------ ------ ------ ---6-Student evaluation of the course:
Response of course Team

Comment

------ ------ ------ ------ ------ ----------- ------ ------ ------ ------ -----

------ ------ ------ ------ ------ ----------- ------ ------ ------ ------ -----

------ ------ ------ ------ ------ ----------- ------ ------ ------ ------ -----

------ ------ ------ ------ ------ ----------- ------ ------ ------ ------ -----

------ ------ ------ ------ ------ ----------- ------ ------ ------ ------ -----

------ ------ ------ ------ ------ ----------- ------ ------ ------ ------ -----

------ ------ ------ ------ ------ ----------- ------ ------ ------ ------ -----

------ ------ ------ ------ ------ ----------- ------ ------ ------ ------ -----

Course coordinator:
Signature:

Dr. Tamer el Nady

7-Comments from external evaluator(s)


Comment

Response of course Team

------ ------ ------ ------ ------ ----------- ------ ------ ------ ------ ---------- ------ ------ ------ ------ ----------- ------ ------ ------ ------ ---------- ------ ------ ------ ------ ----------- ------ ------ ------ ------ ---------- ------ ------ ------ ------ ----------- ------ ------ ------ ------ -----

------ ------ ------ ------ ------ ----------- ------ ------ ------ ------ ---------- ------ ------ ------ ------ ----------- ------ ------ ------ ------ ---------- ------ ------ ------ ------ ----------- ------ ------ ------ ------ ---------- ------ ------ ------ ------ ----------- ------ ------ ------ ------ -----

8- Course enhancement: Progress on actions identified in the previous years action plan:

------ ------ ------ ------ ------ ------ ------ ------ ------ ------ ----- ------ ------ ------ ------ ------ ------ ------ ------ ------ ----- ------ ------ ------ ------ ------ ------ ------ ------ ------ ----------- ------ ------ ------ ------ ------ ------ ------ ------ ------ ----- ------ ------ ------ ------ ------ ------ ------ ------ ------ ---9- Action plan
Action required

Completion
date

Person responsible

------ ------ ------ ------ ------ ------ ---- ----

------ ------ ------ ------

------ ------ ------ ------ ------ ------ ---- ----

------ ------ ------ ------

------ ------ ------ ------ ------ ------ ---- ----

------ ------ ------ ------

------ ------ ------ ------ ------ ------ ---- ----

------ ------ ------ ------

------ ------ ------ ------ ------ ------ ---- ----

------ ------ ------ ------

Course coordinator:
Signature:

Dr. Tamer el Nady

Course report of

Electronic Circuits - ECE334 2009/2010


University: Ain Shams

Faculty: Engineering

Basic Information
1. Title and code :
Electronic Circuits - ECE334

2. Programme on which the course is given :


Mechatronics
3. Year/ Level of programmes :
1. Units/Credit Hours
( i ) Lecture :

3rd. year

18

( ii ) Tutorial /Practical :

12

( iii ) Total :

30

2. Names of lecturers contributing to the delivery of the course :


i Prof. Dr. Adel EL-Hennawy
ii -

-------------------------------

iii -

-------------------------------

iv -

-------------------------------

v -

-------------------------------

vi -

-------------------------------

vii -

-------------------------------

viii -

-------------------------------

Course coordinator:

Prof. Dr. Adel EL-Hennawy

External evaluator:

---- ---- ----

Course coordinator:
Signature:

Prof. Dr. Adel EL-Hennawy

B- Statistical Information

No. of students attending the course:

113

Number

Percentage (%)

Students completing the course

113

100 %

Passed

107

94.69 %

Failed

5.31 %

Excellent

3.74 %

Very Good

5.61 %

Good

19

17.76 %

Pass

78

72.9 %

Results

Grading Of
successful students

C- Professional Information
1-- Course Teaching:

Topic

No. of
Hours

Lecturer

BJT construction

Prof. Dr. Adel ELHennawy

BJT operation

Prof. Dr. Adel ELHennawy

Current amplification

Prof. Dr. Adel ELHennawy

Ic/Vce characteristics

Prof. Dr. Adel ELHennawy

Biasing techniques

Prof. Dr. Adel ELHennawy

DC analysis

Prof. Dr. Adel ELHennawy

Course coordinator:
Signature:

Prof. Dr. Adel EL-Hennawy

Small signal equivalent circuit

Prof. Dr. Adel ELHennawy

Common Emitter Amplifier

Prof. Dr. Adel ELHennawy

Common Base Amplifier

Prof. Dr. Adel ELHennawy

Common Collector Amplifier

Prof. Dr. Adel ELHennawy

Cascode Amplifier

Prof. Dr. Adel ELHennawy

RC coupled Amplifier

Prof. Dr. Adel ELHennawy

Gain Frequency Response

Prof. Dr. Adel ELHennawy

Phase Frequency Response

Prof. Dr. Adel ELHennawy

Miller theory

Prof. Dr. Adel ELHennawy

3dB low & high frequencies

Prof. Dr. Adel ELHennawy

Amplitude and phase distorsion

Prof. Dr. Adel ELHennawy

Internal structure of an OP-AMP

Prof. Dr. Adel ELHennawy

Differential Amplifier DC And AC analysis2

Prof. Dr. Adel ELHennawy

OP-AMP applications

Prof. Dr. Adel ELHennawy

Feedback

Prof. Dr. Adel ELHennawy

Negative Feedback and performance

Course coordinator:
Signature:

Prof. Dr. Adel EL-Hennawy

Prof. Dr. Adel ELHennawy


Positive Feedback and Oscillators

Prof. Dr. Adel ELHennawy

Oscillators: RC

Prof. Dr. Adel ELHennawy

Oscillators: LC

Prof. Dr. Adel ELHennawy

Oscillators: Free Runing


2

Prof. Dr. Adel ELHennawy

Oscillators: Relaxation

Prof. Dr. Adel ELHennawy

RF tuned Amplifier

Prof. Dr. Adel ELHennawy

DC and AC analysis

Prof. Dr. Adel ELHennawy

FET Amplifiers (JFET and MOSFET)

Prof. Dr. Adel ELHennawy

Common Source Amplifier

Prof. Dr. Adel ELHennawy

Common Gate Amplifier

Prof. Dr. Adel ELHennawy

Common Drain Amplifier

Prof. Dr. Adel ELHennawy

Course coordinator:
Signature:

Prof. Dr. Adel EL-Hennawy

Topics Taught as a percentage of the content specified

>90%

70% - 90%

<70 %

Reasons in detail for not teaching any topic

National vacancies

If any topics were taught which are not specified, give reasons in detail

All are specified

2- Teaching and learning methods:


Lectures
Practical training/laboratory
Seminar/Workshop
Class Activity
Case Study:
Other assignments/homework
If teaching and learning methods were used other than, those specified, list and give reasons

Miniprojects, to know and accustom the group and team


work. To make contact with components available in local
market. To know how carry over practice problem.
3- Student assessment:
Methods of assessment
Written examination

70 %

Oral examination

0%

Practical/laboratory work

10 %

Other assignments/class work

20 %

Course coordinator:
Signature:

Percentage of total

Prof. Dr. Adel EL-Hennawy

Members of examination committee

Prof. Dr. Adel El-Hennawy


Role of external evaluator:

Revising, updating and continous evaluation of the course.


4- Facilities and teaching materials:
Totally adequate
Adequate to some extent
Inadequate
List any inadequacies:

The Lab. facilities (Lab. equipment, Lab. area and available


number of assistants) are not adequate with the number of
students that approaches 113 student.
Administrative constraints:

Non------ ------ ------ ------ ------ ------ ------ ------ ------ ----- ------ ------ ------ ------ ------ ------ ------ ------ ------ ------ - Student evaluation of the course:
Comment

Response of course Team

Not received

------ ------ ------ ------ ------ ------

7-Comments from external evaluator(s)


Comment

Response of course Team

Non ------ ------ ------ ------ ----------- ------ ------ ------ ------ ---------- ------ ------ ------ ------ ----------- ------ ------ ------ ------ ---------8- Course enhancement: Progress on actions identified in the previous years action plan:
------ ------ ------ ------ ------ ------ ------ ------ ------ ------ -9- Action plan
Action required

Completion
date

Person responsible

------ ------- ------- ------- ------- ------------ ------------- ------- ------- -------

Course coordinator:
Signature:

Prof. Dr. Adel EL-Hennawy

Course report of

Computer Organization - CSE315 2009/2010


University: Ain Shams

Faculty: Engineering

Basic Information
1. Title and code :
Computer Organization - CSE315

2. Programme on which the course is given :


Mechatronics Dept
3. Year/ Level of programmes :
1. Units/Credit Hours
( i ) Lecture :

4 th year

( ii ) Tutorial /Practical :

( iii ) Total :

2. Names of lecturers contributing to the delivery of the course :


i Dr. Mohamed A. Shaalan
ii -

-------------------------------

iii -

-------------------------------

iv -

-------------------------------

v -

-------------------------------

vi -

-------------------------------

vii -

-------------------------------

viii -

-------------------------------

Course coordinator:

Prof. Dr. Ashraf M. Salem

External evaluator:

---- ---- ----

Course coordinator:
Signature:

Prof. Dr. Ashraf M. Salem

B- Statistical Information

No. of students attending the course:

111

Number

Percentage (%)

Students completing the course

111

100 %

Passed

110

99.1 %

Failed

.9 %

Excellent

4.55 %

Very Good

14

12.73 %

Good

33

30 %

Pass

58

52.73 %

Results

Grading Of
successful students

C- Professional Information
1-- Course Teaching:

Topic

No. of
Hours

Lecturer

Computer Abstractions and Technology

Dr. Mohamed A. Shaalan

Instructions set architecture

Dr. Mohamed A. Shaalan

Alternative architecture

Dr. Mohamed A. Shaalan

Processor datapath and control

Dr. Mohamed A. Shaalan

Performance evaluation

Dr. Mohamed A. Shaalan

Memory system

Dr. Mohamed A. Shaalan

Course coordinator:
Signature:

Prof. Dr. Ashraf M. Salem

Topics Taught as a percentage of the content specified

>90%

70% - 90%

<70 %

Reasons in detail for not teaching any topic

------ ------ ------ ------ ------ ------ ------ ------ ------ ------ ----- ------ ------ ------ ------ ------ ------ ------ ------ ------ ----- ------ ------ ------ ------ ------ ------ ------ ------ ------ ----------- ------ ------ ------ ------ ------ ------ ------ ------ ------ ----- ------ ------ ------ ------ ------ ------ ------ ------ ------ ---If any topics were taught which are not specified, give reasons in detail

------ ------ ------ ------ ------ ------ ------ ------ ------ ------ ----- ------ ------ ------ ------ ------ ------ ------ ------ ------ ----- ------ ------ ------ ------ ------ ------ ------ ------ ------ ----------- ------ ------ ------ ------ ------ ------ ------ ------ ------ ----- ------ ------ ------ ------ ------ ------ ------ ------ ------ ---2- Teaching and learning methods:
Lectures
Practical training/laboratory
Seminar/Workshop
Class Activity
Case Study:
Other assignments/homework
If teaching and learning methods were used other than, those specified, list and give reasons

------ ------ ------ ------ ------ ------ ------ ------ ------ ----- ------ ------ ------ ------ ------ ------ ------ ------ ----- ------ ------ ------ ------ ------ ------ ------ ------ ----- ------ ---3- Student assessment:
Methods of assessment
Written examination

70%

Oral examination

5%

Practical/laboratory work

15 %

Other assignments/class work

10 %

Course coordinator:
Signature:

Percentage of total

Prof. Dr. Ashraf M. Salem

Members of examination committee

Prof. Dr. Ashraf M. Salem-Dr. M.Wathek-Dr. Mohamed A. Shaalan


Role of external evaluator:

------ ------ ------ ------ ------ -----4- Facilities and teaching materials:
Totally adequate
Adequate to some extent
Inadequate
List any inadequacies:

------ ------ ------ ------ ------ ------ ------ ------ ------ ----- ------ ------ ------ ------ ------ ------ ------ ------ ----- ------ ------ ------ ------ ------ ------ ------ ------ ----- ------ ---5-Administrative constraints:

------ ------ ------ ------ ------ ------ ------ ------ ------ ------ ----- ------ ------ ------ ------ ------ ------ ------ ------ ------ ----- ------ ------ ------ ------ ------ ------ ------ ------ ------ ----------- ------ ------ ------ ------ ------ ------ ------ ------ ------ ----- ------ ------ ------ ------ ------ ------ ------ ------ ------ ---6-Student evaluation of the course:
Response of course Team

Comment

------ ------ ------ ------ ------ ----------- ------ ------ ------ ------ -----

------ ------ ------ ------ ------ ----------- ------ ------ ------ ------ -----

------ ------ ------ ------ ------ ----------- ------ ------ ------ ------ -----

------ ------ ------ ------ ------ ----------- ------ ------ ------ ------ -----

------ ------ ------ ------ ------ ----------- ------ ------ ------ ------ -----

------ ------ ------ ------ ------ ----------- ------ ------ ------ ------ -----

------ ------ ------ ------ ------ ----------- ------ ------ ------ ------ -----

------ ------ ------ ------ ------ ----------- ------ ------ ------ ------ -----

Course coordinator:
Signature:

Prof. Dr. Ashraf M. Salem

7-Comments from external evaluator(s)


Response of course Team

Comment

------ ------ ------ ------ ------ ----------- ------ ------ ------ ------ ---------- ------ ------ ------ ------ ----------- ------ ------ ------ ------ ---------- ------ ------ ------ ------ ----------- ------ ------ ------ ------ ---------- ------ ------ ------ ------ ----------- ------ ------ ------ ------ -----

------ ------ ------ ------ ------ ----------- ------ ------ ------ ------ ---------- ------ ------ ------ ------ ----------- ------ ------ ------ ------ ---------- ------ ------ ------ ------ ----------- ------ ------ ------ ------ ---------- ------ ------ ------ ------ ----------- ------ ------ ------ ------ -----

8- Course enhancement: Progress on actions identified in the previous years action plan:

------ ------ ------ ------ ------ ------ ------ ------ ------ ------ ----- ------ ------ ------ ------ ------ ------ ------ ------ ------ ----- ------ ------ ------ ------ ------ ------ ------ ------ ------ ----------- ------ ------ ------ ------ ------ ------ ------ ------ ------ ----- ------ ------ ------ ------ ------ ------ ------ ------ ------ ---9- Action plan
Action required

Completion
date

Person responsible

------ ------ ------ ------ ------ ------ ---- ----

------ ------ ------ ------

------ ------ ------ ------ ------ ------ ---- ----

------ ------ ------ ------

------ ------ ------ ------ ------ ------ ---- ----

------ ------ ------ ------

Course coordinator:
Signature:

Prof. Dr. Ashraf M. Salem

Course report of

Automatic Control - MDP358 2009/2010


University: Ain Shams

Faculty: Engineering

Basic Information
1. Title and code :
Automatic Control - MDP358

2. Programme on which the course is given :


Mechatronics

3. Year/ Level of programmes :


1. Units/Credit Hours
( i ) Lecture :

3/2

( ii ) Tutorial /Practical :

( iii ) Total :

2. Names of lecturers contributing to the delivery of the course :


i prof.dr.farid tolbah
ii -

-------------------------------

iii -

-------------------------------

iv -

-------------------------------

v -

-------------------------------

vi -

-------------------------------

vii -

-------------------------------

viii -

-------------------------------

Course coordinator:

prof.dr.farid tolbah

External evaluator:

---- ---- ----

Course coordinator:
Signature:

prof.dr.farid tolbah

B- Statistical Information

No. of students attending the course:

114

Number

Percentage (%)

Students completing the course

114

100 %

Passed

108

94.74 %

Failed

5.26000000000001 %

Excellent

8.33 %

Very Good

24

22.22 %

Good

32

29.63 %

Pass

43

39.81 %

Results

Grading Of
successful students

C- Professional Information
1-- Course Teaching:

Topic

No. of
Hours

Lecturer

Introduction to automatic control systems, Course


3
objectives,
------ -----Control
------system
------ configurations, T
2- Examples on control systems (process, servo,
3
logic)------ ------ ------ -----3 Process dynamics and mathematical modelling
14 of physical
------ -----systems:
------ ------ Determination of the system response solution
8 by: ------ ------ ------ -----5- Frequency response: - Polar and nyquist
6 plots, ------ ------ ------ -----6- Design of process control systems with P,
4 PI, PD, PID
------ ------ ------ ------

Industrial control systems: Sensors, Transmitters,


6
Controllers,
------ -----Final
-----control
------elements for proc
8- Analysis of feedback control systems: 16
Course coordinator:
Signature:

prof.dr.farid tolbah

------ ------ ------ ------

9- Synthesis of feedback control systems: Synthesis


2
criteria,
------ ------ ------ -----10- Controllers-tuning techniques

------ ------ ------ ------

11- Design of servo control systems using different


3
types
-----of -----compensators
------ -----Total no. of hours for the course

70

------ ------ ------ ------

------ ------ ------ ------ ------ ------

---- ----

------ ------ ------ ------

------ ------ ------ ------ ------ ------

---- ----

------ ------ ------ ------

------ ------ ------ ------ ------ ------

---- ----

------ ------ ------ ------

------ ------ ------ ------ ------ ------

---- ----

------ ------ ------ ------

------ ------ ------ ------ ------ ------

---- ----

------ ------ ------ ------

------ ------ ------ ------ ------ ------

---- ----

------ ------ ------ ------

------ ------ ------ ------ ------ ------

---- ----

------ ------ ------ ------

------ ------ ------ ------ ------ ------

---- ----

------ ------ ------ ------

------ ------ ------ ------ ------ ------

---- ----

------ ------ ------ ------

------ ------ ------ ------ ------ ------

---- ----

------ ------ ------ ------

------ ------ ------ ------ ------ ------

---- ----

------ ------ ------ ------

------ ------ ------ ------ ------ ------

---- ----

------ ------ ------ ------

------ ------ ------ ------ ------ ------

---- ----

------ ------ ------ ------

Course coordinator:
Signature:

prof.dr.farid tolbah

------ ------ ------ ------ ------ ------

---- ----

------ ------ ------ ------

------ ------ ------ ------ ------ ------

---- ----

------ ------ ------ ------

------ ------ ------ ------ ------ ------

---- ----

------ ------ ------ ------

------ ------ ------ ------ ------ ------

---- ----

------ ------ ------ ------

------ ------ ------ ------ ------ ------

---- ----

------ ------ ------ ------

------ ------ ------ ------ ------ ------

---- ----

------ ------ ------ ------

------ ------ ------ ------ ------ ------

---- ----

------ ------ ------ ------

------ ------ ------ ------ ------ ------

---- ----

------ ------ ------ ------

------ ------ ------ ------ ------ ------

---- ----

------ ------ ------ ------

Course coordinator:
Signature:

prof.dr.farid tolbah

Topics Taught as a percentage of the content specified

>90%

70% - 90%

<70 %

Reasons in detail for not teaching any topic

------ ------ ------ ------ ------ ------ ------ ------ ------ ------ ----- ------ ------ ------ ------ ------ ------ ------ ------ ------ ----- ------ ------ ------ ------ ------ ------ ------ ------ ------ ----------- ------ ------ ------ ------ ------ ------ ------ ------ ------ ----- ------ ------ ------ ------ ------ ------ ------ ------ ------ ---If any topics were taught which are not specified, give reasons in detail

------ ------ ------ ------ ------ ------ ------ ------ ------ ------ ----- ------ ------ ------ ------ ------ ------ ------ ------ ------ ----- ------ ------ ------ ------ ------ ------ ------ ------ ------ ----------- ------ ------ ------ ------ ------ ------ ------ ------ ------ ----- ------ ------ ------ ------ ------ ------ ------ ------ ------ ---2- Teaching and learning methods:

Lectures
Practical training/laboratory
Seminar/Workshop
Class Activity
Case Study:

Other assignments/homework
If teaching and learning methods were used other than, those specified, list and give reasons

------ ------ ------ ------ ------ ------ ------ ------ ------ ----- ------ ------ ------ ------ ------ ------ ------ ------ ----- ------ ------ ------ ------ ------ ------ ------ ------ ----- ------ ---3- Student assessment:
Methods of assessment
Written examination

70 %

Oral examination

0%

Practical/laboratory work

15 %

Other assignments/class work

15 %

Course coordinator:
Signature:

Percentage of total

prof.dr.farid tolbah

Members of examination committee

------ ------ ------ ------ ------ -----Role of external evaluator:

------ ------ ------ ------ ------ -----4- Facilities and teaching materials:

Totally adequate
Adequate to some extent
Inadequate
List any inadequacies:

------ ------ ------ ------ ------ ------ ------ ------ ------ ----- ------ ------ ------ ------ ------ ------ ------ ------ ----- ------ ------ ------ ------ ------ ------ ------ ------ ----- ------ ---5-Administrative constraints:

------ ------ ------ ------ ------ ------ ------ ------ ------ ------ ----- ------ ------ ------ ------ ------ ------ ------ ------ ------ ----- ------ ------ ------ ------ ------ ------ ------ ------ ------ ----------- ------ ------ ------ ------ ------ ------ ------ ------ ------ ----- ------ ------ ------ ------ ------ ------ ------ ------ ------ ---6-Student evaluation of the course:
Response of course Team

Comment

------ ------ ------ ------ ------ ----------- ------ ------ ------ ------ -----

------ ------ ------ ------ ------ ----------- ------ ------ ------ ------ -----

------ ------ ------ ------ ------ ----------- ------ ------ ------ ------ -----

------ ------ ------ ------ ------ ----------- ------ ------ ------ ------ -----

------ ------ ------ ------ ------ ----------- ------ ------ ------ ------ -----

------ ------ ------ ------ ------ ----------- ------ ------ ------ ------ -----

------ ------ ------ ------ ------ ----------- ------ ------ ------ ------ -----

------ ------ ------ ------ ------ ----------- ------ ------ ------ ------ -----

Course coordinator:
Signature:

prof.dr.farid tolbah

7-Comments from external evaluator(s)


Comment

Response of course Team

------ ------ ------ ------ ------ ----------- ------ ------ ------ ------ ---------- ------ ------ ------ ------ ----------- ------ ------ ------ ------ ---------- ------ ------ ------ ------ ----------- ------ ------ ------ ------ ---------- ------ ------ ------ ------ ----------- ------ ------ ------ ------ -----

------ ------ ------ ------ ------ ----------- ------ ------ ------ ------ ---------- ------ ------ ------ ------ ----------- ------ ------ ------ ------ ---------- ------ ------ ------ ------ ----------- ------ ------ ------ ------ ---------- ------ ------ ------ ------ ----------- ------ ------ ------ ------ -----

8- Course enhancement: Progress on actions identified in the previous years action plan:

------ ------ ------ ------ ------ ------ ------ ------ ------ ------ ----- ------ ------ ------ ------ ------ ------ ------ ------ ------ ----- ------ ------ ------ ------ ------ ------ ------ ------ ------ ----------- ------ ------ ------ ------ ------ ------ ------ ------ ------ ----- ------ ------ ------ ------ ------ ------ ------ ------ ------ ---9- Action plan
Action required

Completion
date

Person responsible

------ ------ ------ ------ ------ ------ ---- ----

------ ------ ------ ------

------ ------ ------ ------ ------ ------ ---- ----

------ ------ ------ ------

------ ------ ------ ------ ------ ------ ---- ----

------ ------ ------ ------

------ ------ ------ ------ ------ ------ ---- ----

------ ------ ------ ------

------ ------ ------ ------ ------ ------ ---- ----

------ ------ ------ ------

Course coordinator:
Signature:

prof.dr.farid tolbah

Course report of

Mechatronics (1) - MDP359 2009/2010


University: Ain Shams

Faculty: Engineering

Basic Information
1. Title and code :
Mechatronics (1) - MDP359

2. Programme on which the course is given :


Mechatronics

3. Year/ Level of programmes :


1. Units/Credit Hours
( i ) Lecture :

3 rd year/ 2

( ii ) Tutorial /Practical :

( iii ) Total :

2. Names of lecturers contributing to the delivery of the course :


i Prof. Dr. Hesham Senbil
ii -

-------------------------------

iii -

-------------------------------

iv -

-------------------------------

v -

-------------------------------

vi -

-------------------------------

vii -

-------------------------------

viii -

-------------------------------

Course coordinator:

Prof. Dr. Hesham Senbil

External evaluator:

---- ---- ----

Course coordinator:
Signature:

Prof. Dr. Hesham Senbil

B- Statistical Information

No. of students attending the course:

111

Number

Percentage (%)

Students completing the course

111

100 %

Passed

107

96.4 %

Failed

3.59999999999999 %

Excellent

6.54 %

Very Good

19

17.76 %

Good

28

26.17 %

Pass

53

49.53 %

Results

Grading Of
successful students

C- Professional Information
1-- Course Teaching:

Topic

No. of
Hours

Lecturer

Introduction, definition, history, configuration


5 and Basic
Dr.components
Hesham Senbil
of mechatronic systems
Electric circuits including grounding and electrical
7
interference
Dr. Hesham Senbil
Semiconductor electronics including optoelectronic
6
devices
Dr. Hesham Senbil
System response including system modeling6and analogies
Dr. Hesham Senbil
Analog signal processing using operational 7amplifiersDr. Hesham Senbil
Digital circuits including some special purpose
7 digitalDr.
integrated
Heshamcircuits
Senbil
Data acquisition system including digital/analog
10 conversion
Dr. Hesham Senbil
Hardware, Software codesign of embedded10
systems based
Dr. Hesham
on codesign
Senbilfinite
Course coordinator:
Signature:

Prof. Dr. Hesham Senbil

Introduction to VHDL for modeling digital hardware


7
devices
Dr. Hesham
usingSenbil
structural
Dataflow and behavioral styles

Dr. Hesham Senbil

------ ------ ------ ------ ------ ------

---- ----

------ ------ ------ ------

------ ------ ------ ------ ------ ------

---- ----

------ ------ ------ ------

------ ------ ------ ------ ------ ------

---- ----

------ ------ ------ ------

------ ------ ------ ------ ------ ------

---- ----

------ ------ ------ ------

------ ------ ------ ------ ------ ------

---- ----

------ ------ ------ ------

------ ------ ------ ------ ------ ------

---- ----

------ ------ ------ ------

------ ------ ------ ------ ------ ------

---- ----

------ ------ ------ ------

------ ------ ------ ------ ------ ------

---- ----

------ ------ ------ ------

------ ------ ------ ------ ------ ------

---- ----

------ ------ ------ ------

------ ------ ------ ------ ------ ------

---- ----

------ ------ ------ ------

------ ------ ------ ------ ------ ------

---- ----

------ ------ ------ ------

------ ------ ------ ------ ------ ------

---- ----

------ ------ ------ ------

------ ------ ------ ------ ------ ------

---- ----

------ ------ ------ ------

------ ------ ------ ------ ------ ------

---- ----

------ ------ ------ ------

------ ------ ------ ------ ------ ------

---- ----

------ ------ ------ ------

Course coordinator:
Signature:

Prof. Dr. Hesham Senbil

------ ------ ------ ------ ------ ------

---- ----

------ ------ ------ ------

------ ------ ------ ------ ------ ------

---- ----

------ ------ ------ ------

------ ------ ------ ------ ------ ------

---- ----

------ ------ ------ ------

------ ------ ------ ------ ------ ------

---- ----

------ ------ ------ ------

------ ------ ------ ------ ------ ------

---- ----

------ ------ ------ ------

------ ------ ------ ------ ------ ------

---- ----

------ ------ ------ ------

------ ------ ------ ------ ------ ------

---- ----

------ ------ ------ ------

------ ------ ------ ------ ------ ------

---- ----

------ ------ ------ ------

------ ------ ------ ------ ------ ------

---- ----

------ ------ ------ ------

Course coordinator:
Signature:

Prof. Dr. Hesham Senbil

Topics Taught as a percentage of the content specified

>90%

70% - 90%

<70 %

Reasons in detail for not teaching any topic

------ ------ ------ ------ ------ ------ ------ ------ ------ ------ ----- ------ ------ ------ ------ ------ ------ ------ ------ ------ ----- ------ ------ ------ ------ ------ ------ ------ ------ ------ ----------- ------ ------ ------ ------ ------ ------ ------ ------ ------ ----- ------ ------ ------ ------ ------ ------ ------ ------ ------ ---If any topics were taught which are not specified, give reasons in detail

------ ------ ------ ------ ------ ------ ------ ------ ------ ------ ----- ------ ------ ------ ------ ------ ------ ------ ------ ------ ----- ------ ------ ------ ------ ------ ------ ------ ------ ------ ----------- ------ ------ ------ ------ ------ ------ ------ ------ ------ ----- ------ ------ ------ ------ ------ ------ ------ ------ ------ ---2- Teaching and learning methods:

Lectures
Practical training/laboratory
Seminar/Workshop
Class Activity
Case Study:

Other assignments/homework
If teaching and learning methods were used other than, those specified, list and give reasons

------ ------ ------ ------ ------ ------ ------ ------ ------ ----- ------ ------ ------ ------ ------ ------ ------ ------ ----- ------ ------ ------ ------ ------ ------ ------ ------ ----- ------ ---3- Student assessment:
Methods of assessment
Written examination

60 %

Oral examination

20 %

Practical/laboratory work

10 %

Other assignments/class work

10 %

Course coordinator:
Signature:

Percentage of total

Prof. Dr. Hesham Senbil

Members of examination committee

------ ------ ------ ------ ------ -----Role of external evaluator:

------ ------ ------ ------ ------ -----4- Facilities and teaching materials:

Totally adequate
Adequate to some extent
Inadequate
List any inadequacies:

------ ------ ------ ------ ------ ------ ------ ------ ------ ----- ------ ------ ------ ------ ------ ------ ------ ------ ----- ------ ------ ------ ------ ------ ------ ------ ------ ----- ------ ---5-Administrative constraints:

------ ------ ------ ------ ------ ------ ------ ------ ------ ------ ----- ------ ------ ------ ------ ------ ------ ------ ------ ------ ----- ------ ------ ------ ------ ------ ------ ------ ------ ------ ----------- ------ ------ ------ ------ ------ ------ ------ ------ ------ ----- ------ ------ ------ ------ ------ ------ ------ ------ ------ ---6-Student evaluation of the course:
Response of course Team

Comment

------ ------ ------ ------ ------ ----------- ------ ------ ------ ------ -----

------ ------ ------ ------ ------ ----------- ------ ------ ------ ------ -----

------ ------ ------ ------ ------ ----------- ------ ------ ------ ------ -----

------ ------ ------ ------ ------ ----------- ------ ------ ------ ------ -----

------ ------ ------ ------ ------ ----------- ------ ------ ------ ------ -----

------ ------ ------ ------ ------ ----------- ------ ------ ------ ------ -----

------ ------ ------ ------ ------ ----------- ------ ------ ------ ------ -----

------ ------ ------ ------ ------ ----------- ------ ------ ------ ------ -----

Course coordinator:
Signature:

Prof. Dr. Hesham Senbil

7-Comments from external evaluator(s)


Comment

Response of course Team

------ ------ ------ ------ ------ ----------- ------ ------ ------ ------ ---------- ------ ------ ------ ------ ----------- ------ ------ ------ ------ ---------- ------ ------ ------ ------ ----------- ------ ------ ------ ------ ---------- ------ ------ ------ ------ ----------- ------ ------ ------ ------ -----

------ ------ ------ ------ ------ ----------- ------ ------ ------ ------ ---------- ------ ------ ------ ------ ----------- ------ ------ ------ ------ ---------- ------ ------ ------ ------ ----------- ------ ------ ------ ------ ---------- ------ ------ ------ ------ ----------- ------ ------ ------ ------ -----

8- Course enhancement: Progress on actions identified in the previous years action plan:

------ ------ ------ ------ ------ ------ ------ ------ ------ ------ ----- ------ ------ ------ ------ ------ ------ ------ ------ ------ ----- ------ ------ ------ ------ ------ ------ ------ ------ ------ ----------- ------ ------ ------ ------ ------ ------ ------ ------ ------ ----- ------ ------ ------ ------ ------ ------ ------ ------ ------ ---9- Action plan
Action required

Completion
date

Person responsible

------ ------ ------ ------ ------ ------ ---- ----

------ ------ ------ ------

------ ------ ------ ------ ------ ------ ---- ----

------ ------ ------ ------

------ ------ ------ ------ ------ ------ ---- ----

------ ------ ------ ------

------ ------ ------ ------ ------ ------ ---- ----

------ ------ ------ ------

------ ------ ------ ------ ------ ------ ---- ----

------ ------ ------ ------

Course coordinator:
Signature:

Prof. Dr. Hesham Senbil

Course report of

Design of Applied Measurement Systems - MEP382 2009/2010


University: Ain Shams

Faculty: Engineering

Basic Information
1. Title and code :
Design of Applied Measurement Systems - MEP382

2. Programme on which the course is given :

3. Year/ Level of programmes :


1. Units/Credit Hours
( i ) Lecture :

3 rd year

45

( ii ) Tutorial /Practical :

45

( iii ) Total :

90

2. Names of lecturers contributing to the delivery of the course :


i Dr. Abdul Aziz Mrogan Abdul Aziz
ii -

-------------------------------

iii -

-------------------------------

iv -

-------------------------------

v -

-------------------------------

vi -

-------------------------------

vii -

-------------------------------

viii -

-------------------------------

Course coordinator:

Prof. Dr. Farid Tolba

External evaluator:

---- ---- ----

Course coordinator:
Signature:

Prof. Dr. Farid Tolba

B- Statistical Information

No. of students attending the course:

111

Number

Percentage (%)

Students completing the course

111

100 %

Passed

108

97.3 %

Failed

2.7 %

Excellent

0%

Very Good

4.63 %

Good

17

15.74 %

Pass

86

79.63 %

Results

Grading Of
successful students

C- Professional Information
1-- Course Teaching:

Topic

No. of
Hours

Lecturer

Introduction to the design of measured systems


3

------ ------ ------ ------

Classification and configuration

------ ------ ------ ------

Analog and Digital signals

------ ------ ------ ------

Dynamic performance of ideal measurement6 systems ------ ------ ------ -----Design configuration of a traditional measurement
4
system
------ ------ ------ -----Static and dynamic performance

------ ------ ------ ------

Accuracy analysis

------ ------ ------ ------

Course coordinator:
Signature:

Prof. Dr. Farid Tolba

Statistical methods for error analysis

------ ------ ------ ------

Data acquisition cards

------ ------ ------ ------

Sensors design and performance

12

------ ------ ------ ------

------ ------ ------ ------ ------ ------

---- ----

------ ------ ------ ------

------ ------ ------ ------ ------ ------

---- ----

------ ------ ------ ------

------ ------ ------ ------ ------ ------

---- ----

------ ------ ------ ------

------ ------ ------ ------ ------ ------

---- ----

------ ------ ------ ------

------ ------ ------ ------ ------ ------

---- ----

------ ------ ------ ------

------ ------ ------ ------ ------ ------

---- ----

------ ------ ------ ------

------ ------ ------ ------ ------ ------

---- ----

------ ------ ------ ------

------ ------ ------ ------ ------ ------

---- ----

------ ------ ------ ------

------ ------ ------ ------ ------ ------

---- ----

------ ------ ------ ------

------ ------ ------ ------ ------ ------

---- ----

------ ------ ------ ------

------ ------ ------ ------ ------ ------

---- ----

------ ------ ------ ------

------ ------ ------ ------ ------ ------

---- ----

------ ------ ------ ------

------ ------ ------ ------ ------ ------

---- ----

------ ------ ------ ------

------ ------ ------ ------ ------ ------

---- ----

------ ------ ------ ------

------ ------ ------ ------ ------ ------

---- ----

------ ------ ------ ------

Course coordinator:
Signature:

Prof. Dr. Farid Tolba

------ ------ ------ ------ ------ ------

---- ----

------ ------ ------ ------

------ ------ ------ ------ ------ ------

---- ----

------ ------ ------ ------

------ ------ ------ ------ ------ ------

---- ----

------ ------ ------ ------

------ ------ ------ ------ ------ ------

---- ----

------ ------ ------ ------

------ ------ ------ ------ ------ ------

---- ----

------ ------ ------ ------

------ ------ ------ ------ ------ ------

---- ----

------ ------ ------ ------

------ ------ ------ ------ ------ ------

---- ----

------ ------ ------ ------

------ ------ ------ ------ ------ ------

---- ----

------ ------ ------ ------

------ ------ ------ ------ ------ ------

---- ----

------ ------ ------ ------

Course coordinator:
Signature:

Prof. Dr. Farid Tolba

Topics Taught as a percentage of the content specified

>90%

70% - 90%

<70 %

Reasons in detail for not teaching any topic

------ ------ ------ ------ ------ ------ ------ ------ ------ ------ ----- ------ ------ ------ ------ ------ ------ ------ ------ ------ ----- ------ ------ ------ ------ ------ ------ ------ ------ ------ ----------- ------ ------ ------ ------ ------ ------ ------ ------ ------ ----- ------ ------ ------ ------ ------ ------ ------ ------ ------ ---If any topics were taught which are not specified, give reasons in detail

------ ------ ------ ------ ------ ------ ------ ------ ------ ------ ----- ------ ------ ------ ------ ------ ------ ------ ------ ------ ----- ------ ------ ------ ------ ------ ------ ------ ------ ------ ----------- ------ ------ ------ ------ ------ ------ ------ ------ ------ ----- ------ ------ ------ ------ ------ ------ ------ ------ ------ ---2- Teaching and learning methods:

Lectures
Practical training/laboratory
Seminar/Workshop
Class Activity
Case Study:

Other assignments/homework
If teaching and learning methods were used other than, those specified, list and give reasons

------ ------ ------ ------ ------ ------ ------ ------ ------ ----- ------ ------ ------ ------ ------ ------ ------ ------ ----- ------ ------ ------ ------ ------ ------ ------ ------ ----- ------ ---3- Student assessment:
Methods of assessment
Written examination

70 %

Oral examination

20 %

Practical/laboratory work

5%

Other assignments/class work

5%

Course coordinator:
Signature:

Percentage of total

Prof. Dr. Farid Tolba

Members of examination committee

------ ------ ------ ------ ------ -----Role of external evaluator:

------ ------ ------ ------ ------ -----4- Facilities and teaching materials:

Totally adequate
Adequate to some extent
Inadequate
List any inadequacies:

A measurement lab is beeing prepared .

5-Administrative constraints:

------ ------ ------ ------ ------ ------ ------ ------ ------ ------ ----- ------ ------ ------ ------ ------ ------ ------ ------ ------ ----- ------ ------ ------ ------ ------ ------ ------ ------ ------ ----------- ------ ------ ------ ------ ------ ------ ------ ------ ------ ----- ------ ------ ------ ------ ------ ------ ------ ------ ------ ---6-Student evaluation of the course:
Response of course Team

Comment

------ ------ ------ ------ ------ ----------- ------ ------ ------ ------ -----

------ ------ ------ ------ ------ ----------- ------ ------ ------ ------ -----

------ ------ ------ ------ ------ ----------- ------ ------ ------ ------ -----

------ ------ ------ ------ ------ ----------- ------ ------ ------ ------ -----

------ ------ ------ ------ ------ ----------- ------ ------ ------ ------ -----

------ ------ ------ ------ ------ ----------- ------ ------ ------ ------ -----

------ ------ ------ ------ ------ ----------- ------ ------ ------ ------ -----

------ ------ ------ ------ ------ ----------- ------ ------ ------ ------ -----

Course coordinator:
Signature:

Prof. Dr. Farid Tolba

7-Comments from external evaluator(s)


Comment

Response of course Team

------ ------ ------ ------ ------ ----------- ------ ------ ------ ------ ---------- ------ ------ ------ ------ ----------- ------ ------ ------ ------ ---------- ------ ------ ------ ------ ----------- ------ ------ ------ ------ ---------- ------ ------ ------ ------ ----------- ------ ------ ------ ------ -----

------ ------ ------ ------ ------ ----------- ------ ------ ------ ------ ---------- ------ ------ ------ ------ ----------- ------ ------ ------ ------ ---------- ------ ------ ------ ------ ----------- ------ ------ ------ ------ ---------- ------ ------ ------ ------ ----------- ------ ------ ------ ------ -----

8- Course enhancement: Progress on actions identified in the previous years action plan:

------ ------ ------ ------ ------ ------ ------ ------ ------ ------ ----- ------ ------ ------ ------ ------ ------ ------ ------ ------ ----- ------ ------ ------ ------ ------ ------ ------ ------ ------ ----------- ------ ------ ------ ------ ------ ------ ------ ------ ------ ----- ------ ------ ------ ------ ------ ------ ------ ------ ------ ---9- Action plan
Action required

Completion
date

Person responsible

------ ------ ------ ------ ------ ------ ---- ----

------ ------ ------ ------

------ ------ ------ ------ ------ ------ ---- ----

------ ------ ------ ------

------ ------ ------ ------ ------ ------ ---- ----

------ ------ ------ ------

------ ------ ------ ------ ------ ------ ---- ----

------ ------ ------ ------

------ ------ ------ ------ ------ ------ ---- ----

------ ------ ------ ------

Course coordinator:
Signature:

Prof. Dr. Farid Tolba

QAU
FACULTY OF ENGINEERING
AIN SHAMS UNIVERSITY

Fifth Year

1 - 20226830947- 20226826639: 20226830947 - 20226826639: . 11517 :


1 El-Sarayat Street, Abbassia Cairo Egypt Tel : 202 26830947-26826639 Fax 202 26830947-26826639 P.O.B #11517

Course report of

Project - MDP499 2009/2010


University: Ain Shams

Faculty: Engineering

Basic Information
1. Title and code :
Project - MDP499

2. Programme on which the course is given :


Mechanical mechatronics

3. Year/ Level of programmes :


1. Units/Credit Hours
( i ) Lecture :

5 year/ first and second semester

( ii ) Tutorial /Practical :

( iii ) Total :

2. Names of lecturers contributing to the delivery of the course :


i Dr. Mohamed Ahmed Awad
ii -

Dr. Salem Hagag

iii -

Prof. Dr. magdi Abd el hameed

iv -

Prof. Dr. Farid Tolbah

v -

Prof. Dr. Hesham Senbel

vi -

Prof. Dr. Mohamed Abed El mohsen

vii viii -

Course coordinator:

Dr. Mohamed Ahmed Awad

External evaluator:

---- ---- ----

Course coordinator:
Signature:

Dr. Mohamed Ahmed Awad

B- Statistical Information

No. of students attending the course:

108

Number

Percentage (%)

Students completing the course

108

100 %

Passed

107

99.07 %

Failed

.930000000000007 %

Excellent

106

99.07 %

Very Good

0%

Good

0%

Pass

.93 %

Results

Grading Of
successful students

C- Professional Information
1-- Course Teaching:

Topic

No. of
Hours

------ ------ ------ ------ ------ ------

---- ----

------ ------ ------ ------

------ ------ ------ ------ ------ ------

---- ----

------ ------ ------ ------

------ ------ ------ ------ ------ ------

---- ----

------ ------ ------ ------

------ ------ ------ ------ ------ ------

---- ----

------ ------ ------ ------

------ ------ ------ ------ ------ ------

---- ----

------ ------ ------ ------

------ ------ ------ ------ ------ ------

---- ----

------ ------ ------ ------

------ ------ ------ ------ ------ ------

---- ----

------ ------ ------ ------

------ ------ ------ ------ ------ ------

---- ----

------ ------ ------ ------

Course coordinator:
Signature:

Dr. Mohamed Ahmed Awad

Lecturer

------ ------ ------ ------ ------ ------

---- ----

------ ------ ------ ------

------ ------ ------ ------ ------ ------

---- ----

------ ------ ------ ------

------ ------ ------ ------ ------ ------

---- ----

------ ------ ------ ------

------ ------ ------ ------ ------ ------

---- ----

------ ------ ------ ------

------ ------ ------ ------ ------ ------

---- ----

------ ------ ------ ------

------ ------ ------ ------ ------ ------

---- ----

------ ------ ------ ------

------ ------ ------ ------ ------ ------

---- ----

------ ------ ------ ------

------ ------ ------ ------ ------ ------

---- ----

------ ------ ------ ------

------ ------ ------ ------ ------ ------

---- ----

------ ------ ------ ------

------ ------ ------ ------ ------ ------

---- ----

------ ------ ------ ------

------ ------ ------ ------ ------ ------

---- ----

------ ------ ------ ------

------ ------ ------ ------ ------ ------

---- ----

------ ------ ------ ------

------ ------ ------ ------ ------ ------

---- ----

------ ------ ------ ------

------ ------ ------ ------ ------ ------

---- ----

------ ------ ------ ------

------ ------ ------ ------ ------ ------

---- ----

------ ------ ------ ------

------ ------ ------ ------ ------ ------

---- ----

------ ------ ------ ------

------ ------ ------ ------ ------ ------

---- ----

------ ------ ------ ------

Course coordinator:
Signature:

Dr. Mohamed Ahmed Awad

------ ------ ------ ------ ------ ------

---- ----

------ ------ ------ ------

------ ------ ------ ------ ------ ------

---- ----

------ ------ ------ ------

------ ------ ------ ------ ------ ------

---- ----

------ ------ ------ ------

------ ------ ------ ------ ------ ------

---- ----

------ ------ ------ ------

------ ------ ------ ------ ------ ------

---- ----

------ ------ ------ ------

------ ------ ------ ------ ------ ------

---- ----

------ ------ ------ ------

------ ------ ------ ------ ------ ------

---- ----

------ ------ ------ ------

------ ------ ------ ------ ------ ------

---- ----

------ ------ ------ ------

------ ------ ------ ------ ------ ------

---- ----

------ ------ ------ ------

Course coordinator:
Signature:

Dr. Mohamed Ahmed Awad

Topics Taught as a percentage of the content specified

>90%

70% - 90%

<70 %

Reasons in detail for not teaching any topic

Lake of Workshop Equipments . lake of lab Equipments

If any topics were taught which are not specified, give reasons in detail

------ ------ ------ ------ ------ ------ ------ ------ ------ ------ ----- ------ ------ ------ ------ ------ ------ ------ ------ ------ ----- ------ ------ ------ ------ ------ ------ ------ ------ ------ ----------- ------ ------ ------ ------ ------ ------ ------ ------ ------ ----- ------ ------ ------ ------ ------ ------ ------ ------ ------ ---2- Teaching and learning methods:

Lectures
Practical training/laboratory
Seminar/Workshop
Class Activity
Case Study:

Other assignments/homework
If teaching and learning methods were used other than, those specified, list and give reasons

Field Visits

3- Student assessment:
Methods of assessment
Written examination

0%

Oral examination

50 %

Practical/laboratory work

25 %

Other assignments/class work

25 %

Course coordinator:
Signature:

Percentage of total

Dr. Mohamed Ahmed Awad

Members of examination committee

------ ------ ------ ------ ------ -----Role of external evaluator:

------ ------ ------ ------ ------ -----4- Facilities and teaching materials:

Totally adequate
Adequate to some extent
Inadequate
List any inadequacies:

Shortage in Equipments and raw materials

5-Administrative constraints:

------ ------ ------ ------ ------ ------ ------ ------ ------ ------ ----- ------ ------ ------ ------ ------ ------ ------ ------ ------ ----- ------ ------ ------ ------ ------ ------ ------ ------ ------ ----------- ------ ------ ------ ------ ------ ------ ------ ------ ------ ----- ------ ------ ------ ------ ------ ------ ------ ------ ------ ---6-Student evaluation of the course:
Response of course Team

Comment

Excelent and no comments

------ ------ ------ ------ ------ ----------- ------ ------ ------ ------ -----

------ ------ ------ ------ ------ ----------- ------ ------ ------ ------ -----

------ ------ ------ ------ ------ ----------- ------ ------ ------ ------ -----

------ ------ ------ ------ ------ ----------- ------ ------ ------ ------ -----

------ ------ ------ ------ ------ ----------- ------ ------ ------ ------ -----

------ ------ ------ ------ ------ ----------- ------ ------ ------ ------ -----

------ ------ ------ ------ ------ ----------- ------ ------ ------ ------ -----

Course coordinator:
Signature:

Dr. Mohamed Ahmed Awad

7-Comments from external evaluator(s)


Comment

Response of course Team

------ ------ ------ ------ ------ ----------- ------ ------ ------ ------ ---------- ------ ------ ------ ------ ----------- ------ ------ ------ ------ ---------- ------ ------ ------ ------ ----------- ------ ------ ------ ------ ---------- ------ ------ ------ ------ ----------- ------ ------ ------ ------ -----

------ ------ ------ ------ ------ ----------- ------ ------ ------ ------ ---------- ------ ------ ------ ------ ----------- ------ ------ ------ ------ ---------- ------ ------ ------ ------ ----------- ------ ------ ------ ------ ---------- ------ ------ ------ ------ ----------- ------ ------ ------ ------ -----

8- Course enhancement: Progress on actions identified in the previous years action plan:

------ ------ ------ ------ ------ ------ ------ ------ ------ ------ ----- ------ ------ ------ ------ ------ ------ ------ ------ ------ ----- ------ ------ ------ ------ ------ ------ ------ ------ ------ ----------- ------ ------ ------ ------ ------ ------ ------ ------ ------ ----- ------ ------ ------ ------ ------ ------ ------ ------ ------ ---9- Action plan
Action required

Completion
date

Person responsible

Lab Equipments

Not yet

Faculty Admin

Computer Lab

Not yet

Faculty Admin

Simulation Software

Not yet

Faculty Admin

------ ------ ------ ------ ------ ------ ---- ----

------ ------ ------ ------

------ ------ ------ ------ ------ ------ ---- ----

------ ------ ------ ------

Course coordinator:
Signature:

Dr. Mohamed Ahmed Awad

Course report of

Microprocessor Based Systems - CSE413 2009/2010


University: Ain Shams

Faculty: Engineering

Basic Information
1. Title and code :
Microprocessor Based Systems - CSE413

2. Programme on which the course is given :


Mechatronics Dept
3. Year/ Level of programmes :
1. Units/Credit Hours
( i ) Lecture :

5th Year

( ii ) Tutorial /Practical :

( iii ) Total :

2. Names of lecturers contributing to the delivery of the course :


i Prof. Mohamed El-Shafie
ii -

-------------------------------

iii -

-------------------------------

iv -

-------------------------------

v -

-------------------------------

vi -

-------------------------------

vii -

-------------------------------

viii -

-------------------------------

Course coordinator:

Dr. Mohamed El-Shafie

External evaluator:

---- ---- ----

Course coordinator:
Signature:

Dr. Mohamed El-Shafie

B- Statistical Information

No. of students attending the course:

108

Number

Percentage (%)

Students completing the course

108

100 %

Passed

106

98.15 %

Failed

1.8 %

Excellent

4.72 %

Very Good

15

14.15 %

Good

20

18.87 %

Pass

66

62.26 %

Results

Grading Of
successful students

C- Professional Information
1-- Course Teaching:

Topic

No. of
Hours

Lecturer

Applications in control

Prof. Mohamed El-Shafie

The instruction set & simple assembly


modules

Prof. Mohamed El-Shafie

Analog I/O

Prof. Mohamed El-Shafie

Interrupt mechanism

Prof. Mohamed El-Shafie

Programmer's model

Prof. Mohamed El-Shafie

Introduction to microprocessors &


microcontrollers

Prof. Mohamed El-Shafie

Memory addressing

Prof. Mohamed El-Shafie

Course coordinator:
Signature:

Dr. Mohamed El-Shafie

Assembly programming/ Structured


programming

Prof. Mohamed El-Shafie

Digital I/O

Prof. Mohamed El-Shafie

Memory types/Memory map &


expansion

Prof. Mohamed El-Shafie

Topics Taught as a percentage of the content specified

>90%

70% - 90%

<70 %

Reasons in detail for not teaching any topic

If any topics were taught which are not specified, give reasons in detail

2- Teaching and learning methods:


Lectures
Practical training/laboratory
Seminar/Workshop
Class Activity
Case Study:
Other assignments/homework
If teaching and learning methods were used other than, those specified, list and give reasons

Assignments with codewarrier IDE

3- Student assessment:
Methods of assessment
Written examination

90 %

Oral examination

0%

Practical/laboratory work

0%

Other assignments/class work

10 %

Members of examination committee


Course coordinator:
Signature:

Percentage of total

Dr. Mohamed El-Shafie

------ ------ ------ ------ ------ -----Role of external evaluator:

------ ------ ------ ------ ------ -----4- Facilities and teaching materials:
Totally adequate
Adequate to some extent
Inadequate
List any inadequacies:

Lab --- ------ ------ ------ ------ ------ ------ ------ ----------- ------ ------ ------ ------ ------ ------ ------ ------ ----- ------ ------ ------ ------ ------ ------ ------ ------ --5-Administrative constraints:
6-Student evaluation of the course:
Comment

Response of course Team

------ ------ ------ ------ ------ ----------- ------ ------ ------ ------ -----

------ ------ ------ ------ ------ ----------- ------ ------ ------ ------ -----

7-Comments from external evaluator(s)


Comment

Response of course Team

------ ------ ------ ------ ------ ----------- ------ ------ ------ ------ -----

------ ------ ------ ------ ------ ----------- ------ ------ ------ ------ -----

8- Course enhancement: Progress on actions identified in the previous years action plan:
9- Action plan
Action required

Completion
date

------ ------ ------ ------ ------ ------ ---- ----

Course coordinator:
Signature:

Dr. Mohamed El-Shafie

Person responsible

------ ------ ------ ------

Course report of

Pneumatic & Hydraulic Control - MDP452 2009/2010


University: Ain Shams

Faculty: Engineering

Basic Information
1. Title and code :
Pneumatic & Hydraulic Control - MDP452

2. Programme on which the course is given :


Mechatronics

3. Year/ Level of programmes :


1. Units/Credit Hours
( i ) Lecture :

4 th year

( ii ) Tutorial /Practical :

( iii ) Total :

2. Names of lecturers contributing to the delivery of the course :


i Prof. dr. magdy abdel hameed
ii -

-------------------------------

iii -

-------------------------------

iv -

-------------------------------

v -

-------------------------------

vi -

-------------------------------

vii -

-------------------------------

viii -

-------------------------------

Course coordinator:

Prof. Dr. Magdy abdel hameed

External evaluator:

---- ---- ----

Course coordinator:
Signature:

Prof. Dr. Magdy abdel hameed

B- Statistical Information

No. of students attending the course:

107

Number

Percentage (%)

Students completing the course

107

100 %

Passed

106

99.07 %

Failed

.930000000000007 %

Excellent

6.6 %

Very Good

23

21.7 %

Good

30

28.3 %

Pass

46

43.4 %

Results

Grading Of
successful students

C- Professional Information
1-- Course Teaching:

Topic

No. of
Hours

Lecturer

Introduction to pneumatic and hydraulic control


6 systems
Prof.
(review
Dr. Magdy
to the basic
abdelprinciples
hameed of hyd
Hydraulic and pneumatic equipment

Prof. Dr. Magdy abdel hameed

Hydraulic pumps - Characteristics, Pump Selection,


11
Pumping
Prof. Dr.Circuits,
Magdysymbols.
abdel hameed

4- Hydraulic Valves: Pressure, Flow, Direction


14 Controls,
Prof.cartridge
Dr. Magdy
valve,
abdel
proportional
hameed valves
5- Hydraulic Actuators: Linear and Rotary,12
Selection, Prof.
Characteristics,
Dr. Magdysymbols.
abdel hameed
6- Pneumatic and hydraulic servo systems 11

Prof. Dr. Magdy abdel hameed

7- Control of hydraulic and pneumatic systems


11 (speed Prof.
and pressure,
Dr. Magdy abdel hameed
8- Electro- pneumatic and electro- hydraulic
6 systems Prof. Dr. Magdy abdel hameed
Course coordinator:
Signature:

Prof. Dr. Magdy abdel hameed

9- , Fault diagnosis and maintenance of pneumatic


5
andProf.
hydraulic
Dr. Magdy
systems.
abdel hameed
Total no. of hours for the course

84

------ ------ ------ ------ ------ ------

---- ----

------ ------ ------ ------ ------ ------

---- ----

------ ------ ------ ------ ------ ------

---- ----

------ ------ ------ ------

------ ------ ------ ------ ------ ------

---- ----

------ ------ ------ ------

------ ------ ------ ------ ------ ------

---- ----

------ ------ ------ ------

------ ------ ------ ------ ------ ------

---- ----

------ ------ ------ ------

------ ------ ------ ------ ------ ------

---- ----

------ ------ ------ ------

------ ------ ------ ------ ------ ------

---- ----

------ ------ ------ ------

------ ------ ------ ------ ------ ------

---- ----

------ ------ ------ ------

------ ------ ------ ------ ------ ------

---- ----

------ ------ ------ ------

------ ------ ------ ------ ------ ------

---- ----

------ ------ ------ ------

------ ------ ------ ------ ------ ------

---- ----

------ ------ ------ ------

------ ------ ------ ------ ------ ------

---- ----

------ ------ ------ ------

------ ------ ------ ------ ------ ------

---- ----

------ ------ ------ ------

------ ------ ------ ------ ------ ------

---- ----

------ ------ ------ ------

Course coordinator:
Signature:

Prof. Dr. Magdy abdel hameed

Prof. Dr. Magdy abdel hameed

------ ------ ------ ------ ------ ------

---- ----

------ ------ ------ ------

------ ------ ------ ------ ------ ------

---- ----

------ ------ ------ ------

------ ------ ------ ------ ------ ------

---- ----

------ ------ ------ ------

------ ------ ------ ------ ------ ------

---- ----

------ ------ ------ ------

------ ------ ------ ------ ------ ------

---- ----

------ ------ ------ ------

------ ------ ------ ------ ------ ------

---- ----

------ ------ ------ ------

------ ------ ------ ------ ------ ------

---- ----

------ ------ ------ ------

------ ------ ------ ------ ------ ------

---- ----

------ ------ ------ ------

------ ------ ------ ------ ------ ------

---- ----

------ ------ ------ ------

Course coordinator:
Signature:

Prof. Dr. Magdy abdel hameed

Topics Taught as a percentage of the content specified

>90%

70% - 90%

<70 %

Reasons in detail for not teaching any topic

------ ------ ------ ------ ------ ------ ------ ------ ------ ------ ----- ------ ------ ------ ------ ------ ------ ------ ------ ------ ----- ------ ------ ------ ------ ------ ------ ------ ------ ------ ----------- ------ ------ ------ ------ ------ ------ ------ ------ ------ ----- ------ ------ ------ ------ ------ ------ ------ ------ ------ ---If any topics were taught which are not specified, give reasons in detail

------ ------ ------ ------ ------ ------ ------ ------ ------ ------ ----- ------ ------ ------ ------ ------ ------ ------ ------ ------ ----- ------ ------ ------ ------ ------ ------ ------ ------ ------ ----------- ------ ------ ------ ------ ------ ------ ------ ------ ------ ----- ------ ------ ------ ------ ------ ------ ------ ------ ------ ---2- Teaching and learning methods:

Lectures
Practical training/laboratory
Seminar/Workshop
Class Activity
Case Study:

Other assignments/homework
If teaching and learning methods were used other than, those specified, list and give reasons

------ ------ ------ ------ ------ ------ ------ ------ ------ ----- ------ ------ ------ ------ ------ ------ ------ ------ ----- ------ ------ ------ ------ ------ ------ ------ ------ ----- ------ ---3- Student assessment:
Methods of assessment
Written examination

70 %

Oral examination

0%

Practical/laboratory work

15 %

Other assignments/class work

015 %

Course coordinator:
Signature:

Percentage of total

Prof. Dr. Magdy abdel hameed

Members of examination committee

------ ------ ------ ------ ------ -----Role of external evaluator:

------ ------ ------ ------ ------ -----4- Facilities and teaching materials:

Totally adequate
Adequate to some extent
Inadequate
List any inadequacies:

------ ------ ------ ------ ------ ------ ------ ------ ------ ----- ------ ------ ------ ------ ------ ------ ------ ------ ----- ------ ------ ------ ------ ------ ------ ------ ------ ----- ------ ---5-Administrative constraints:

------ ------ ------ ------ ------ ------ ------ ------ ------ ------ ----- ------ ------ ------ ------ ------ ------ ------ ------ ------ ----- ------ ------ ------ ------ ------ ------ ------ ------ ------ ----------- ------ ------ ------ ------ ------ ------ ------ ------ ------ ----- ------ ------ ------ ------ ------ ------ ------ ------ ------ ---6-Student evaluation of the course:
Response of course Team

Comment

------ ------ ------ ------ ------ ----------- ------ ------ ------ ------ -----

------ ------ ------ ------ ------ ----------- ------ ------ ------ ------ -----

------ ------ ------ ------ ------ ----------- ------ ------ ------ ------ -----

------ ------ ------ ------ ------ ----------- ------ ------ ------ ------ -----

------ ------ ------ ------ ------ ----------- ------ ------ ------ ------ -----

------ ------ ------ ------ ------ ----------- ------ ------ ------ ------ -----

------ ------ ------ ------ ------ ----------- ------ ------ ------ ------ -----

------ ------ ------ ------ ------ ----------- ------ ------ ------ ------ -----

Course coordinator:
Signature:

Prof. Dr. Magdy abdel hameed

7-Comments from external evaluator(s)


Comment

Response of course Team

------ ------ ------ ------ ------ ----------- ------ ------ ------ ------ ---------- ------ ------ ------ ------ ----------- ------ ------ ------ ------ ---------- ------ ------ ------ ------ ----------- ------ ------ ------ ------ ---------- ------ ------ ------ ------ ----------- ------ ------ ------ ------ -----

------ ------ ------ ------ ------ ----------- ------ ------ ------ ------ ---------- ------ ------ ------ ------ ----------- ------ ------ ------ ------ ---------- ------ ------ ------ ------ ----------- ------ ------ ------ ------ ---------- ------ ------ ------ ------ ----------- ------ ------ ------ ------ -----

8- Course enhancement: Progress on actions identified in the previous years action plan:

------ ------ ------ ------ ------ ------ ------ ------ ------ ------ ----- ------ ------ ------ ------ ------ ------ ------ ------ ------ ----- ------ ------ ------ ------ ------ ------ ------ ------ ------ ----------- ------ ------ ------ ------ ------ ------ ------ ------ ------ ----- ------ ------ ------ ------ ------ ------ ------ ------ ------ ---9- Action plan
Action required

Completion
date

Person responsible

------ ------ ------ ------ ------ ------ ---- ----

------ ------ ------ ------

------ ------ ------ ------ ------ ------ ---- ----

------ ------ ------ ------

------ ------ ------ ------ ------ ------ ---- ----

------ ------ ------ ------

------ ------ ------ ------ ------ ------ ---- ----

------ ------ ------ ------

------ ------ ------ ------ ------ ------ ---- ----

------ ------ ------ ------

Course coordinator:
Signature:

Prof. Dr. Magdy abdel hameed

Course report of

Robotics - MDP453 2009/2010


University: Ain Shams

Faculty: Engineering

Basic Information
1. Title and code :
Robotics - MDP453

2. Programme on which the course is given :


Mechatronics

3. Year/ Level of programmes :


1. Units/Credit Hours
( i ) Lecture :

4 th year/ 1 st semester

( ii ) Tutorial /Practical :

( iii ) Total :

2. Names of lecturers contributing to the delivery of the course :


i Prof. Dr. Hazem Abbas
ii -

-------------------------------

iii -

-------------------------------

iv -

-------------------------------

v -

-------------------------------

vi -

-------------------------------

vii -

-------------------------------

viii -

-------------------------------

Course coordinator:

Prof. Dr. Hazem Abbas

External evaluator:

---- ---- ----

Course coordinator:
Signature:

Prof. Dr. Hazem Abbas

B- Statistical Information

No. of students attending the course:

107

Number

Percentage (%)

Students completing the course

107

100 %

Passed

106

99.07 %

Failed

.930000000000007 %

Excellent

17

16.04 %

Very Good

19

17.92 %

Good

36

33.96 %

Pass

34

32.08 %

Results

Grading Of
successful students

C- Professional Information
1-- Course Teaching:

Topic

No. of
Hours

1- Introduction, definition, and Basics of robotics


4

Lecturer
Prof. Dr. Hazem Abbas

2- Types of Robotics (serial, parallel, mobile


4 robots, Prof. Dr. Hazem Abbas
3- Famous Mechanisms for robotics (handling,
8 gripers,Prof. Dr. Hazem Abbas

4- Analysis and design of robotic systems including


10
arms
Prof.(serial
Dr. Hazem
or parallel
Abbasrobots) and vehic
5- Kinematics Analysis for Robotics ( position,
9 velocity,
Prof.
acceleration)
Dr. Hazem Abbas
6- Inverse Kinematics

10

Prof. Dr. Hazem Abbas

7- dynamics of robotics (stationary and mobile


11 robotics),
Prof. Dr. Hazem Abbas
8- Algorithms for describing, planning and 6commanding
Prof. Dr. Hazem Abbas
Course coordinator:
Signature:

Prof. Dr. Hazem Abbas

9- Robotic control systems, Position, speed12


and force Prof.
control
Dr.ofHazem
robot grippers
Abbas
10- Examples on various practical applications
10 of robotics.
Prof. Dr. Hazem Abbas
------ ------ ------ ------ ------ ------

---- ----

------ ------ ------ ------

------ ------ ------ ------ ------ ------

---- ----

------ ------ ------ ------

------ ------ ------ ------ ------ ------

---- ----

------ ------ ------ ------

------ ------ ------ ------ ------ ------

---- ----

------ ------ ------ ------

------ ------ ------ ------ ------ ------

---- ----

------ ------ ------ ------

------ ------ ------ ------ ------ ------

---- ----

------ ------ ------ ------

------ ------ ------ ------ ------ ------

---- ----

------ ------ ------ ------

------ ------ ------ ------ ------ ------

---- ----

------ ------ ------ ------

------ ------ ------ ------ ------ ------

---- ----

------ ------ ------ ------

------ ------ ------ ------ ------ ------

---- ----

------ ------ ------ ------

------ ------ ------ ------ ------ ------

---- ----

------ ------ ------ ------

------ ------ ------ ------ ------ ------

---- ----

------ ------ ------ ------

------ ------ ------ ------ ------ ------

---- ----

------ ------ ------ ------

------ ------ ------ ------ ------ ------

---- ----

------ ------ ------ ------

------ ------ ------ ------ ------ ------

---- ----

------ ------ ------ ------

Course coordinator:
Signature:

Prof. Dr. Hazem Abbas

------ ------ ------ ------ ------ ------

---- ----

------ ------ ------ ------

------ ------ ------ ------ ------ ------

---- ----

------ ------ ------ ------

------ ------ ------ ------ ------ ------

---- ----

------ ------ ------ ------

------ ------ ------ ------ ------ ------

---- ----

------ ------ ------ ------

------ ------ ------ ------ ------ ------

---- ----

------ ------ ------ ------

------ ------ ------ ------ ------ ------

---- ----

------ ------ ------ ------

------ ------ ------ ------ ------ ------

---- ----

------ ------ ------ ------

------ ------ ------ ------ ------ ------

---- ----

------ ------ ------ ------

------ ------ ------ ------ ------ ------

---- ----

------ ------ ------ ------

Course coordinator:
Signature:

Prof. Dr. Hazem Abbas

Topics Taught as a percentage of the content specified

>90%

70% - 90%

<70 %

Reasons in detail for not teaching any topic

------ ------ ------ ------ ------ ------ ------ ------ ------ ------ ----- ------ ------ ------ ------ ------ ------ ------ ------ ------ ----- ------ ------ ------ ------ ------ ------ ------ ------ ------ ----------- ------ ------ ------ ------ ------ ------ ------ ------ ------ ----- ------ ------ ------ ------ ------ ------ ------ ------ ------ ---If any topics were taught which are not specified, give reasons in detail

------ ------ ------ ------ ------ ------ ------ ------ ------ ------ ----- ------ ------ ------ ------ ------ ------ ------ ------ ------ ----- ------ ------ ------ ------ ------ ------ ------ ------ ------ ----------- ------ ------ ------ ------ ------ ------ ------ ------ ------ ----- ------ ------ ------ ------ ------ ------ ------ ------ ------ ---2- Teaching and learning methods:

Lectures
Practical training/laboratory
Seminar/Workshop
Class Activity
Case Study:

Other assignments/homework
If teaching and learning methods were used other than, those specified, list and give reasons

------ ------ ------ ------ ------ ------ ------ ------ ------ ----- ------ ------ ------ ------ ------ ------ ------ ------ ----- ------ ------ ------ ------ ------ ------ ------ ------ ----- ------ ---3- Student assessment:
Methods of assessment
Written examination

70 %

Oral examination

0%

Practical/laboratory work

0%

Other assignments/class work

30 %

Course coordinator:
Signature:

Percentage of total

Prof. Dr. Hazem Abbas

Members of examination committee

------ ------ ------ ------ ------ -----Role of external evaluator:

------ ------ ------ ------ ------ -----4- Facilities and teaching materials:

Totally adequate
Adequate to some extent
Inadequate
List any inadequacies:

------ ------ ------ ------ ------ ------ ------ ------ ------ ----- ------ ------ ------ ------ ------ ------ ------ ------ ----- ------ ------ ------ ------ ------ ------ ------ ------ ----- ------ ---5-Administrative constraints:

------ ------ ------ ------ ------ ------ ------ ------ ------ ------ ----- ------ ------ ------ ------ ------ ------ ------ ------ ------ ----- ------ ------ ------ ------ ------ ------ ------ ------ ------ ----------- ------ ------ ------ ------ ------ ------ ------ ------ ------ ----- ------ ------ ------ ------ ------ ------ ------ ------ ------ ---6-Student evaluation of the course:
Response of course Team

Comment

------ ------ ------ ------ ------ ----------- ------ ------ ------ ------ -----

------ ------ ------ ------ ------ ----------- ------ ------ ------ ------ -----

------ ------ ------ ------ ------ ----------- ------ ------ ------ ------ -----

------ ------ ------ ------ ------ ----------- ------ ------ ------ ------ -----

------ ------ ------ ------ ------ ----------- ------ ------ ------ ------ -----

------ ------ ------ ------ ------ ----------- ------ ------ ------ ------ -----

------ ------ ------ ------ ------ ----------- ------ ------ ------ ------ -----

------ ------ ------ ------ ------ ----------- ------ ------ ------ ------ -----

Course coordinator:
Signature:

Prof. Dr. Hazem Abbas

7-Comments from external evaluator(s)


Comment

Response of course Team

------ ------ ------ ------ ------ ----------- ------ ------ ------ ------ ---------- ------ ------ ------ ------ ----------- ------ ------ ------ ------ ---------- ------ ------ ------ ------ ----------- ------ ------ ------ ------ ---------- ------ ------ ------ ------ ----------- ------ ------ ------ ------ -----

------ ------ ------ ------ ------ ----------- ------ ------ ------ ------ ---------- ------ ------ ------ ------ ----------- ------ ------ ------ ------ ---------- ------ ------ ------ ------ ----------- ------ ------ ------ ------ ---------- ------ ------ ------ ------ ----------- ------ ------ ------ ------ -----

8- Course enhancement: Progress on actions identified in the previous years action plan:

------ ------ ------ ------ ------ ------ ------ ------ ------ ------ ----- ------ ------ ------ ------ ------ ------ ------ ------ ------ ----- ------ ------ ------ ------ ------ ------ ------ ------ ------ ----------- ------ ------ ------ ------ ------ ------ ------ ------ ------ ----- ------ ------ ------ ------ ------ ------ ------ ------ ------ ---9- Action plan
Action required

Completion
date

Person responsible

------ ------ ------ ------ ------ ------ ---- ----

------ ------ ------ ------

------ ------ ------ ------ ------ ------ ---- ----

------ ------ ------ ------

------ ------ ------ ------ ------ ------ ---- ----

------ ------ ------ ------

------ ------ ------ ------ ------ ------ ---- ----

------ ------ ------ ------

------ ------ ------ ------ ------ ------ ---- ----

------ ------ ------ ------

Course coordinator:
Signature:

Prof. Dr. Hazem Abbas

Course report of

Numerical Control Machines - MDP471 2009/2010


University: Ain Shams

Faculty: Engineering

Basic Information
1. Title and code :
Numerical Control Machines - MDP471

2. Programme on which the course is given :


Mechatronic Engineering

3. Year/ Level of programmes :


1. Units/Credit Hours
( i ) Lecture :

5 year

( ii ) Tutorial /Practical :

( iii ) Total :

2. Names of lecturers contributing to the delivery of the course :


i Prof. Dr. Monir koura
ii -

Dr. Adel Rizk

iii -

Dr. Mohamed Awad

iv -

-------------------------------

v -

-------------------------------

vi -

-------------------------------

vii -

-------------------------------

viii -

-------------------------------

Course coordinator:

Prof. Dr. Monir Koura

External evaluator:

---- ---- ----

Course coordinator:
Signature:

Prof. Dr. Monir Koura

B- Statistical Information

No. of students attending the course:

109

Number

Percentage (%)

Students completing the course

109

100 %

Passed

107

98.17 %

Failed

1.83 %

Excellent

4.67 %

Very Good

13

12.15 %

Good

30

28.04 %

Pass

59

55.14 %

Results

Grading Of
successful students

C- Professional Information
1-- Course Teaching:

Topic

No. of
Hours

Lecturer

CNC machine main components

16

Dr. Adel Rizk

CNC machine control Systems

14

Dr. Adel Rizk

Fundamentals of programming

12

Dr. Adel Rizk

Part Program

16

Dr. Mohamed Awad

Manual programming for milling

16

Dr. Mohamed Awad

Manual programming for turning

12

Dr. Mohamed Awad

Advanced part programming

Dr. Monir Koura

Automatic programming

10

Dr. Monir Koura

Course coordinator:
Signature:

Prof. Dr. Monir Koura

Modern Control of CNC

Dr. Monir koura

------ ------ ------ ------ ------ ------

---- ----

------ ------ ------ ------

------ ------ ------ ------ ------ ------

---- ----

------ ------ ------ ------

------ ------ ------ ------ ------ ------

---- ----

------ ------ ------ ------

------ ------ ------ ------ ------ ------

---- ----

------ ------ ------ ------

------ ------ ------ ------ ------ ------

---- ----

------ ------ ------ ------

------ ------ ------ ------ ------ ------

---- ----

------ ------ ------ ------

------ ------ ------ ------ ------ ------

---- ----

------ ------ ------ ------

------ ------ ------ ------ ------ ------

---- ----

------ ------ ------ ------

------ ------ ------ ------ ------ ------

---- ----

------ ------ ------ ------

------ ------ ------ ------ ------ ------

---- ----

------ ------ ------ ------

------ ------ ------ ------ ------ ------

---- ----

------ ------ ------ ------

------ ------ ------ ------ ------ ------

---- ----

------ ------ ------ ------

------ ------ ------ ------ ------ ------

---- ----

------ ------ ------ ------

------ ------ ------ ------ ------ ------

---- ----

------ ------ ------ ------

------ ------ ------ ------ ------ ------

---- ----

------ ------ ------ ------

------ ------ ------ ------ ------ ------

---- ----

------ ------ ------ ------

Course coordinator:
Signature:

Prof. Dr. Monir Koura

------ ------ ------ ------ ------ ------

---- ----

------ ------ ------ ------

------ ------ ------ ------ ------ ------

---- ----

------ ------ ------ ------

------ ------ ------ ------ ------ ------

---- ----

------ ------ ------ ------

------ ------ ------ ------ ------ ------

---- ----

------ ------ ------ ------

------ ------ ------ ------ ------ ------

---- ----

------ ------ ------ ------

------ ------ ------ ------ ------ ------

---- ----

------ ------ ------ ------

------ ------ ------ ------ ------ ------

---- ----

------ ------ ------ ------

------ ------ ------ ------ ------ ------

---- ----

------ ------ ------ ------

------ ------ ------ ------ ------ ------

---- ----

------ ------ ------ ------

Course coordinator:
Signature:

Prof. Dr. Monir Koura

Topics Taught as a percentage of the content specified

>90%

70% - 90%

<70 %

Reasons in detail for not teaching any topic

------ ------ ------ ------ ------ ------ ------ ------ ------ ------ ----- ------ ------ ------ ------ ------ ------ ------ ------ ------ ----- ------ ------ ------ ------ ------ ------ ------ ------ ------ ----------- ------ ------ ------ ------ ------ ------ ------ ------ ------ ----- ------ ------ ------ ------ ------ ------ ------ ------ ------ ---If any topics were taught which are not specified, give reasons in detail

------ ------ ------ ------ ------ ------ ------ ------ ------ ------ ----- ------ ------ ------ ------ ------ ------ ------ ------ ------ ----- ------ ------ ------ ------ ------ ------ ------ ------ ------ ----------- ------ ------ ------ ------ ------ ------ ------ ------ ------ ----- ------ ------ ------ ------ ------ ------ ------ ------ ------ ---2- Teaching and learning methods:

Lectures
Practical training/laboratory
Seminar/Workshop
Class Activity
Case Study:

Other assignments/homework
If teaching and learning methods were used other than, those specified, list and give reasons

------ ------ ------ ------ ------ ------ ------ ------ ------ ----- ------ ------ ------ ------ ------ ------ ------ ------ ----- ------ ------ ------ ------ ------ ------ ------ ------ ----- ------ ---3- Student assessment:
Methods of assessment
Written examination

60 %

Oral examination

20 %

Practical/laboratory work

10 %

Other assignments/class work

10 %

Course coordinator:
Signature:

Percentage of total

Prof. Dr. Monir Koura

Members of examination committee

Dr. Koura

Dr. zamzam Dr. Awad

Role of external evaluator:

------ ------ ------ ------ ------ -----4- Facilities and teaching materials:

Totally adequate
Adequate to some extent
Inadequate
List any inadequacies:

------ ------ ------ ------ ------ ------ ------ ------ ------ ----- ------ ------ ------ ------ ------ ------ ------ ------ ----- ------ ------ ------ ------ ------ ------ ------ ------ ----- ------ ---5-Administrative constraints:

------ ------ ------ ------ ------ ------ ------ ------ ------ ------ ----- ------ ------ ------ ------ ------ ------ ------ ------ ------ ----- ------ ------ ------ ------ ------ ------ ------ ------ ------ ----------- ------ ------ ------ ------ ------ ------ ------ ------ ------ ----- ------ ------ ------ ------ ------ ------ ------ ------ ------ ---6-Student evaluation of the course:
Response of course Team

Comment

No comment

------ ------ ------ ------ ------ ----------- ------ ------ ------ ------ -----

------ ------ ------ ------ ------ ----------- ------ ------ ------ ------ -----

------ ------ ------ ------ ------ ----------- ------ ------ ------ ------ -----

------ ------ ------ ------ ------ ----------- ------ ------ ------ ------ -----

------ ------ ------ ------ ------ ----------- ------ ------ ------ ------ -----

------ ------ ------ ------ ------ ----------- ------ ------ ------ ------ -----

------ ------ ------ ------ ------ ----------- ------ ------ ------ ------ -----

Course coordinator:
Signature:

Prof. Dr. Monir Koura

7-Comments from external evaluator(s)


Comment

Response of course Team

------ ------ ------ ------ ------ ----------- ------ ------ ------ ------ ---------- ------ ------ ------ ------ ----------- ------ ------ ------ ------ ---------- ------ ------ ------ ------ ----------- ------ ------ ------ ------ ---------- ------ ------ ------ ------ ----------- ------ ------ ------ ------ -----

------ ------ ------ ------ ------ ----------- ------ ------ ------ ------ ---------- ------ ------ ------ ------ ----------- ------ ------ ------ ------ ---------- ------ ------ ------ ------ ----------- ------ ------ ------ ------ ---------- ------ ------ ------ ------ ----------- ------ ------ ------ ------ -----

8- Course enhancement: Progress on actions identified in the previous years action plan:

------ ------ ------ ------ ------ ------ ------ ------ ------ ------ ----- ------ ------ ------ ------ ------ ------ ------ ------ ------ ----- ------ ------ ------ ------ ------ ------ ------ ------ ------ ----------- ------ ------ ------ ------ ------ ------ ------ ------ ------ ----- ------ ------ ------ ------ ------ ------ ------ ------ ------ ---9- Action plan
Action required

Completion
date

Person responsible

------ ------ ------ ------ ------ ------ ---- ----

------ ------ ------ ------

------ ------ ------ ------ ------ ------ ---- ----

------ ------ ------ ------

------ ------ ------ ------ ------ ------ ---- ----

------ ------ ------ ------

------ ------ ------ ------ ------ ------ ---- ----

------ ------ ------ ------

------ ------ ------ ------ ------ ------ ---- ----

------ ------ ------ ------

Course coordinator:
Signature:

Prof. Dr. Monir Koura

Course report of

Electronics For Instrumentation - ECE421 2009/2010


University: Ain Shams

Faculty: Engineering

Basic Information
1. Title and code :
Electronics For Instrumentation - ECE421

2. Programme on which the course is given :


Electronics & Communications
3. Year/ Level of programmes :
1. Units/Credit Hours
( i ) Lecture :

4th. year

42

( ii ) Tutorial /Practical :

14

( iii ) Total :

56

2. Names of lecturers contributing to the delivery of the course :


i Prof.Dr.Mohamed Hamza El-Saba
ii -

-------------------------------

iii -

-------------------------------

iv -

-------------------------------

v -

-------------------------------

vi -

-------------------------------

vii -

-------------------------------

viii -

-------------------------------

Course coordinator:

Prof.Dr.Mohamed Hamza El-Saba

External evaluator:

---- ---- ----

Course coordinator:
Signature:

Prof.Dr.Mohamed Hamza El-Saba

B- Statistical Information

No. of students attending the course:

142

Number

Percentage (%)

Students completing the course

142

100 %

Passed

139

97.89 %

Failed

2.11 %

Excellent

49

35.25 %

Very Good

45

32.37 %

Good

26

18.71 %

Pass

19

13.67 %

Results

Grading Of
successful students

C- Professional Information
1-- Course Teaching:

Topic

No. of
Hours

Lecturer

Switched Capacitor power supply

Prof.Dr.Mohamed Hamza
El-Saba

Time base generators

Prof.Dr.Mohamed Hamza
El-Saba

Active filters

Prof.Dr.Mohamed Hamza
El-Saba

Analog multiplier

Prof.Dr.Mohamed Hamza
El-Saba

Logarithmic and exponential amplifiers

Prof.Dr.Mohamed Hamza
El-Saba

Sample and hold circuits

Prof.Dr.Mohamed Hamza
El-Saba

Sensors and transducers

Course coordinator:
Signature:

Prof.Dr.Mohamed Hamza El-Saba

Prof.Dr.Mohamed Hamza
El-Saba
Data transmission

Prof.Dr.Mohamed Hamza
El-Saba

Digital to analog converters DACs

Prof.Dr.Mohamed Hamza
El-Saba

Analog to digital converters ADCs

Prof.Dr.Mohamed Hamza
El-Saba

Voltage to frequency and frequency to


voltage convertion

Prof.Dr.Mohamed Hamza
El-Saba

Data acquisition

Prof.Dr.Mohamed Hamza
El-Saba

Pulling a signal from noise: lock-in


detection

Prof.Dr.Mohamed Hamza
El-Saba

Spectrum analyzer

Prof.Dr.Mohamed Hamza
El-Saba

Topics Taught as a percentage of the content specified

>90%

70% - 90%

<70 %

Reasons in detail for not teaching any topic

-------- --------- ----------- --------- --------- ----------- --------If any topics were taught which are not specified, give reasons in detail

All are specified

2- Teaching and learning methods:


Lectures
Practical training/laboratory
Seminar/Workshop
Class Activity
Case Study:
Course coordinator:
Signature:

Prof.Dr.Mohamed Hamza El-Saba

Other assignments/homework
If teaching and learning methods were used other than, those specified, list and give reasons

------- -------- ---------- ---------- ---------- --------- -------

3- Student assessment:
Methods of assessment
Written examination

Percentage of total

70 %

Oral examination

0%

Practical/laboratory work

10 %

Other assignments/class work

20 %

Members of examination committee

Prof.Dr.Mohamed Hamza El-Saba


Role of external evaluator:

------- -------- ---------- ---------- ---------- --------- -------4- Facilities and teaching materials:
Totally adequate
Adequate to some extent
Inadequate
List any inadequacies:

------- -------- ---------- ---------- ---------- --------- ------5-Administrative constraints:

Non------ ------ ------ ------ ------ ------ ------ ------ ------ ----- ------ ------ ------ ------ ------ ------ ------ ------ ------ -----6-Student evaluation of the course:
Comment

Not received

Course coordinator:
Signature:

Response of course Team

------ ------ ------ ------ ------ ----------- ------ ------ ------ ------ ----Prof.Dr.Mohamed Hamza El-Saba

7-Comments from external evaluator(s)


Response of course Team

Comment

Non ------ ------ ------ ------ ---------- ------ ------ ------ ------ -----------

------ ------ ------ ------ ------ ----------- ------ ------ ------ ------ -----

8- Course enhancement: Progress on actions identified in the previous years action plan:

------ ------ ------ ------ ------ ------ ------ ------ ------ ------ ----- ------ ------ ------ ------ ------ ------ ------ ------ ------ ----- ------ ------ ------ ------ ------ ------ ------ ------ ------ -----9- Action plan
Action required

Completion
date

Person responsible

------ ------- ------- ------- ------- ------------- -------------- -------- ----------

Course coordinator:
Signature:

Prof.Dr.Mohamed Hamza El-Saba

Course report of

Integrated Circuits Technology - ECE482 2009/2010


University: Ain Shams

Faculty: Engineering

Basic Information
1. Title and code :
Integrated Circuits Technology - ECE482

2. Programme on which the course is given :


Electronics & Communications
3. Year/ Level of programmes :
1. Units/Credit Hours
( i ) Lecture :

4th. year

42

( ii ) Tutorial /Practical :

14

( iii ) Total :

56

2. Names of lecturers contributing to the delivery of the course :


i Prof.Dr.Hani Ragai
ii -

-------------------------------

iii -

-------------------------------

iv -

-------------------------------

v -

-------------------------------

vi -

-------------------------------

vii -

-------------------------------

viii -

-------------------------------

Course coordinator:

Prof.Dr.Hani Ragai

External evaluator:

---- ---- ----

Course coordinator:
Signature:

Prof.Dr.Hani Ragai

B- Statistical Information

No. of students attending the course:

142

Number

Percentage (%)

Students completing the course

142

100 %

Passed

139

97.89 %

Failed

2.11 %

Excellent

49

35.25 %

Very Good

45

32.37 %

Good

26

18.71 %

Pass

19

13.67 %

Results

Grading Of
successful students

C- Professional Information
1-- Course Teaching:

Topic

No. of
Hours

Lecturer

Introduction to the chip making process

Prof.Dr.Hani Ragai

Photolithography and Etching

Prof.Dr.Hani Ragai

Oxidation

Prof.Dr.Hani Ragai

Doping

Prof.Dr.Hani Ragai

Suprem

Prof.Dr.Hani Ragai

Metallization

Prof.Dr.Hani Ragai

On-chip passive components

Prof.Dr.Hani Ragai

Course coordinator:
Signature:

Prof.Dr.Hani Ragai

CMOS process integration

Prof.Dr.Hani Ragai

Technology file Reading

Prof.Dr.Hani Ragai

Bipolar process integration

Prof.Dr.Hani Ragai

Processes for MEMS

Prof.Dr.Hani Ragai

Topics Taught as a percentage of the content specified

>90%

70% - 90%

<70 %

Reasons in detail for not teaching any topic

-------- --------- ----------- --------- --------- ----------- --------If any topics were taught which are not specified, give reasons in detail

All are specified


2- Teaching and learning methods:
Lectures
Practical training/laboratory
Seminar/Workshop
Class Activity
Case Study:
Other assignments/homework
If teaching and learning methods were used other than, those specified, list and give reasons

------- -------- ---------- ---------- ---------- --------- ------3- Student assessment:


Methods of assessment
Written examination

70 %

Oral examination

0%

Practical/laboratory work

10 %

Other assignments/class work

20 %

Course coordinator:
Signature:

Percentage of total

Prof.Dr.Hani Ragai

Members of examination committee

Prof.Dr.Hani Ragai
Role of external evaluator:

------- -------- ---------- ---------- ---------- --------- -------4- Facilities and teaching materials:
Totally adequate
Adequate to some extent
Inadequate
List any inadequacies:

------- -------- ---------- ---------- ---------- --------- ------5-Administrative constraints:

Non------ ------ ------ ------ ------ ------ ------ ------ ------ ----- ------ ------ ------ ------ ------ ------ ------ ------ ------ -----6-Student evaluation of the course:
Comment

Response of course Team

Not received

------ ------ ------ ------ ------ ----------- ------ ------ ------ ------ -----

7-Comments from external evaluator(s)


Comment

Response of course Team

Non ------ ------ ------ ------ ---------- ------ ------ ------ ------ -----------

------ ------ ------ ------ ------ ----------- ------ ------ ------ ------ -----

8- Course enhancement: Progress on actions identified in the previous years action plan:

------ ------ ------ ------ ------ ------ ------ ------ ------ ------ -9- Action plan
Action required

Completion
date

Person responsible

------ ------- ------- ------- ------- ------------- -------------- -------- ---------- --------Course coordinator:
Signature:

Prof.Dr.Hani Ragai

Course report of

Integrated Circuits Applications - ECE485 2009/2010


University: Ain Shams

Faculty: Engineering

Basic Information
1. Title and code :
Integrated Circuits Applications - ECE485

2. Programme on which the course is given :


Electronics & Communications
3. Year/ Level of programmes :
1. Units/Credit Hours
( i ) Lecture :

5th. year

18

( ii ) Tutorial /Practical :

12

( iii ) Total :

30

2. Names of lecturers contributing to the delivery of the course :


i Prof.Dr.Abdel Halim Zekry
ii -

-------------------------------

iii -

-------------------------------

iv -

-------------------------------

v -

-------------------------------

vi -

-------------------------------

vii -

-------------------------------

viii -

-------------------------------

Course coordinator:

Prof.Dr.Abdel Halim Zekry

External evaluator:

---- ---- ----

Course coordinator:
Signature:

Prof.Dr.Abdel Halim Zekry

B- Statistical Information

No. of students attending the course:


Number

Percentage (%)

Students completing the course

113

0%

Passed

107

94.69 %

Failed

5.31 %

Excellent

3.74 %

Very Good

5.61 %

Good

19

17.76 %

Pass

78

72.9 %

Results

Grading Of
successful students

C- Professional Information
1-- Course Teaching:

Topic

No. of
Hours

Lecturer

Introduction to electronic
communication systems the building
blocks of the communication systems

Prof.Dr.Abdel Halim
Zekry

The amplifiers

Prof.Dr.Abdel Halim
Zekry

Characteristics & specifications

Prof.Dr.Abdel Halim
Zekry

The base band amplifiers

Prof.Dr.Abdel Halim
Zekry

The video amplifiers

Prof.Dr.Abdel Halim
Zekry

The oscillators and clock generators

Prof.Dr.Abdel Halim
Zekry

Course coordinator:
Signature:

Prof.Dr.Abdel Halim Zekry

The mixers

Prof.Dr.Abdel Halim
Zekry

The amplitude modulators &


demodulators

Prof.Dr.Abdel Halim
Zekry

The angle modulators & demodulators

Prof.Dr.Abdel Halim
Zekry

The phase locked loop & applications

Prof.Dr.Abdel Halim
Zekry

Topics Taught as a percentage of the content specified

>90%

70% - 90%

<70 %

Reasons in detail for not teaching any topic

National vacancies
If any topics were taught which are not specified, give reasons in detail

All are specified

2- Teaching and learning methods:


Lectures
Practical training/laboratory
Seminar/Workshop
Class Activity
Case Study:
Other assignments/homework
If teaching and learning methods were used other than, those specified, list and give reasons

Miniprojects, to know accustom the group and team work.


To make contact with components available in local market.
To know how carry over practice problem.

Course coordinator:
Signature:

Prof.Dr.Abdel Halim Zekry

3- Student assessment:
Methods of assessment
Written examination

Percentage of total

70 %

Oral examination

0%

Practical/laboratory work

10 %

Other assignments/class work

20 %

Members of examination committee

Prof.Dr.Abdel Halim Zekry


Role of external evaluator:

Revising, updating and continous evaluation of the course.


4- Facilities and teaching materials:
Totally adequate
Adequate to some extent
Inadequate
List any inadequacies:

The Lab. facilities (Lab. equipment, Lab. area and available


number of assistants) are not adequate with the number of
students that approaches 113 student.
5-Administrative constraints:

Non------ ------ ------ ------ ------ ------ ------ ------ ------ ----- ------ ------ ------ ------ ------ ------ ------ ------ ------ ----------- ------ ------ ------ ------ ------ ------ ------ ------ ------ ----- ------ ------ ------ ------ ------ ------ ------ ------ ------ ----- ------ ------ ------ ------ ------ ------ ------ ------ ------ --------6-Student evaluation of the course:
Comment

Response of course Team

Not received

Course coordinator:
Signature:

------ ------ ------ ------ ------ ----------- ------ ------ ------ ------ -----

Prof.Dr.Abdel Halim Zekry

7-Comments from external evaluator(s)


Comment

Response of course Team

Non ------ ------ ------ ------ ---------- ------ ------ ------ ------ -----------

------ ------ ------ ------ ------ ----------- ------ ------ ------ ------ -----

8- Course enhancement: Progress on actions identified in the previous years action plan:

------ ------ ------ ------ ------ ------ ------ ------ ------ ------ ----- ------ ------ ------ ------ ------ ------ ------ ------ ------ ----- ------ ------ ------ ------ ------ ------ ------ ------ ------ ----------- ------ ------ ------ ------ ------ ------ ------ ------ ------ -9- Action plan
Action required

Completion date

------ ------- ------- ------- ------- 2010/11

Course coordinator:
Signature:

Prof.Dr.Abdel Halim Zekry

Person responsible

Prof.Dr.Abdel Halim
Zekry

Course report of

Digital Control - CSE473 2009/2010


University: Ain Shams

Faculty: Engineering

Basic Information
1. Title and code :
Digital Control - CSE473

2. Programme on which the course is given :


Mechatronics Dept
3. Year/ Level of programmes :
1. Units/Credit Hours
( i ) Lecture :

5th Year

( ii ) Tutorial /Practical :

( iii ) Total :

2. Names of lecturers contributing to the delivery of the course :


i Prof. Dr. Mohamed Hassan El-Shafay
ii -

-------------------------------

iii -

-------------------------------

iv -

-------------------------------

v -

-------------------------------

vi -

-------------------------------

vii -

-------------------------------

viii -

-------------------------------

Course coordinator:

Prof. Abd el monem Wahdan

External evaluator:

---- ---- ----

Course coordinator:
Signature:

Prof. Abd el monem Wahdan

B- Statistical Information

No. of students attending the course:

107

Number

Percentage (%)

Students completing the course

107

100 %

Passed

106

99.07 %

Failed

0.9 %

Excellent

4.72 %

Very Good

16

15.09 %

Good

32

30.19 %

Pass

53

50 %

Results

Grading Of
successful students

C- Professional Information
1-- Course Teaching:

Topic

No. of
Hours

Lecturer

Stability analysis

Prof. Mohamed El-Shafay

Continuous-to-discrete model
transformations

Prof. Mohamed El-Shafay

Poles-zeros and transient and steady


state response

Prof. Mohamed El-Shafay

Introduction to sampled signals and


systems

Prof. Mohamed El-Shafay

Digital controllers based on


continuous-designDigital controllers
based on continuous designs

12

Prof. Mohamed El-Shafay

Discrete-time transfer function

Prof. Mohamed El-Shafay

Course coordinator:
Signature:

Prof. Abd el monem Wahdan

Z-Transform/Properties/Inverse ztransform

12

Prof. Mohamed El-Shafay

Systems and input-output relationships


in time

Prof. Mohamed El-Shafay

State-space models and relashionship


to transfer function

Prof. Mohamed El-Shafay

Digital control design based on statespace models (pole placement)

12

Prof. Mohamed El-Shafay

Topics Taught as a percentage of the content specified

>90%

70% - 90%

<70 %

Reasons in detail for not teaching any topic

If any topics were taught which are not specified, give reasons in detail

2- Teaching and learning methods:


Lectures
Practical training/laboratory
Seminar/Workshop
Class Activity
Case Study:
Other assignments/homework
If teaching and learning methods were used other than, those specified, list and give reasons

------ ------ ------ ------ ------ ------ ------ ------ ------ ----- ------ ------ ------ ------ ------ ------ ------ ------ ----- ------ ------ ------ ------ ------ ------ ------ ------ ----- ------ ----

Course coordinator:
Signature:

Prof. Abd el monem Wahdan

3- Student assessment:
Methods of assessment
Written examination

Percentage of total

90 %

Oral examination

0%

Practical/laboratory work

0%

Other assignments/class work

10 %

Members of examination committee

------ ------ ------ ------ ------ -----Role of external evaluator:

------ ------ ------ ------ ------ -----4- Facilities and teaching materials:
Totally adequate
Adequate to some extent
Inadequate
List any inadequacies:

Lab ------ ------ ------ ------ ------ ------ ------ ------ ----- ------ ------ ------ ------ ------ ------ ------ ------ ----5-Administrative constraints:

6-Student evaluation of the course:

Comment

Response of course Team

------ ------ ------ ------ ------ ----------- ------ ------ ------ ------ -----

------ ------ ------ ------ ------ ----------- ------ ------ ------ ------ -----

7-Comments from external evaluator(s)


Comment

Response of course Team

------ ------ ------ ------ ------ ----------- ------ ------ ------ ------ -----

------ ------ ------ ------ ------ ----------- ------ ------ ------ ------ -----

8- Course enhancement: Progress on actions identified in the previous years action plan:
Course coordinator:
Signature:

Prof. Abd el monem Wahdan

9- Action plan
Action required

Completion
date

------ ------ ------ ------ ------ ------ ---- ----

Course coordinator:
Signature:

Prof. Abd el monem Wahdan

Person responsible

------ ------ ------ ------

Course report of

Image Processing - CSE468 2009/2010


University: Ain Shams

Faculty: Engineering

Basic Information
1. Title and code :
Image Processing - CSE468

2. Programme on which the course is given :


Computer and Systems Engineering
3. Year/ Level of programmes :
1. Units/Credit Hours
( i ) Lecture :

5 th year

( ii ) Tutorial /Practical :

( iii ) Total :

2. Names of lecturers contributing to the delivery of the course :


i Prof. Hazem Abbas
ii iii iv v vi vii viii -

Course coordinator:

Prof. Dr. Hazem Abass

External evaluator:

Course coordinator:
Signature:

Prof. Dr. Hazem Abass

B- Statistical Information

No. of students attending the course:

111

Number

Percentage (%)

Students completing the course

106

95.5 %

Passed

104

98.11 %

Failed

1.89 %

Excellent

6.73 %

Very Good

20

19.23 %

Good

28

26.92 %

Pass

49

47.12 %

Results

Grading Of
successful students

C- Professional Information
1-- Course Teaching:

Topic

No. of
Hours

Lecturer

Spatial filtering

Prof. Dr. Hazem Abass

Frequency filtering

Prof. Dr. Hazem Abass

Image restoration

Prof. Dr. Hazem Abass

Morphologial operations

Prof. Dr. Hazem Abass

Segmentation

Prof. Dr. Hazem Abass

Introduction to data compression

Prof. Dr. Hazem Abass

Huffman coding

Prof. Dr. Hazem Abass

Course coordinator:
Signature:

Prof. Dr. Hazem Abass

Arithematic coding

Prof. Dr. Hazem Abass

LZW coding

Prof. Dr. Hazem Abass

Topics Taught as a percentage of the content specified

>90%

70% - 90%

<70 %

Reasons in detail for not teaching any topic

------ ------ ------ ------ ------ ------ ------ ------ ------ ------ ----- ------ ------ ------ ------ ------ ------ ------ ------ ------ ----If any topics were taught which are not specified, give reasons in detail

------ ------ ------ ------ ------ ------ ------ ------ ------ ------ ----- ------ ------ ------ ------ ------ ------ ------ ------ ------ ----2- Teaching and learning methods:
Lectures
Practical training/laboratory
Seminar/Workshop
Class Activity
Case Study:
Other assignments/homework
If teaching and learning methods were used other than, those specified, list and give reasons

------ ------ ------ ------ ------ ------ ------ ------ ------ ----- ------ ------ ------ ------ ------ ------ ------ ------ --3- Student assessment:
Methods of assessment
Written examination

85 %

Oral examination

0%

Practical/laboratory work

0%

Other assignments/class work

15 %

Members of examination committee

------ ------ ------ ------ ------ -----Role of external evaluator:

------ ------ ------ ------ ------ -----Course coordinator:


Signature:

Percentage of total

Prof. Dr. Hazem Abass

4- Facilities and teaching materials:


Totally adequate
Adequate to some extent
Inadequate
List any inadequacies:

------ ------ ------ ------ ------ ------ ------ ------ ------ ----- ------ ------ ------ ------ ------ ------ ------ ------ ----- ------ ------ ------ ------ ------ ------ ------ ------ ----5-Administrative constraints:

------ ------ ------ ------ ------ ------ ------ ------ ------ ------ ----- ------ ------ ------ ------ ------ ------ ------ ------ ------ ----6-Student evaluation of the course:
Comment

Response of course Team

------ ------ ------ ------ ------ ----------- ------ ------ ------ ------ -----

------ ------ ------ ------ ------ ----------- ------ ------ ------ ------ -----

7-Comments from external evaluator(s)


Comment

Response of course Team

------ ------ ------ ------ ------ ----------- ------ ------ ------ ------ -----

------ ------ ------ ------ ------ ----------- ------ ------ ------ ------ -----

8- Course enhancement: Progress on actions identified in the previous years action plan:

------ ------ ------ ------ ------ ------ ------ ------ ------ ------ ----- ------ ------ ------ ------ ------ ------ ------ ------ ------ ----- ------ ------ ------ ------ ------ ------ ------ ------ ------ -----9- Action plan
Action required

Completion
date

------ ------ ------ ------ ------ ------ ---- ----

Course coordinator:
Signature:

Prof. Dr. Hazem Abass

Person responsible

------ ------ ------ ------

Course report of

Computer Networks - CSE434 2009/2010


University: Ain Shams

Faculty: Engineering

Basic Information
1. Title and code :
Computer Networks - CSE434

2. Programme on which the course is given :


Computer and Systems Engineering
3. Year/ Level of programmes :
1. Units/Credit Hours
( i ) Lecture :

5th year

( ii ) Tutorial /Practical :

( iii ) Total :

2. Names of lecturers contributing to the delivery of the course :


i Dr. Mohamed Nabil
ii -

-------------------------------

iii -

-------------------------------

iv -

-------------------------------

v -

-------------------------------

vi -

-------------------------------

vii -

-------------------------------

viii -

-------------------------------

Course coordinator:

Prof. Dr. Hosam Fahmy

External evaluator:

---- ---- ----

Course coordinator:
Signature:

Prof. Dr. Hosam Fahmy

B- Statistical Information

No. of students attending the course:

106

Number

Percentage (%)

Students completing the course

106

100 %

Passed

104

98.11 %

Failed

1.89 %

Excellent

6.73 %

Very Good

20

19.23 %

Good

28

26.92 %

Pass

49

47.12 %

Results

Grading Of
successful students

C- Professional Information
1-- Course Teaching:

Topic

No. of
Hours

Lecturer

Network edge, Network core, ISPs

Dr. Mohamed Nabil

Internet Backbones.

Dr. Mohamed Nabil

Delay and loss in packet-switched nets.

Dr. Mohamed Nabil

protocol layers

Dr. Mohamed Nabil

Application layer

Dr. Mohamed Nabil

Socket programming

Dr. Mohamed Nabil

Transport Layer

Dr. Mohamed Nabil

Course coordinator:
Signature:

Prof. Dr. Hosam Fahmy

Network Layer

Dr. Mohamed Nabil

Wireless networks

Dr. Mohamed Nabil

sensor and industrial networks

Dr. Mohamed Nabil

Topics Taught as a percentage of the content specified

>90%

70% - 90%

<70 %

Reasons in detail for not teaching any topic

------ ------ ------ ------ ------ ------ ------ ------ ------ ------ ----- ------ ------ ------ ------ ------ ------ ------ ------ ------ ----- ------ ------ ------ ------ ------ ------ ------ ------ ------ ----------- ------ ------ ------ ------ ------ ------ ------ ------ ------ ----- ------ ------ ------ ------ ------ ------ ------ ------ ------ ---If any topics were taught which are not specified, give reasons in detail

------ ------ ------ ------ ------ ------ ------ ------ ------ ------ ----- ------ ------ ------ ------ ------ ------ ------ ------ ------ ----- ------ ------ ------ ------ ------ ------ ------ ------ ------ ----------- ------ ------ ------ ------ ------ ------ ------ ------ ------ ----- ------ ------ ------ ------ ------ ------ ------ ------ ------ ---2- Teaching and learning methods:
Lectures
Practical training/laboratory
Seminar/Workshop
Class Activity
Case Study:
Other assignments/homework
If teaching and learning methods were used other than, those specified, list and give reasons

------ ------ ------ ------ ------ ------ ------ ------ ------ ----- ------ ------ ------ ------ ------ ------ ------ ------ ----- ------ ------ ------ ------ ------ ------ ------ ------ ----- ------ ---Course coordinator:
Signature:

Prof. Dr. Hosam Fahmy

3- Student assessment:
Methods of assessment
Written examination

Percentage of total

100 %

Oral examination

0%

Practical/laboratory work

0%

Other assignments/class work

0%

Members of examination committee

------ ------ ------ ------ ------ -----Role of external evaluator:

------ ------ ------ ------ ------ -----4- Facilities and teaching materials:
Totally adequate
Adequate to some extent
Inadequate
List any inadequacies:

------ ------ ------ ------ ------ ------ ------ ------ ------ ----- ------ ------ ------ ------ ------ ------ ------ ------ ----- ------ ------ ------ ------ ------ ------ ------ ------ ----- ------ ---5-Administrative constraints:

------ ------ ------ ------ ------ ------ ------ ------ ------ ------ ----- ------ ------ ------ ------ ------ ------ ------ ------ ------ ----- ------ ------ ------ ------ ------ ------ ------ ------ ------ ----------- ------ ------ ------ ------ ------ ------ ------ ------ ------ ----- ------ ------ ------ ------ ------ ------ ------ ------ ------ ---6-Student evaluation of the course:
Comment

Response of course Team

------ ------ ------ ------ ------ ----------- ------ ------ ------ ------ -----

------ ------ ------ ------ ------ ----------- ------ ------ ------ ------ -----

------ ------ ------ ------ ------ ----------- ------ ------ ------ ------ -----

------ ------ ------ ------ ------ ----------- ------ ------ ------ ------ -----

Course coordinator:
Signature:

Prof. Dr. Hosam Fahmy

7-Comments from external evaluator(s)


Comment

Response of course Team

------ ------ ------ ------ ------ ----------- ------ ------ ------ ------ ---------- ------ ------ ------ ------ ----------- ------ ------ ------ ------ -----

------ ------ ------ ------ ------ ----------- ------ ------ ------ ------ ---------- ------ ------ ------ ------ ----------- ------ ------ ------ ------ -----

8- Course enhancement: Progress on actions identified in the previous years action plan:

------ ------ ------ ------ ------ ------ ------ ------ ------ ------ ----- ------ ------ ------ ------ ------ ------ ------ ------ ------ ----- ------ ------ ------ ------ ------ ------ ------ ------ ------ ----------- ------ ------ ------ ------ ------ ------ ------ ------ ------ ----- ------ ------ ------ ------ ------ ------ ------ ------ ------ ---9- Action plan
Action required

Completion
date

Person responsible

------ ------ ------ ------ ------ ------ ---- ----

------ ------ ------ ------

------ ------ ------ ------ ------ ------ ---- ----

------ ------ ------ ------

Course coordinator:
Signature:

Prof. Dr. Hosam Fahmy