Sie sind auf Seite 1von 20

ABRE LOS CIELOS

G
Em
E--------------------------------B-----------------------12-------G-12s14-12------121-14-----12s14D-----------12------------------C
G
E----------------------15----15---------------------B----------12-12H13-13----13----13------------12-----G---12--14-----------------------------12-14---12s14D12---------------------------------12---------------X8

INTRO: G-Em-C-G
C
G
Padre quiero estar en tu presencia
C
G
De todo estoy lleno menos de Ti
Am7
C
D
Seor realmente quiero ver tu gloria
Am7
C
D
Que el fuego del cielo caiga en m
G
Puedes mi pasin sentir?
Em7
Y el hambre ver en m?
C D
C/E- D/F#
Sabes que te anhelo a Ti
G
No ms barreras
Em7
Quita esas tinieblas
C
D
Rompe este duro corazn
Am -G/B- C
Oye mi clamor
C
G
Y abre el cielo hoy
Em
Y abre el cielo hoy
C
Y abre el cielo hoy (despues de aqui
se repite la intro)
C
G
Hoy por todas partes siento el
llamado
C
G
Que pronto podr ver tu reino aqu

Am
C
D
Puedes escucharnos desesperados
Am
C
D
Es un clamor de nuestro corazn
CORO
G
Puedes mi pasin sentir?
Em7
Y el hambre ver en m?
C D
C/E- D/F#
Sabes que te anhelo a Ti
G
No ms barreras
Em7
Quita esas tinieblas
C
D
Rompe este duro corazn
Am -G/B- C
Oye mi clamor
C
G
Y abre el cielo hoy
Em
Y abre el cielo hoy
C
Y abre el cielo hoy
PUENTE
Am7
C
D
Seor realmente quiero ver tu gloria
Am7
C
D
Que el fuego del cielo caiga en m
C
G
Y abre el cielo hoy... X12

AL REY HOSANA
:Intro:(Golpes antes de entrar a la cancion)
G]:------------:
D]:------------:
A]:------------:
E]:3-3---3--3-3:
:Intro:
G]:-------------:------------:-----------:-------5-3--:
D]:--5--------5-:----3-3----3:1---1-1---1:---4-7-----7:
A]:---------5---:--3------3--:--1-----1--:5-----------:
E]:3---3-3------:1-----------:-----------:------------:
G]:-------------:------------:------------:------5-3--:
D]:5-----------5:3----------3:1---1-1----1:--4-7-----7:
A]:--5-------5--:--3------3--:--1------1--:5----------:
E]:----3-3------:----1-1-----:------------:-----------:
:Coro: Al Rey, Hossana!...
G]:-------------:------------:------------:-----------:
D]:5-----------5:3----------3:1---1-1----1:-----------:
A]:--5-------5--:--3------3--:--1------1--:5-----3-1--:
E]:----3-3------:----1-1-----:------------:--2-5-----5:
Al Rey, Hossana!...
G]:------------:------------:------------:------------:
D]:----5-5----5:-----------3:1---1-1----1:------------:
A]:--5------5--:--3---------:--1-----1---:5-5---5-5--5:
E]:3-----------:1---1-1-----:------------:----5----5--:
:Estrofa 1: Me ha enseado su...
G]:-------------:------------:------------:-----------:
D]:5-----------5:3----------3:8----------8:-----------:
A]:--5-------5--:--3------3--:--8------8--:5---5-5---5:
E]:----3-3------:----1-1-----:----6-------:--5-----5--:
realeza, de su salvacion...
G]:------------:-----------:------------:---------:
D]:5---5--3-3--:1-1--------:------------:---------:
A]:--5--------3:------1-1--:5-5----5-5--:5--------:
E]:------------:----1-----1:-----5-----5:---------:
Ha cambiado mi tristeza...
G]:-------------:------------:-----------:-------------:
D]:5-----------5:3----------3:-----------:-------------:
A]:--5-------5--:--3------3--:1-1---1-1--:5-5---5-5---5:
E]:----3-3------:----1-1-----:----1-----1:----5-----5--:
belleza de su redencion...

G]:------------:-----------:------------:--------------:
D]:5---5--3-3--:1-1--------:------------:--------------:
A]:--5--------3:------1-1--:5-5----5-5--:5-5-5-5-3-5---:
E]:------------:----1-----1:-----5-----5:--------------:
Puente: Yo me sombro...
G]:----5-5----5--:--------------:-----------:-------3--:
D]:--5----------5:-----5-5---5--:-----------:----------:
A]:3-------------:--5----------5:5---5-5---5:----1----1:
E]:--------------:3-------------:--5-----5--:3-5-------:
No hay nadie...
G]:-----5-5---5--:---------------:-----------:------------:
D]:--5----------5:-----5-5----5--:-----------:------------:
A]:3-------------:--5-----------5:--5-----5--:5-5----5-5-5:
E]:--------------:3--------------:5---5-5---5:------------:
Rey...
G]:-----------:
D]:-----------:
A]:5-5-5-5-5-5:
E]:-----------:
:Intermedio:(Solo de Guitarra)
( x 3 veces )
G]:-----------:----------:-----------:----------:
D]:-----------:----------:-----------:----------:
A]:5-3-5-6-5-3:5-3-5-----:5-3-5-6-5-3:----------:
E]:-----------:----------:-----------:3-1-3-----:
( a la 4 vez )
G]:-----------:----------:-----------:----------:
D]:-----------:----------:-----------:----------:
A]:5-3-5-6-5-3:5-3-5-----:5-3-5-6-5-3:-----1----:
E]:-----------:----------:-----------:3-1------3:
:Coro: Al Rey!...
G]:------------:
D]:------------:
A]:------------:
E]:3-3-1-3-----:
:Coro:(Varias veces) :Final: Aleluya!...
G]:-----------------:----------------:----------:
D]:-----------------:-------------2-3:----------:
A]:5-5-5-5---5-5-5-5:-------3-5-6----:----------:
E]:-----------------:----------------:3-3-3-3---:

ALTISIMO
Intro
G D Em C G D/G C/G
G

D
C
D
Tu rostro quiero ver
G
D
C
D
Em
tus sendas conocer
D
C
D
G
D C D
que tu luz nos alumbre.
G
D
C
D
Quiero conocer tu poder
G
D
C
D
Em
ven llname otra vez
D
C
D
G
D C
en tus manos levntame Seor
PRECORO
D
Em
//Dame un cntico nuevo
C
de alabanza a ti
D
Em
y el mundo temer
C
tu nombre oh Dios//
CORO
G
D
Em
C
//Dignooooooooooo, digno es el Seor//
G
D
Em
C
G
Dignooooooooooo, digno es el Seor altsimo
C
(digno eres T).

AVIVANOS
intro del bajo

x4

G|----------------11--9--8------|
D|------3/99999999--99-99-9-----|
A|-----------------------------|
E|------------------------------|
G#m E B F#

x2

estrofa
G#m
E
B
Me conoces bien, yo te seguir Por ti vivir,
F#
cada da te amare
(aqui el bajo hace quintas)
G#m
E
B
Yo te esperare, volvers por mi Estoy seguro que,
F#
solo pertenezco a ti
precoro
F#
G#m
E F#
G#m
E
Seor soy tu creacin Y tu gozo me lleno

coro
B/D#
E
B/D#
E
B/D#
Todos vamos a cantar, a saltar y a gritar
E
G#m
F#
Avivanos con tu pasin

intro del bajo


G|----------------11--9--8------|
D|------3/99999999--99-99-9-----|
A|-----------------------------|
E|------------------------------|

x2

estrofa
G#m
E
B
Sentir tu voz fuerte sobre mi Por ti cantare,
F#
siempre buscare de ti
G#m
E
B
me levantare, y te alabare Estoy seguro que,
F#
solo pertenezco a ti

precoro
F#
G#m
E F#
G#m
E
Seor soy tu creacin Y tu gozo me lleno

coro
B/D#
E
B/D#
E
B/D#
Todos vamos a cantar, a saltar y a gritar
E
G#m
F#
Avivanos con tu pasin

cuando esta el teclado se toca: G#m E B F#


x2
y entra despues el bajo asi o algo parecido:
G|--------------------11-9-8--------|
D|-----------------999--9-9---------|
A|--------66-7-7777--------9-------|
E|-----444--6-----------------------|

x2

G#m
E
//Avivanos con tu pasin
B
F#
Avivanos con tu fuego Dios//

esto se toca en el solo:


G#m E B F#
x2

coro
B/D#
E
B/D#
E
B/D#
//Todos vamos a cantar, a saltar y a gritar
E
G#m
F#
G#m E B F#
Avivanos con tu pasin//

CANTAMOS ALELUYA
Intro:
G|--------------------------------D|--------------------------------A|-14-15-14-12-11-12-14-9(4)-7(4)-5(4)-- X2
E|--------------------------------Verso: Por tus obras por tu fe
(esta parte es un poco pausada en el cambio de notas)
G|-----------------------------D|-----------------------------A|-9(4)--7(4)-5(4)--5(4)-------- X4
E|-----------------------------Antes de entrar al coro qudense marcando el tiempo en C#
Coro: Cantamos aleluya.....
(tienes que cambiar a las notas con el mismo ritmo)
G|---------------------------------------D|---------------------------------------A|---------------------------------------E|--5(6)-4(6)-2(6)-10(6)-5(6)-4(4)-10(10)-X2
Intermedio, volvemos hacer casi lo mismo del intro
G|--------------------------------------------------D|--------------------------------------------------A|9(4)-7(4)-5(4)-14-15-14-12-11-12-14-9(4)-7(4)-5(4)-E|--------------------------------------------------Luego sigue la parte: el venci a la muerte por siglos reina
G|--------------------------------------------------D|--------------------------------------------------A|----------44----44-55-77-----------44-------------E|-22-44-55----77-----------22-44-55----77-55-44-22-G|--------------------------------------------------------------D|---------------------------------------------------------------A|----------44----44-55-77-----------44----------5-4-----7-4---5(S)
E|-22-44-55----77-----------22-44-55----77-55-44-----7-5-----5----

Esta es la parte donde suena el solo de la


guitarra es importante seguir el ritmo de la misma y de la batera.
(Despus de repetir por 3 veces esta parte te quedas en E pero
lleven el mismo ritmo)
G|-----------------------------------D|-----------------------------------A|-5(8)s-------------4(8)s------------- x3
E|-------2(8)s-5(8)s------------------Nota
Como lo explique anteriormente se quedan en E y
vuelven Hacer la parte del coro y terminan con el solo de guitarra

CUANDO PIENSO
G|-------------------------------------------|
D|-------------------------------------------|
A|---3x--3x--3x--3x--3x--3x--3x--3x--3x--3x--| x3
E|-------------------------------------------|
G|-------------------------------------------|
D|-------------------------------------------|
A|---3x------1/-------3x---------------------| x2
E|-------------------------------------------|
G|-------------------------------------|
D|-------------------------------------|
A|---1x--1x--1x--1x--1x--1x--1x--1x----| x1
E|-------------------------------------|
G|-----------------------------------|
D|-----------------------0---1---0---|
A|--3---0-------0----3---------------| x2
E|----------3------------------------|
G|-------------------------------------|
D|-------------------------------------|
A|---1x--1x--1x--1x--1x--1x--1x--1x----| x1
E|-------------------------------------|
G|-----------------------------------|
D|-----------------------0---1---0---|
A|--3---0-------0----3---------------| x2
E|----------3------------------------|
G|-----------------------------------|
D|-----------------------0---1---0---|
A|--3---0-------0----3---------------| x4
E|----------3------------------------|
G|-------------------------------------|
D|-------------------------------------|
A|---1x--1x--1x--1x--1x--1x--1x--1x----| x1
E|-------------------------------------|
G|-----------------------------------|
D|-----------------------0---1---0---|
A|--3---0-------0----3---------------| x2
E|----------3------------------------|
G|-------------------------------------|
D|-------------------------------------|
A|---1x--1x--1x--1x--1x--1x--1x--1x----| x1
E|-------------------------------------|
G|-----------------------------------|
D|-----------------------0---1---0---|
A|--3---0-------0----3---------------| x6

)
)
)
)
)
)
)
)
)
)
)
)
)
)
)
)
)
)
)
)
)
)
)
)

x4

E|----------3------------------------|
G|-------------------------------------|
D|-------------------------------------|
A|---1x--1x--1x--1x--1x--1x--1x--1x----| x1
E|-------------------------------------|

O Hacerlo Asi:
G|--------------------------------|
D|--------------------------------|
A|---3---------------5---6---5----|
E|-------5---3---5----------------|

G|-------------------------------------|
D|-------------------------------------|
A|-------------------------------------|
E|---6x--6x--6x--6x--6x--6x--6x--6x----|

Repetir
Cuantas Veces
Sea Necesario

DA FELIZ
Intro: C F Am G
e-x------------B-8--6--5--6---G-5--5--5--5---D-x------------e-------------------12----B----13-15-----13-15--13--G-12---------12-----------D--------------------------

e--------------------------B----13-15----13-15-12-13--G-12--------12-------------D---------------------------

C
El da ms grande de la historia
F
Am
Me rescat, la muerte derrot
F
Cntenlo que Cristo vive hoy
C
Vaca la cruz y la tumba
F
Am
Vida eterna Tu ganaste Dios
F
Grtenlo que Cristo vive hoy
G
Vive hoy

C5
F5
Am5
Oh da feliz, da feliz
G5
lavaste mi maldad
C5
F5
Am5
Oh da feliz, da feliz
G5
C5 F5-Am5
jams ser igual
G5
C5 F5 Am5 G5
por siempre me cambi
C
Cuando est en Ese Lugar
F
Am
libre al fin de cara frente a Ti
F
Tuyo soy, mo Eres Jess
C
Gozo y paz ah habr
F
Am
el dolor por fin terminar
F (G)
Al celebrar que Cristo vive hoy
Am/G
Em/G
Y oh, qu glorioso da
FAdd9
qu gloriosa manera
C
en que me salvaste
Am/G
Em/G
Oh qu glorioso da
F
C
Qu Glorioso Nombre, Jess

EN LOS MONTES
INTRO(D-Bb-A)X2
SOL-----------------RE------------------- (2 VUELTAS ANTES)Y
LA--5-0---------8-7-- COMIENZA LA CANCION
MI------0-0----6-5-52(PARTE)
SOL----7-7-------RE -----7-7--8-7-LA ------------8-7
MI --------------(CORO)
SUBAMOS A ADORAD EN EL MONTE DE SION
SOL---------------------------RE -------------------7-5-----LA 5-5-5-----5-5-5-------8-7-5MI -----3-3-3-----5-5X2-------Y CON USTEDES FUNKI ("FINAL")
SOL--------------------- COMIENZA LA GUITARRA Y CUANDO LLEVA
RE --------------------- LOS PRIMEROS 4 TIEMPOS ENTRA EL BAJO
LA --5--5-3-5---3-5-5-3- (X 4)SE ACABA Y COMIENZA LA SIGUIENTE
MI ------------5-------5 ESTROFA

DE NUEVO
SOL-------------------RE -------------------LA -5-----5-----------MI ---6-5---6-5--------

GRANDE Y FUERTE
Bajo(puntos): AAA EEE D E FFF
*INTRO: X4

EEE CC A

A----------7-7-7-5-7-8-8-8-7-7-7---E5-5-5----------------------------8-7////Grande y fuerte es nuestro Dios////


A----------7-7-7-5-7-8-8-8-7-7-7---X2
E5-5-5----------------------------8-7Revestido en majestad
coronado con poder
A5-5-5-5-5-5-5-5---------------------------------------E-----------------------3-3-3-3-3-3-3-3-1-1-1-1-1-1-1-1
Digno de toda,
la adoracin
A--------------------------------------------------------E17-17-17-17-17-17-17-17-1-1-1-1-1-1-1-1-3-3-3-3-3-3-3-3On
. On.
A-----------2-2-2-2-3-3-3-3-4-4-4-4--E5-5-5-5-----------------------------Revestido en majestad
coronado con poder
A5-5-5-5-5-5-5-5----------------------------------------------E-----------------------3-3-3-3-3-3-3-3-1-1-1-1-1-1-1-1
Toda gloria y honra sean para el
A--------------------------------------------------------E17-17-17-17-17-17-17-17-1-1-1-1-1-1-1-1-3-3-3-3-3-3-3-3*Luego biene de nuevo la intro
A----------7-7-7-5-7-8-8-8-7-7-7-------E5-5-5----------------------------8-7-*Repite todo de nuevo, despus ace la intro. Dos veces mas y entra a esta parte
//Grande

Fuerte

es nuestro

A----------7-7-7-5-7-8-8-8-7-7-7------E5-5-5----------------------------8-7Diosss //
A----------7-7-7-5-7-8-8-8-7-7-7------E5-5-5----------------------------8-7-

X3

///Grande y Fuerte es nuestro Dios///


A-------------------------E5-5-3-3-1-1-12-12-12-12-Grande y fuerte es nuestro Dios ( EN ESTA PARTE SOLOS LAS VOCES)
A------------------------------------------2-2-3-3-4-4E-------------------------------------5-5------------------

GRANDES COSAS
GrAnDeS CoSaS
G
C
G
C
G
C
G
C
E|--3-3--3-------|--3-3--3-------|--3-3--3-------|--3-3--3-------||
A|----------3-3--|----------3-3--|----------3-3--|----------3-3--||
D|---------------|---------------|---------------|---------------||
G|---------------|---------------|---------------|---------------||
::EsTroFa::
G
C
G
C
E|--3-3--3--3----|---------------|--3-3--3--3----|---------------||
A|---------------|--3-3--3--3----|---------------|--3-3--3--3----||
D|---------------|---------------|---------------|---------------||
G|---------------|---------------|---------------|---------------||
D
C
E|---------5-----|---------------||
A|-5--5--5---5-3-|--3-3--3--3-3--||
D|---------------|---------------||
G|---------------|---------------||
::CoRo::
A
E
D
E
E|--5-5-5----0---|------------0-||
A|-------------7-|--5-5-5---7---||
D|---------------|--------------||
G|---------------|--------------||

InTrO 2 primeros compases...

2 VECES

Nos Alegraremos en el ......


F#
E
D
E|--2-2--2---0---|------------0-|
A|-------------7-|-5-5--5---7---|
D|---------------|--------------|
G|---------------|--------------|
F#
E
D
E|--2-2--2---0---|-----------------||
A|-------------7-|-5-5-5-5-5-7-7-7-||
D|---------------|-----------------||
G|---------------|-----------------||

::InTrO::

solo 2 compases ::EstrOfa:: ::CoRo::

::InTeRmEdIo::
E|----10---------|----0---------|----2--------|----0---------||
A|---------------|--------------|-------------|--------------||
D|-0----------0--|-2----------2-|-4---------4-|-2----------2-||
G|---------------|--------------|-------------|--------------||
Nos alegraremos en l...Si desean, pueden tocar con una pluma
::FiNaL::
E|--5-5--5-------|--5-5--5-------||
A|----------5-5--|----------5-5--|| Acaba en "A",
D|---------------|---------------|| pueden razcar con su quinta
G|---------------|---------------||

2 veces...

LEVNTATE Y SLVAME
:Intro:(Guitarra)
:Estrofa 1:
No temere a diez mil gentes...
G]:--------:--------:------:---------:
D]:--------:--------:------:---------:
A]:--------:--------:------:3--------:
E]:1---3---:5------:1------:-----3---:
Aunque la tierra se estremezca...
G]:--------:--------:------:--------------:
D]:--------:--------:------:--------------:
A]:--------:--------:------:--------------:
E]:1---3---:5------:1------:3--3-3-3-3-3-3:
:Coro:(x 2)
Porque tu eres mi escudo...
G]:---------:-----------:---------:-----------:
D]:---------:-----------:---------:-----------:
A]:---------:-----------:---------:-----------:
E]:1--3-3--5:3-5---3-5-3:1--3-3--5:3-5---3-5-3:
Tu eres mi gloria...
G]:---------:-----------:---------:--------------:
D]:---------:-----------:---------:--------------:
A]:---------:-----------:----3-3--:--------------:
E]:1--3-3--5:3-5---3-5-3:1--------:3--3-3-3-3-3-3:
:Etsrofa 3:
Aunque afligido este...
G]:----------:---------------:-------------:---------:
D]:----------:---------------:-------------:------5--:
A]:----------:---------------:3-3-3-3--3---:---------:
E]:5--3-5-5--:1--1-1--1-1-1-1:------------5:3-3--3--3:
Aunque mi corazon estremecido...
G]:----------:---------------:-------------:-------------:
D]:----------:---------------:-------------:----------5--:
A]:----------:---------------:3-3-3-3--3---:-------------:
E]:5-5-5--5-3:1--1-1--1-1-1-1:------------5:3-3--3-3-3--3:
No temere a ningun hombre...
G]:---------:---------:--------:-----------:
D]:---------:---------:--------:--------5--:
A]:---------:---------:--------:3-3--------:
E]:1--3-3--5:5-5-5-5-5:1--1-1--:-----3-3--3:
Tu eres mi Dios, mi fortaleza...
G]:--------:--------:------------:------------:
D]:--------:--------:------------:------------:
A]:--------:--------:------------:------------:
E]:1--3-3-5:3-5--3-5:1--1-1-1-1-1:3--3-3-3-3-3:
:Coro:(x2)

:Puente:
Levantate y Salvame...
G]:--------:--------:---------:---------:
D]:--------:--------:---------:---------:
A]:--------:--------:3--------:---------:
E]:5-------:1-------:---------:3-----3-3:
Levantate y Salvame...
G]:--------:--------:---------:---------:
D]:--------:--------:---------:---------:
A]:--------:--------:3--------:---------:
E]:5-------:1-------:---------:3--------:
Levantate y Salvame...
G]:--------:-----------:---------:----------:
D]:--------:-----------:---------:----------:
A]:--------:-----------:3-3-3----:----------:
E]:5-5-5---:1--1-1-1---:---------:3--3-3-3--:
Levantate y Salvame...
G]:--------:-------------:---------------:---------------:
D]:--------:-------------:---------------:---------------:
A]:--------:-------------:3-3-3-3-3-3-3-3:---------------:
E]:5-5-5---:1--1-1-1--1-1:---------------:3-3-3-3-3-3-3-3:
Levantate y Salvame...
G]:----------:----------:------------:----------:
D]:----------:----------:------------:----------:
A]:----------:----------:3-3-3--3-3-3:----------:
E]:5-5--5-5-5:1-1--1-1-1:------------:3-3--3-3-3:
Levantate y Salvame...
G]:----------:-------------:---------------:---------------:
D]:----------:-------------:---------------:---------------:
A]:----------:-------------:3-3-3-3-3-3-3-3:---------------:
E]:5-3-5--5-3:1--1-1--1-1-1:---------------:3-3-3-3-3-3-3-3:
:Coro:
:Puente:(Bajo en el 3)
's'=slide
Levantate y Salvame...
G]:----------:--------------:----------:--------------:
D]:----------:----s3--------:----------:------s5------:
A]:----------:--------------:3-3-3--3-3:--------------:
E]:5-5-5--5-5:1-1------1-1-1:----------:3-3-3----3-3-3:
G]:----------:--------------:----------:---------------:
D]:----------:----s3--------:----------:---------------:
A]:----------:--------------:3-3-3--3-3:---------------:
E]:5-5-5--5-5:1-1------1-1-1:----------:3-3-3-3-3-3-3-3:
Salvame...!!!
G]:-----------:--------:
D]:-----------:--------:
A]:-----------:--------:
E]:5-(Vibrato):5s------:

MANDA EL FUEGO
Oh Dios del fuego liampiador, mndalo, aquel poder comsumidor, manda el fuego hoy
G------------------------------------------------------D---5/7--5-----2/3--2----------------------------------A-----------5----------3-------------------------------E-------------------------1----------------------------C
F
C
G
C
F
C
A
G
C
Dios de Elias escuchanos, mndalo en vida o muerte yo me doy, manda el fuego hoy
G------------------------------------------------------D-----------3--2---------------------------------------A-----2--5--------5--3---------------------------------E--3---------------------------------------------------que quemes toda iniquidad
G------------------------------------------------------D-----------3--2--3--5---------------------------------A-----2--5---------------------------------------------E--3---------------------------------------------------que entren gloria, luz, verdad
G------------------------------------------------------D------------------------------------------------------A-----4--7--5-----2--3---------------------------------E--5-----------5---------------------------------------que haya en mirevolucion
G------------------------------------------------------D------------------------------------------------------A---------------3--------------------------------------E--1------3--------------------------------------------manda el Fuego hoy
G C
G C
Manda el fuego, manda el fuego
G------------------------------------------------------D------------------------------------------------------A--------------------------------------------------3---E------------3----5--7--8--7--5--3--1--------3---------manda el fuego
manda el fuego hoy
G------------------------------------------------------D------------------------------------------------------A------------------------------------------------------E--5--3--1---------------------------------------------(ESTOS TONOS SON PARA ENTRAR OTRA VEZ A LA ESTROFA)
LA OTRA ESTROFA ES IGUAL A LA PRIMERA Y EL FINAL ES ASI:
G------------------------------------------------------D---5/7--5-----2/3--2----------------------------------A-----------5----------3--------3----------------------E-------------------------1--3--------------------------

NO PUEDO DEJAR
0:15
G
D
A
E

|-------------4444-3-1---------------4----------4444-3-1---------------|
|-----------1---------4-----1-----2-4-4-2-----1---------4-----1--------|
|-14/4-44444-2---------44444-2-2h4-------44444-2---------44444-2-------|
|----------------------------------------------------------------------|
0:25

G
D
A
E

|-----------------------------------------------------------------------|
|-----------------------------------------------------------------------|
|--------444444444-66666666/22222222--------44444444-22222222-----------|
|-2222222---------------------------22222222-----------------2222222----|

G
D
A
E

|-----------------------------------------------------------------------|
|-----------------------------------------------------------------------|
|-444444444-66666666/22222222--------44444444-22222222------------------|
|----------------------------22222222-----------------------------------|
0:54

G
D
A
E

|-----------------------------------------------------------------------|
|-----------------------------------------------------------------------|
|-666-22---44-666-22---444444444444-------------------------------------|
|-------222---------22--------------------------------------------------|
1:09

G
D
A
E

|-----------------------------------------------------------------------|
|-----------------------------------------------------------------------|
|---------44444444-66666666-22222222--------44444444-22222222-----------|
|-22222222--------------------------22222222----------------------------|
1:35

G
D
A
E

|--------4444-3-1-------------------------------------------------------|
|------1---------4----1-------------------------------------------------|
|-44444-2---------4444-2------------------------------------------------|
|-----------------------------------------------------------------------|
1:42

G
D
A
E

|-----------------------------------------------------------------------|
|-----------------------------------------------------------------------|
|---------44444444-66666666/22222222--------44444444-22222222-----------|
|-22222222--------------------------22222222----------------------------|
1:53

G |-------4---------------------------------------------------------------|
D |----2/4-4-2------------------------------------------------------------|

A |-2/4--------------444444444-66666666/22222222--------44444444-22222222-|
E |-----------2222222---------------------------22222222------------------|
2:08
G
D
A
E

|-----------------------------------------------------------------------|
|-----------------------------------------------------------------------|
|-666-22---44-666-22---444444444444-------------------------------------|
|-------222---------222-------------------------------------------------|
2:23

G
D
A
E

|-----------------------------------------------------------------------|
|-----------------------------------------------------------------------|
|---------44444444-66666666-222222222--------44444444-22222222----------|
|-22222222---------------------------22222222-----------------22222222--|

G
D
A
E

|-----------------------------------------------------------------------|
|-----------------------------------------------------------------------|
|-44444444-66666666-22222222--------44444444-22222222-------------------|
|---------------------------22222222------------------------------------|
2:49

G
D
A
E

|-----------------------------------------------------------------------|
|-------------5/7-6/4/2-----------5/7-6-4-2-----------------------------|
|-666-22-666-6---------666-22-6666---------6-2-4-6-2/9-4----------------|
|---------------------------------------------2-------------------------|
3:16

G
D
A
E

|-----------------------------------------------------------------------|
|-----------------------------------------------------------------------|
|---------44444444-66666666/22222222--------44444444-22222222-----------|
|-22222222--------------------------22222222-----------------22222222---|

G
D
A
E

|-----------------------------------------------------------------------|
|-----------------------------------------------------------------------|
|-44444444-66666666-22222222--------44444444----------------------------|
|---------------------------22222222------------------------------------|
3:39

G
D
A
E

|-----------------------------------------------------------------------|
|-777-666-444-222-------------------------------------------------------|
|----------------0-2----------------------------------------------------|
|-----------------------------------------------------------------------|
3:43

G
D
A
E

|-----------------------------------------------------------------------|
|-----------------------------------------------------------------------|
|-----------------4444444444444444-6666666666666666-2222222222222222----|
|-2222222222222222------------------------------------------------------|

G
D
A
E

|-----------------------------------------------------------------------|
|-----------------------------------------------------------------------|
|-----------------44444444444444----------------------------------------|
|-2222222222222222------------------------------------------------------|
3:52

G
D
A
E

|-----------------------------------------------------------------------|
|-5/777-666-444-222-----------------------------------------------------|
|-----------------------------------------------------------------------|
|------------------4-2--------------------------------------------------|