You are on page 1of 61

Velvet Revolver - Album Tab(s)

Alix Dorrington - And respectful Tabbers.


1.
2.
3.
4.
5.
6.
7.
8.
9.
10.
11.
12.
13.
14.

Sucker Train For Blues


Do It For The Kids
Big Machine
Illegal
Spectacle
Fall To Pieces
Headspace
Superhuman
Set Me Free
You Got No Right
Slither
Dirty Little Thing
Loving The Alien
Bodies (UK Bonus Track)

_____________________________________________________________________
Song
- Sucker Train blues
Lead Guitarist - Slash
Guitar used
- Gibson Les Paul with Seymour Duncan Alnico II pros
Tabbed by D.K (thepopeHATESrap)
Corrections either comment or email mullenman223@yahoo.com
Intro
e|---------------------------------|
B|------------3-2------------------|
G|-4---3-4--------3----------------|
D|---------------------------------|
A|---------------------------------|
E|---------------------------------|
Play this with a clean guitar with the effect chorus
Please note that the bass guitar plays the other riff....not the guitar
Although the guitar CAN play that part
Main Riff:
Rhythm Guitar:
e|-------------------------------------------------------------------|
B|-------------------------------------------------------------------|
G|-------------------------------------------------------------------|
D|-5--5-5--5-5-5-5--5-5-5-5--5-5-5---2--2-2--2-2-2-2--2-2-2-2--2-2-2-|
A|-5--5-5--5-5-5-5--5-5-5-5--5-5-5---2--2-2--2-2-2-2--2-2-2-2--2-2-2-|
E|-3--3-3--3-3-3-3--3-3-3-3--3-3-3---0--0-0--0-0-0-0--0-0-0-0--0-0-0-|
PM..........................
PM...........................
Lead Guitar:
e|-------------------------------------------------------------------|
B|-------------------------------------------------------------------|
G|-------------------------------------------------------------------|
D|------------------3------------------------------------------------|
A|------4---5------------5---4-5-------------------------------------|
E|-3--3---3---3-3-3---3---3------3---0--0-6-0-7-0-0-0-10-0-9-0-6-7-0-|
Fill at the end of the intro:
e|-------3-3-----3-3-------------------------0-0-----0-0-------------|

B|-------3-3-----3-3-------------------------0-0-----0-0-------------|
G|-5^(7)----5^(7)-----------------------2^(4)---2^(4)----------------|
D|-------------------------------------------------------------------|
A|-------------------------------------------------------------------|
E|-------------------------------------------------------------------|
You may find it easier to bend from the 3 fret instead of the 2nd.
Verse:
e|-------------------------------------------------------------------|
B|-------------------------------------------------------------------|
G|-------------------------------------------------------------------|
D|-------------------------------------------------------------------|
A|-------------------------------------------------------------------|
E|-0--0-6-0-7-0-----0--0-6-0-7-0-----0--0-6-0-7-0--------------------|
e|-------------------------------------------------------------------|
B|-------------------------------------------------------------------|
G|-------------------------------------------------------------------|
D|-------------------------------------------------------------------|
A|-------------------------------------------------------------------|
E|-0--0-6-0-7-0-0-0-10-0-9-0-6-7-0-----------------------------------|
Then the verse changes a bit:
Play each riff 4 times
Rhythm Guitar:
e|-------------------------------------------------------------------|
B|-------------------------------------------------------------------|
G|-------------------------------------------------------------------|
D|--2--2-2--2-2-2-2--2-2-2-2--2-2-2----------------------------------|
A|--2--2-2--2-2-2-2--2-2-2-2--2-2-2----------------------------------|
E|--0--0-0--0-0-0-0--0-0-0-0--0-0-0----------------------------------|
PM..............................
Lead Guitar:
Starts off with a pick scrape then:
e|-------------------------------------------------------------------|
B|-------------------------------------------------------------------|
G|----------------9-9-9---9-9-9--------------------------------------|
D|----------------9-9-9---9-9-9--------------------------------------|
A|----------------7-7-7---7-7-7--------------------------------------|
E|-0--0-6-0-7--------------------------------------------------------|
Pre-Chorus:
Rhythm Guitar:
e|----------------------------------------------------------------------|
B|----------------------------------------------------------------------|
G|------------------------------------4---4-4-4-4--4-4-4-4--4-4-4-4--4--|
D|--7---7-7-7-7-7--5---5-5-5-5-5-5-5--4---4-4-4-4--4-4-4-4--4-4-4-4--4--|
A|--7---7-7-7-7-7--5---5-5-5-5-5-5-5--2---2-2-2-2--2-2-2-2--2-2-2-2--2--|
E|--5---5-5-5-5-5--3---3-3-3-3-3-3-3------------------------------------|
Lead Guitar:
e|-----------------------------------------------------7-7-7------------|

B|-----------------------------------------------------7-7-7------------|
G|------------------------------------------------9^(11)----------------|
D|----------------------------------------------------------------------|
A|----------------------------------------------------------------------|
E|----------------------------------------------------------------------|
Chorus:
Rhythm Guitar:
e|-------------------------------------------------------------------|
B|-------------------------------------------------------------------|
G|-------------------------------------------------------------------|
D|-5--5-5--5-5-5-5--5-5-5-5--5-5-5---2--2-2--2-2-2-2--2-2-2-2--2-2-2-|
A|-5--5-5--5-5-5-5--5-5-5-5--5-5-5---2--2-2--2-2-2-2--2-2-2-2--2-2-2-|
E|-3--3-3--3-3-3-3--3-3-3-3--3-3-3---0--0-0--0-0-0-0--0-0-0-0--0-0-0-|
PM..........................
PM...........................
Lead Guitar:
e|-------------------------------------------------------------------|
B|-------------------------------------------------------------------|
G|-------------------------------------------------------------------|
D|------------------3------------------------------------------------|
A|------4---5------------5---4-5-------------------------------------|
E|-3--3---3---3-3-3---3---3------3---0--0-6-0-7-0-0-0-10-0-9-0-6-7-0-|
Post Chorus:
Rhythm Guitar:
e|-------------------------------------------------------------------|
B|-------------------------------------------------------------------|
G|-7---7-7-7-7-7--5---5-5-5-5--5-------------------------------------|
D|-7---7-7-7-7-7--5---5-5-5-5--5--2---2-2-2-2--2-2-2-2--2-2-2-2--2---|
A|-5---5-5-5-5-5--3---3-3-3-3--3--2---2-2-2-2--2-2-2-2--2-2-2-2--2---|
E|--------------------------------0---0-0-0-0--0-0-0-0--0-0-0-0--0---|
Lead Guitar:
e|-------------------------------------------------------------------|
B|-10--10-10-10---8---8-8-8-8-8---12--12-12-12-12-12...--------------|
G|-12^(14)--------10^(12)---------14^(16)----------------------------|
D|-------------------------------------------------------------------|
A|-------------------------------------------------------------------|
E|-------------------------------------------------------------------|
Rhythm Guitar:
e|-------------------------------------------------------------------|
B|-------------------------------------------------------------------|
G|-7---7-7-7-7-7--5---5-5-5-5--5--4---4-4-4-4--4-4-4-4--4-4-4-4--4---|
D|-7---7-7-7-7-7--5---5-5-5-5--5--4---4-4-4-4--4-4-4-4--4-4-4-4--4---|
A|-5---5-5-5-5-5--3---3-3-3-3--3--2---2-2-2-2--2-2-2-2--2-2-2-2--2---|
E|-------------------------------------------------------------------|
Solo:
Rhythm plays the Rhythm part of the Main Riff
while the Lead plays:
e|----------------------------------------------12---------------------|
B|---------------------13^(15)-r-r-r-r-------------15-12-15^(17)-r-r-r-|
G|-5^(7)*-----10^(12)-------------------14^(16)------------------------|

D|---------------------------------------------------------------------|
A|------------8-^(10)--------------------------------------------------|
E|---------------------------------------------------------------------|
*Very wide fast vibrato
e|-12---------------12---------------------------------------------------|
B|----15-12-15^(17)----15-12------------------15-------15-------15-------|
G|---------------------------14^(16)~--14^(16)---14^(16)--14^(16)--14-12-|
D|-----------------------------------------------------------------------|
A|-----------------------------------------------------------------------|
E|-----------------------------------------------------------------------|
e|-15-12--15^(17)--15-12----12------------------------------------------|
B|-----------------------15----------15-12------15-12-------15-12-------|
G|----------------------------14^(16)-----14^(16)----14^(16)------14-12-|
D|----------------------------------------------------------------------|
A|----------------------------------------------------------------------|
E|----------------------------------------------------------------------|
e|-----------17^(19)-r-r-17-15-17----15-17-15-17^(19)-17-18^(20)**------|
B|----------------------------------------------------------------------|
G|----14-12/------------------------------------------------------------|
D|-14-------------------------------------------------------------------|
A|----------------------------------------------------------------------|
E|----------------------------------------------------------------------|
After this its pick scraping, then back to the main riff
The outro is the main riff, but after a few bars, the lead guitar plays the rhyt
hm
part aswell, then finishes on an E power chord.
Then the final bit is also the same riff as the intro
Band: Velvet Revolver
Song: Do It For The Kids
Album: Contraband
Tabbed by: Kabir
ktaneja@students.latrobe.edu.au
Gtr I (E# A# D# G# B# E#) - Slash
Gtr 2 (" " " " " ") - Dave Kushner
4/4
Gtr I
::Intro::
too fast I'm out of luck and I don't even give a ***....
::Riff A::
|----------------------------------|
|----------------------------------|
|----------------------------------|
|-7-7-5-6-7-7-5-6-7-7--8--10--8----|
|-7-7-5-6-7-7-5-6-7-7--8--10--8----|
|----------------------------------|

::Small riff Slash plays::


|-----------------------------------------|
|-------7r=7--7-5-7-3-5-3--2p-3-2p-3------|
|-2pb4-------------------------------2----|
|-----------------------------------------|
|-----------------------------------------|
|-----------------------------------------|
::Verse 1 played with Riff A::
I wanna be your mainchild
Lets all go-it hog wild
She said ill see you later
I always gravitate to her
Lets all meet at the station
No heavy concentration
We could all hook up there
The kids are all right there
::Chorus::
D
A
Should we go out later
D
A
Showtime for strangers

C B A

::Verse 2 - play Riff A all the way muted::


Dontcha give a *** anymore now
She's givin up on you now
Do it for the kids they say
It ain't about you anyway
::Verse 3 - same as other verses::
I say we're all grown up now
And sex ain't so safe now
It's all in the groove they say
Doesn't matter anyway
::chorus::
D
A
Should we go out later
D
A
Showtime for strangers

C B A

:: Bridge - Play Riff B::


::Riff B::
|---------------------------|
|---------------------------|
|---------------------------|
|-10------------------------|
|--8----10----8----4---7----|
|--------8----6----2---5----|
Keep me runnin' like a deer in the headlights
All for nothing I thought

Just the ransom I had bought


About the day I tried to tame her
Never tried to blame her
C B A
Just a game that I had bought
::SOLO
|------------------------------------------5-----5---5---5----------|
|-----------------------------------5--5b6---5-7---5---7---5-3p-5---|
|-2--4b6--2p-4-2----------------------------------------------------|
|-----------------2-4-2-2-------------------------------------------|
|-------------------------4--2--0-----------------------------------|
|-------------------------------------------------------------------|

|--------------|
|-/2-3p-2------|
|---------0----|
|--------------|
|--------------|
|--------------|
::verse 4 - as above verses::
Let's all meet at the station
No heavy concentration
The kids are all alright there
::Chorus - same chords as others::
Should we go (should we go) out later
(Went too fast I'm out of luck and I don't even give a ***)
Showtime (showtime) for strangers
(Went too fast I'm out of luck and I don't even give a ***)
::Slash plays this while Scott goes on and on::
TP TP TP TP TP TP TP TP TP TP TP TP TP TP TP TP TP TP TP TP TP TP TP TP TP TP TP
TP TP TP TP
|---------------------------------------------------------------------------------------------|
|-15-15-15-15-17-17-17-19-19-20-20-20-19-19-19-17-17-17-13-13-13S10-10-10-10-1515-15-17-17-17-|
|---------------------------------------------------------------------------------------------|
|---------------------------------------------------------------------------------------------|
|---------------------------------------------------------------------------------------------|
|---------------------------------------------------------------------------------------------|

::Outro by Slash::
~~~
~~~~
|-----------------------------|--------------------------------------|
|-15-12p-13p-12----12p-13p-12-|-----12-13-12-------------------------|
|---------------14------------|-14-----------14-12-11-12-11----------|
|-----------------------------|-----------------------------14-12----|
|-----------------------------|--------------------------------------|
|-----------------------------|--------------------------------------|
Velvet Revolver
Big Machine
isn't much to tab until the pre chorus
All that first-class jet set brings me
down,
down,
down
e-----2---------------------------------------------0------------------------l
B-----3----------------let ring---------------------2------------------------l
G-----2---------------------------------------------2------------------------l
D-----0---------------------------------------------2------------------------l
A---------------------------------------------------0------------------------l
E----------------------------------------------------------------------------l
D maj
A maj
All
brings me
down, down,
down
ay ay ay
ay ay ay
e---0-----------------------------------2---------------0---------------------------------l
B---0-----------------------------------3---let ring----2---------------------------------l
G---1-----------------------------------2---------------2---------------------------------l
D---2-----------------------------------0---------------2---------5--5--5--5--5-5--5--5---l
A---2---------------------------------------------------0---------5--5--5--5--5-5--5--5---l
E---0-------------------------------------------------------------3--3--3--3--3-3--3--3---l
Emaj
Dmaj
Amaj
palm mute for
two measures
Chorus - this isnt the exact pattern, you'll have to listen to the song to figur
e it out, im just
being lazy
e-------------------------------------------------l
B-------------------------------------------------l
G----9-9---9-9-9---9-9-9----9-8-7--7--------------l
D----9-9---9-9-9---9-9-9----9-8-7--7---7-6-5-5----l
A----7-7---7-7-7---7-7-7----7-6-5--5---7-6-5-5----l
E--------------------------------------5-4-3-3----l
fills during the chorus:
e----------------------------------------------------------------------------------------l
B-------------------------------------------------------------------------------

----------l
G-------------------------------------------------------12b14~~~~----12b14~~~~-----------l
D---12b14~~~~----12b14~~~~----12b14~~~~----3b5r3~~~~-------------------------------------l
A----------------------------------------------------------------------------------------l
E----------------------------------------------------------------------------------------l

Bridge
Cmaj Emaj
Dmaj Emaj
Cmaj Gmaj
Amaj
Cmaj Emaj
Dmaj Emaj
Cmaj Gmaj
Amaj
fill just in the middle of the bridge and beore the solo:
e----------------------------------------------------l
B----------------------------------------------------l
G----------------------------------------------------l
D---12sd11-11sd9-9sd7-7sd5-5sd4-4sd2-2p0-------------l
A----------------------------------------4sd2--------l
E---------------------------------------------0------l
Solo n
/=repeat
e-----------------------------------------------------------------------------------------l
B--12----/-/-/-/-/-/-/--12----------12----/-/-/-/-/-/-/--12------------12-15~~~~
~~--------l
G--14b16-/-/-/-/-/-/-/--14----------14b16-/-/-/-/-/-/-/--14---------12--------------------l
D----------------------------12~~~----------------------------12~~~-----------------------l
A-----------------------------------------------------------------------------------------l
E-----------------------------------------------------------------------------------------l
feel free to correct any mistakes
mhoer@hotmail.com
Song: Illegal i Song
Band: Velvet Revolver
Album: Contraband
Tabbed by: Kabir
ktaneja@students.latrobe.edu.au
************ \m/ **************
Gtr I (Eb Ab Db Gb Bb Eb) - 'Slash'
Gtr 2 (Eb Ab Db Gb Bb Eb) - 'Dave Kushner'
::Intro::
4/4
Gtr I

|-------------------|----------------|--------|
|-------------------|----------------|--------|
|-------------------|----------------|--------|
|-5-5-5-3S5-8-5-8S6-|-5-5-5-3S5-8-5--|-9-3----|
|-------------------|----------------|--------|
|-3-3-5-1S3-6-3-6S4-|-3-3-5-1S3-6-3--|-7-3----|
::Verse 1 - played with Riff A
|--------------------|
|--------------------|
|--------------------|
|-5-5-5--3S5--6-5----|
|--------------------|
|-3-3-3--1S3--4-3----|
"One fine day
I'll settle down
When you bloody me
I ran aground
With my broken face
And fisticuff
*** the rest and
All their stuff"
::Filler - played with Intro riff::
|-------------------|----------------|--------|
|-------------------|----------------|--------|
|-------------------|----------------|--------|
|-5-5-5-3S5-8-5-8S6-|-5-5-5-3S5-8-5--|-9-3----|
|-------------------|----------------|--------|
|-3-3-5-1S3-6-3-6S4-|-3-3-5-1S3-6-3--|-7-3----|
"I - Don't - Anymore
I - Don't - Anymore "
::Chorus - these are the chords and Slash plays some stuff in the background::
|----------------|
|----------------|
|----------------|
|-4----3---------|
|-2----1----6----|
|-----------4----|
"Just look and you'll
See me
Lying there
Lying there
Just look and you'll
See me
Lying there
Lying"
::Intro riff again after above chorus::

|-------------------|----------------|--------|
|-------------------|----------------|--------|
|-------------------|----------------|--------|
|-5-5-5-3S5-8-5-8S6-|-5-5-5-3S5-8-5--|-9-3----|
|-------------------|----------------|--------|
|-3-3-5-1S3-6-3-6S4-|-3-3-5-1S3-6-3--|-7-3----|
::Verse 2 - played same as Verse 1::
|--------------------|
|--------------------|
|--------------------|
|-5-5-5--3S5--6-5----|
|--------------------|
|-3-3-3--1S3--4-3----|
"Another way
A battle ground
A ready teller whore
Who makes no sound
Keep the money bitch
Keep the stuff
Fly around the world
And keep it up "
::Filler - played with Intro riff::
|-------------------|----------------|--------|
|-------------------|----------------|--------|
|-------------------|----------------|--------|
|-5-5-5-3S5-8-5-8S6-|-5-5-5-3S5-8-5--|-9-3----|
|-------------------|----------------|--------|
|-3-3-5-1S3-6-3-6S4-|-3-3-5-1S3-6-3--|-7-3----|
"I - Don't - Anymore
I - Don't - Anymore "
::Chorus - the stuff Slash plays at the back of chorus is the same chords at a l
ower octave.::
|----------------|
|----------------|
|----------------|
|-4----3---------|
|-2----1----6----|
|-----------4----|
"Just look and you'll
See me
Lying there
Lying there
Just look and you'll
See me
Lying there
Lying"
::Solo - Play the verses riff over the Solo, during the second part when Slash i
n on

5 play verse chords with added


:: 7x9 and 4x6::
|-17r=17--15--14h15--15r=15--14h15--------------------------------|
|-------------------------------------15r===15--14h=15--15--15----|
|-----------------------------------------------------------------|
|-----------------------------------------------------------------|
|-----------------------------------------------------------------|
|-----------------------------------------------------------------|
~

~~~

|----------------------------------------------|
|----------------------------------------------|
|----------------------------------------------|
|-5r===5--3h=5--3h5-3h5----2b4---2b4-----------|
|-------------------------------------3r==5----|
|----------------------------------------------|
:: Riff B - played after above solo with Bass and Drums in background::
|---------------------------------------------------------------------------------|
|---------------------------------------------------------------------------------|
|-10h12-12--10-12--12p10h12--10-10-10---------------------------------------------|
|--------------------------------------10h12-12-12---10h12--10p9-10p-9------------|
|----------------------------------------------------------------------10--10s8---|
|---------------------------------------------------------------------------------|
::Riff C - followed after Riff B, Slash just plays this with bends while Duff pl
ays
chords::
|---------------|
|---------------|
|---------------|
|-3-5-5--3-5----|
|---------------|
|---------------|
::Chorus - the stuff Slash plays at the back of chorus is the same chords at a l
ower octave.::
|----------------|
|----------------|
|----------------|
|-4----3---------|
|-2----1----6----|
|-----------4----|
"Just look and you'll
See me
Lying there

Lying there
Just look and you'll
See me
Lying there
Lying"
::Riff D - played with above chorus part in background by Slash::
|----------------------------------------|
|-7b8=====9b10.5====13-12-19----15b17----|
|----------------------------------------|
|----------------------------------------|
|----------------------------------------|
|----------------------------------------|
::Outro - just the intro chords with Scott screaming and Slash plays some feedba
ck notes
i wont bother to tab::
|-------------------|----------------|--------|
|-------------------|----------------|--------|
|-------------------|----------------|--------|
|-5-5-5-3S5-8-5-8S6-|-5-5-5-3S5-8-5--|-9-3----|
|-------------------|----------------|--------|
|-3-3-5-1S3-6-3-6S4-|-3-3-5-1S3-6-3--|-7-3----|
::Done!::
Duration Legend
--------------W - whole; H - half; Q - quarter; E - 8th; S - 16th; T - 32nd; X - 64th; a - acc
iaccatura
+ - note tied to previous; . - note dotted; .. - note double dotted
Uncapitalized letters represent notes that are staccato (1/2 duration)
Irregular groupings are notated above the duration line
Duration letters will always appear directly above the note/fret number it repre
sents the
duration for. Duration letters with no fret number below them represent rests.
Multibar rests are notated in the form Wxn, where n is the number of bars to rest for
. Low
melody durations appear below the staff
Song: Spectacle
Band: Velvet Revolver
Album: Contraband
Tabbed by: Kabir
ktaneja@latrobe.students.latrobe.edu.au
*********** \m/ ***********
Gtr I (Eb Ab Db Gb Bb Eb) - 'Slash'
Gtr II(" " " " " " ) - 'Dave Kusher"
4/4
Gtr I
::Intro - count how many times the riff plays urself::

|---------------------------------------------|
|---------------------------------------------|
|---------------------------------------------|
|---------------------------------------------|
|---------4-1-1-4-1-1-4-1--4-1-1-4-1-1-4-1----|
|--/5b6---------------------------------------|
::Verse 1 played with riff below::
|--------------------------------------------|
|--------------------------------------------|
|--------------------------------------------|
|--------------------------------------------|
|-4-1-1-4-1-1-4-1--4-1-1-4-1-1-4-1--6---4----|
|-----------------------------------4---2----|
"Take two to
Hold me back
Kick me down
You picked a

break and three to go


you spectacle (Mother ***er yeah)
with broken bones
fight now stand your ground"

::Chorus - played with below chords::


~
|-----------------------|
|-----------------------|
|-8----------------6----|
|-8-----8-----4----6----|
|-6-----8-----4----4----|
|-6-----6-----2----4----|
"You talk about it
Don't know what you want
In the back of someone else's car"
::Verse 2 - again same as verse 1::
|--------------------------------------------|
|--------------------------------------------|
|--------------------------------------------|
|--------------------------------------------|
|-4-1-1-4-1-1-4-1--4-1-1-4-1-1-4-1--6---4----|
|-----------------------------------4---2----|
"You write the list
Well write me off
Rocket bitch is blasting off (Right on target yeah)
Boots laced up I'm here to go
In the end I'll stand alone"
::Chorus::
|-----------------------|
|-----------------------|
|-8----------------6----|
|-8-----8-----4----6----|
|-6-----8-----4----4----|
|-6-----6-----2----4----|

"You talk about it


Don't know what you want
In the back of someone else's car
You lied about it
Bled another heart
Then began to fall apart"
::Bridge - chords change at the ending of the bridge, listen to song.::
|-----------------------------------|
|-----------------------------------|
|-----------------------------------|
|-4-----3--------4----3----6---4----|
|-4-----3--------4----3----6---4----|
|-2-----1--------2----1----4---2----|
"It rains and you fall back down again
It begins to rain and I'll knock you right back down again"
|---------------------|
|---------------------|
|---------------------|
|-4---11---13---15----|
|-4---11---13---15----|
|-2----9---11---13----|
"You incessant bitch you lied in wait for the last time now
I'm standing now
I'm standing now"
:Solo - chords for the solo you can work out yourself, they are very simple"
|------------------------------------------------------------------------16----1
8-16-------------|
|-14-------14-------14-------------14b15---------------------------16b18----16------------------|
|----15-15----15-15----15-15-13-15--------------------------------------------------15-16-18-15-|
|-----------------------------------------6S8-8-6S8-8-6S8-8-6S8-8-------------------------------|
|-----------------------------------------------------------------------------------------------|
|-----------------------------------------4S6-6-4S6-6-4S6-6-4S6-6-------------------------------|

|------------------------------------------------------------------------|
|-20b21.5--17-18-17----17----17----17---------18b19.5--16-20-18-16-18-16-|
|-------------------19----19----19-------14------------------------------|
|-------------------------------------19---------------------------------|
|------------------------------------------------------------------------|
|------------------------------------------------------------------------|
|------------------------------------|
|----16-----------------16-----------|
|-20----20-20p-18-16-18----20-18-16--|
|------------------------------------|
|------------------------------------|

|------------------------------------|

|-------------------12------------------------------------18----18-16----------|
|-14b15.5--14-12-14----15-12-15-12----12---16b17.5--16b17----16-------18-16----|
|----------------------------------14------------------------------------------|
|------------------------------------------------------------------------------|
|------------------------------------------------------------------------------|
|------------------------------------------------------------------------------|

~~~~~~~
|-21-20-18-18-18-16-15----15----15-------15----------------------15------------------------------|
|----------------------18----18----18-15----18-15-16----15-16-18----18-15-16---16-----21b22.5----|
|----------------------------------------------------17----------------------17---17-------------|
|------------------------------------------------------------------------------------------------|
|------------------------------------------------------------------------------------------------|
|------------------------------------------------------------------------------------------------|
::Just this before moves forward after solo::
|-----------------|--------------------|
|-----------------|--------------------|
|-----------------|--------------------|
|-----------------|--------------------|
|-4-1-1-4-1-1-4-1-|-4-1-1-4-1-1-4-1----|
|-----------------|--------------------|
::Verse 1 repeat::
|--------------------------------------------|
|--------------------------------------------|
|--------------------------------------------|
|--------------------------------------------|
|-4-1-1-4-1-1-4-1--4-1-1-4-1-1-4-1--6---4----|
|-----------------------------------4---2----|
"Take two to
Hold me back
Kick me down
You picked a

break and three to go


you spectacle (Mother ***er yeah)
with broken bones
fight now stand your ground"

::Chorus::
|-----------------------|
|-----------------------|
|-8----------------6----|
|-8-----8-----4----6----|
|-6-----8-----4----4----|

|-6-----6-----2----4----|
"You talk about it
Don't know what you want
In the back of someone else's car
You lied about it
Bled another heart
Then began to fall apart"
::Chorus - This time with an added riff in the back ground, play Riff X over cho
rds::
|-----------------------|
|-----------------------|
|-8----------------6----|
|-8-----8-----4----6----|
|-6-----8-----4----4----|
|-6-----6-----2----4----|
>>Riff X<<
|-----------------|----------------|
|-----------------|----------------|
|-----------------|----------------|
|-0-3-2-3-3-4-3-0-|-3-2-3-3-4-3----| X i dunno how many times, count.
|-----------------|----------------|
|-----------------|----------------|
"You talk about it
Don't know what you want
In the back of someone else's car
You lied about it
Bled another heart
Then began to fall apart"
::Outro::
|-----------------|--------------------|
|-----------------|--------------------|
|-----------------|--------------------|
|-----------------|--------------------|
|-4-1-1-4-1-1-4-1-|-4-1-1-4-1-1-4-1----|
|-----------------|--------------------|
>>End with Bb<<
::Finis::
Band - Velvet Revolver
Song - Fall To Pieces
Key:
b - bend
r - -release
h - hammer
P - pull-off
~ - vibrate

Intro:
eb|-3-2----------2-3|2----------------|---0------------|
Bb|-3---3--------3--|--3--------------|-1---1----------|
Gb|-2-----2-0----2--|----2-0----------|-------0-2-0--0-|
Db|-0---------4--0--|--------4h5-0h5--|----------------|
Ab|-----------------|-----------------|----------------|
Eb|-----------------|-----------------|----------------|
eb|-------3--2-|
Bb|-------3--3-|
Gb|-0-----0--0-|
Db|-0----------|
Ab|------------|
Eb|------------|
Verse:
eb|-3-2----------2-3|2----------------|---0------------|
Bb|-3---3--------3--|--3--------------|-1---1----------|
Gb|-2-----2-0----2--|----2-0----------|-------0-2-0--0-|
Db|-0---------4--0--|--------4h5-0h5--|----------------|
Ab|-----------------|-----------------|----------------|
Eb|-----------------|-----------------|----------------|
eb|-------3--2-|
Bb|-------3--3-|
Gb|-0-----0--0-|
Db|-0----------|
Ab|------------|
Eb|------------|
Chorus:
eb|-----------------|-----------------|
Bb|-----------------|-----------------|
Gb|--------------7--|-----------------|
Db|-7---7----5---7--|-7---7----5---7--|
Ab|-7---7----5---5--|-7---7----5---7--|
Eb|-5---5----3------|-5---5----3---5--|
Interlude:
(Guitar 1)
eb|-/15-14-------------/15---14-----------------|
Bb|--------15-------------------15--------------|
Gb|-----------14-12-11-------------14-12-11-----|
Db|-----------------------------------------12--|
Ab|---------------------------------------------|
Eb|---------------------------------------------|
eb|-/13-12-------------------------------|
Bb|--------13----------------------------|
Gb|-----------12-------12----------------|
Db|--------------15\14---------9-10-12---|
Ab|-------------------------10-----------|
Eb|--------------------------------------|
eb|-/15-14-------------/15---14-----------------|
Bb|--------15-------------------15--------------|
Gb|-----------14-12-11-------------14-12-11-----|
Db|-----------------------------------------12--|
Ab|---------------------------------------------|
Eb|---------------------------------------------|

(Guitar 2)
eb|-----------------|-----------------|
Bb|-----------------|-----------------|
Gb|-7---7----5------|-7---7----5------|
Db|-7---7----5---5--|-7---7----5---5--|
Ab|-5---5----3---5--|-5---5----3---5--|
Eb|--------------3--|--------------3--|
Verse:
eb|-3-2----------2-3|2----------------|---0------------|
Bb|-3---3--------3--|--3--------------|-1---1----------|
Gb|-2-----2-0----2--|----2-0----------|-------0-2-0--0-|
Db|-0---------4--0--|--------4h5-0h5--|----------------|
Ab|-----------------|-----------------|----------------|
Eb|-----------------|-----------------|----------------|
eb|-------3--2-|
Bb|-------3--3-|
Gb|-0-----0--0-|
Db|-0----------|
Ab|------------|
Eb|------------|
Chorus:
eb|-----------------|-----------------|
Bb|-----------------|-----------------|
Gb|--------------7--|-----------------|
Db|-7---7----5---7--|-7---7----5---7--|
Ab|-7---7----5---5--|-7---7----5---7--|
Eb|-5---5----3------|-5---5----3---5--|
eb|-----------------|-----------------|
Bb|-----------------|-----------------|
Gb|-7---7----5------|-7---7----5------|
Db|-7---7----5---5--|-7---7----5---5--| x2
Ab|-5---5----3---5--|-5---5----3---5--|
Eb|--------------3--|--------------3--|
Bridge: (clean)
eb|---------0-------------0---------|---------0-------------0---------|
Bb|-0---3-----3---0---3-------3-2-3-|-0---3-----3---0---3-------3-2-3-|
Gb|---4---4---------4---4---4-------|---2---2---------2---2---2-------|
Db|---------------------------------|---------------------------------| x2
Ab|---------------------------------|---------------------------------|
Eb|---------------------------------|---------------------------------|
eb|---------0-------------0---------|---------------------------------|
Bb|-0---3-----3---0---3-------3-2-3-|-----2---3-2---------2---3-2---2-|
Gb|---4---4---------4---4---4-------|---2---2-----2-----2---2-----2---|
Db|---------------------------------|-2-------------2-----------------|
Ab|---------------------------------|---------------------------------|
Eb|---------------------------------|---------------------------------|
eb|----0-------0-------------|----0-------0-------------|
Bb|-1----0--1----0---1-0-----|-1----0--1----0---1-0-----|
Gb|----------------------2-0-|----------------------2-0-|
Db|--------------------------|--------------------------|
Ab|--------------------------|--------------------------|

Eb|--------------------------|--------------------------|
Solo:
eb|------------------------------------------------------------------------|
Bb|-17b19------r17b19---17b19--17b19--17b19r17b19--15-17----15----17b19\---|
Gb|-----^hold--------------------------------------------16----------------|
Db|------------------------------------------------------------------------|
Ab|------------------------------------------------------------------------|
Eb|------------------------------------------------------------------------|
-eb|-15b17----15-14-15------------------------------------------------------|
Bb|--------------------17b19--17b19--15---13h15p13-12-13----12h13p12-10-12-|
Gb|------------------------------------------------------------------------|
Db|------------------------------------------------------------------------|
Ab|------------------------------------------------------------------------|
Eb|------------------------------------------------------------------------|
eb|-----------------10-10-----10---------------------------------------------|
Bb|-10h12-10b12--10----12--12----10b12r10---------15----17b19-17-15-17----15-|
Gb|-----------------------------------------14-16----16----------------16----|
Db|--------------------------------------------------------------------------|
Ab|--------------------------------------------------------------------------|
Eb|--------------------------------------------------------------------------|
eb|---------------------------------------------------------------------|
Bb|----15-----20b22r20b22--20-19-20-19b20-19-------------15----17b19r17-|
Gb|-16----16---------------------------------19--19---16----16----------|
Db|--------------------------------------------19-----------------------|
Ab|---------------------------------------------------------------------|
Eb|---------------------------------------------------------------------|
eb|---------------------------------/15~~15~~-/17~~-17~~|
Bb|-15b17-17~-15b17-17~-15b17-17-15---------------------|
Gb|-----------------------------------------------------|
Db|-----------------------------------------------------|
Ab|-----------------------------------------------------|
Eb|-----------------------------------------------------|
eb|-\15-14-15-14b15-----r14--------14\12--10-12----10--|
Bb|----------------^hold------------------------12-----|
Gb|----------------------------------------------------|
Db|----------------------------------------------------|
Ab|----------------------------------------------------|
Eb|----------------------------------------------------|
Chorus:
(Guitar 1)
eb|-/15-14-------------/15---14-----------------|
Bb|--------15-------------------15--------------|
Gb|-----------14-12-11-------------14-12-11-----|
Db|-----------------------------------------12--|
Ab|---------------------------------------------|
Eb|---------------------------------------------|
eb|-/13-12-------------------------------|
Bb|--------13----------------------------|
Gb|-----------12-------12----------------|
Db|--------------15\14---------9-10-12---|
Ab|-------------------------10-----------|
Eb|--------------------------------------|

eb|-/15-14-------------/15---14-----------------|
Bb|--------15-------------------15--------------|
Gb|-----------14-12-11-------------14-12-11-----|
Db|-----------------------------------------12--|
Ab|---------------------------------------------|
Eb|---------------------------------------------|
(Guitar 2)
eb|-----------------|-----------------|
Bb|-----------------|-----------------|
Gb|-7---7----5------|-7---7----5------|
Db|-7---7----5---5--|-7---7----5---5--|
Ab|-5---5----3---5--|-5---5----3---5--|
Eb|--------------3--|--------------3--|
End.

Band - Velvet Revolver


Song - Headspace
Intro:
|-------------------------------|
|-------------------------------|
|-------------------------------|
|-5-5-5-5-5-5--4S5-5-5-5-5-5----|
|-3-3-3-3-3-3--2S3-3-3-3-3-3----|
|-------------------------------|
|----------------------------|
|----------------------------|
|----------------------------|
|----------------------------|
|-3-5-3-0---3---3---3---2----|
|---------0-3-0-3-0-3-0-2----|
Verse:
|----------------------|-------------------|
|----------------------|-------------------|
|----------------------|-------------------|
|----------------------|-------------------|
|-5-7-7-5-7-5-7--x-x-x-|--5-7-7-5-7-5-7----|
|-5-7-7-5-7-5-7--x-x-x-|--5-7-7-5-7-5-7----|
Chorus:
|----------------------------|
|----------------------------|
|----------------------------|
|----------------------------|
|-3-5-3-0---3---3---3---2----|
|---------0-3-0-3-0-3-0-2----|
Verse:
|----------------------|-------------------|
|----------------------|-------------------|
|----------------------|-------------------|
|----------------------|-------------------|
|-5-7-7-5-7-5-7--x-x-x-|--5-7-7-5-7-5-7----|

|-5-7-7-5-7-5-7--x-x-x-|--5-7-7-5-7-5-7----|
Chorus:
|----------------------------|
|----------------------------|
|----------------------------|
|----------------------------|
|-3-5-3-0---3---3---3---2----|
|---------0-3-0-3-0-3-0-2----|
Bridge:
|------------------|
|------------------|
|-7---5------------|
|-7---5------------|
|-5---3---10--8----|
|---------10--8----|
Solo:
|------------------------------------------------------------------------------------|
|-----------------------------15b17----13-15b16--13-14-13----12-13-12----12----------|
|-----------------------------------14--------------------16----------14----12-1
4-12--|
|-5r=5--5r=5-3p-5p-3---3-------------------------------------------------------------|
|--------------------5---------------------------------------------------------------|
|------------------------------------------------------------------------------------|
|-------------------------|
|-------------------------|
|----12----------13-10----|
|-15----15-12-15----------|
|-------------------------|
|-------------------------|
|------------------------------------------12-9----9------10-13-------10-13-10-1
3--------|
|----------------------------------9-10-12------12---9-12-------13-10------------13-10--|
|---------------------------8-9-11------------------------------------------------------|
|-------------8-9-11-8-9-11-------------------------------------------------------------|
|--------9-11---------------------------------------------------------------------------|
|-5b7-----------------------------------------------------------------------------------|
|-15-12----10-13-10-------------------------------------|
|-------13----------10-11--------------------10b10.5----|
|-------------------------12-14----------10-------------|
|-------------------------------12-10-12----------------|
|-------------------------------------------------------|
|-------------------------------------------------------|
Verse:

|----------------------|-------------------|
|----------------------|-------------------|
|----------------------|-------------------|
|----------------------|-------------------|
|-5-7-7-5-7-5-7--x-x-x-|--5-7-7-5-7-5-7----|
|-5-7-7-5-7-5-7--x-x-x-|--5-7-7-5-7-5-7----|
Chorus:
|----------------------------|
|----------------------------|
|----------------------------|
|----------------------------|
|-3-5-3-0---3---3---3---2----|
|---------0-3-0-3-0-3-0-2----|
Bridge:
|------------------|
|------------------|
|-7---5------------|
|-7---5------------|
|-5---3---10--8----|
|---------10--8----|
Outro:
|----------------------------|
|----------------------------|
|----------------------------|
|----------------------------|
|-3-5-3-0---3---3---3---2----|
|---------0-3-0-3-0-3-0-2----|
|-------------------------------|
|-------------------------------|
|-------------------------------|
|-5-5-5-5-5-5--4S5-5-5-5-5-5----|
|-3-3-3-3-3-3--2S3-3-3-3-3-3----|
|-------------------------------|
Ending:
|----------------------------|
|----------------------------|
|----------------------------|
|----------------------------|
|-3-5-3-0---3---3---3---2----|
|---------0-3-0-3-0-3-0-2----|
-_________________________________________________________________
Artist: Velvet Revolver
Song: Set Me Free
Tabber: Axl Wendt
Email: Alex_dritdeilig@hotmail.com
You must rate if you been tried
Tuning Eb Ab Db Gb Bb eb
Intro: Guitar 1
eb|---------------11-\10---x--8-----8--8----9------------------|
Bb|----------------x-\-x---x--x-----x--x----x----8-----9---10--|
Gb|--x--x-x-x--x---8-\-7---x--5-----5--5----6----x-----x----x--|
Db|--x--x-x-x--x---------------------------------5-----6----7--|

Ab|--x--x-x-x--x-----------------------------------------------|
Eb|------------------------------------------------------------|
|
eb|-11-\10--x--8--------------------------------------|
Bb|--x---x--x--x--------------------------------------|
Gb|--8-\-7--x--5--------------------------------------|
Db|---------------------------------------------------|
Ab|---------------------------------------------------|
Eb|---------------------------------------------------|
Guitar 2
eb|------------------------------------------5---5-5-5-5-5~-|
Bb|------------------------------------------5---5-5-5-5-5~-|
Gb|---------------------------2~----------------------------|
Db|---------------------------2~----------------------------|
Ab|---------------------------0~----------------------------|
Eb|------------------17-\-----------------------------------|
|
eb|--------------------------5--5-5-5-5-5----------------|
Bb|--------------------------5--5-5-5-5-5----------------|
Gb|---2~-------------------------------------------------|
Db|---2~-------------------------------------------------|
Ab|---0~-----------------------------------------------0-|
Eb|---------------------------------------------14-\-----|
Fill: Guitar 1
eb|-------------------11--\--10----------------|
Bb|--9-\-8---10--------x--\---x----------------|
Gb|--x---x----x--------8--\---7----------------|
Db|--6-\-5----7--------------------------------|
Ab|---------------------------------------0----|
Eb|--------------------------------------------|
Guitars 1 and 2
eb|----------------------------------------------------------------|
Bb|----------------------------------------------------------------|
Gb|----------------------------------------------------------------|
Db|----------------------------------------------------------------|
Ab|--(0)---0----3---3---4---4--------------------------5^----3---0-|
Eb|-----------------------------3---3---4---4---5---5--------------|
Verse: Guitar 1
eb|---------------------------------------------------|
Bb|---------------------------------------------------|
Gb|---------------------------------------------------|
Db|---------------------------------------------------|
Ab|--(0)----------------------------------------------|
Eb|---------------------------------------------------|
Guitar 2
eb|---------------------------------------------------|
Bb|---------------------------------------------------|
Gb|---------------------------------------------------|
Db|--------9--------9--------9---------9--------------|
Ab|--(0)----------------------------------7-----------|
Eb|---------------------------------------------------|
| pm
...........................................
|
eb|---------------------------------------------------|
Bb|---------------------------------------------------|
Gb|---x------x--x--x-----x------x---------------------|

Db|---x------x--x--x-----x------x---------------------|
Ab|---x------x--x--x-----x------x-----0---------------|
Eb|---------------------------------------------------|
Chorus: Gtrs 1 & 2
eb|-------------------------6-------------------------8----|
Bb|--(7)--------------------6-------------------------8----|
Gb|--(7)--------------------7-------------------------9----|
Db|--(7)---0--0--0--0--0----8-------0---0--0--0--0---10----|
Ab|--(5)--------------------8------------------------10----|
Eb|-------------------------6-------------------------8----|
eb|------------------------------------------------------------|
Bb|---------------------12-------------------7-----------------|
Gb|---------------------12-------------------7-----------------|
Db|--0--0--0--0--0--0---12---0--0--0--0--0---7---0--0--0--0--0-|
Ab|---------------------10-------------------5-----------------|
Eb|------------------------------------------------------------|
eb|--6----------------------------------------------------------|
Bb|--6----------------------------------------------------------|
Gb|--7-------------------10----10-10-10-10-10-10-10-10-10-10-10-|
Db|--8----0--0--0--0--0--10----10-10-10-10-10-10-10-10-10-10-10-|
Ab|--8--------------------8-----8--8--8--8--8--8--8--8--8--8--8-|
Eb|--6----------------------------------------------------------|
eb|---------------------------------------------------|
Bb|---------------------------------------------------|
Gb|--9---9---9----------------------------------------|
Db|--9---9---9----------------------------------------|
Ab|--7---7---7----0-----------------------------------|
Eb|---------------------------------------------------|
Fill 2: Guitar 1
eb|---------------11--\--10-----------------|
Bb|--9-----10------x------x-------7---------|
Gb|--x------x------8---\--7-------7---------|
Db|--6------7---------------------7---------|
Ab|-------------------------------5---------|
Eb|-----------------------------------------|
Fill 3: Guitar 2
eb|-----------------------------------------|
Bb|----------------------------------7------|
Gb|----------------------------------7------|
Db|----------------------------------7------|
Ab|-----------------5^-------3-------5------|
Eb|--4---4---5----5-------------------------|
Fill 4: Gtrs 1 & 2
eb|----------------------------1-----------------------|
Bb|----------------------------1-----------------------|
Gb|-10--10--10--10--10---------2-----------------------|
Db|-10--10--10--10--10---------3-----------------------|
Ab|--8---8---8---8---8---------3-----------------------|
Eb|----------------------------1-----------------------|
Bridge: Gtrs 1 & 2
eb|-(1)-------0--------3-----------3--------0-------1------0--|
Bb|-(1)-------0--------3-----------3--------0-------1------0--|

Gb|-(2)-------1--------4-----------4--------1-------2------1--|
Db|-(3)-------2--------5-----------5--------2-------3------2--|
Ab|-(3)-------2--------5-----------5--------2-------3------2--|
Eb|-(1)-------0--------3-----------3--------0-------1------0--|
Bridge: continued (Guitar 1)
eb|-----------------------------------------------1----|
Bb|-----------------------------------------------1----|
Gb|--2-----2-2--2---2--2--2--2--2---2--2--2--2----2----|
Db|--2-----2-2--2---2--2--2--2--2---2--2--2--2----3----|
Ab|--0-----0-0--0---0--0--0--0--0---0--0--0--0----3----|
Eb|-----------------------------------------------1----|
Guitar 2
eb|---------5------------------------------------------|
Bb|--8^--------8p5-------------------------------------|
Gb|-----------------7^-h5-7-5--------------------------|
Db|---------------------------7-5----------------------|
Ab|-------------------------------7-6p5-7-6-5-3--------|
Eb|---------------------------------------------5\-----|
Bridge: Guitar 1 continued
eb|--1--1--1--1--1--1--0-----0--0--0--0--0------------------------|
Bb|--1--1--1--1--1--1--0-----1--0--0--0--0------------------------|
Gb|--2--2--2--2--2--2--1-----2--1--1--1--1---12---12-12-12-12-----|
Db|--3--3--3--3--3--3--2-----2--2--2--2--2---12---12-12-12-12--12-|
Ab|--3--3--3--3--3--3--2-----2--2--2--2--2---10---10-10-10-10---9-|
Eb|--1--1--1--1--1--1--0-----0--0--0--0--0------------------------|
Guitar 2: continued
eb|----------------------------11-\10--x---8--------------|
Bb|-----------------------------x---x--x---x--------------|
Gb|--2^-----------x----x-x------8-\-7--x---5--------------|
Db|---------------x----x-x--------------------------------|
Ab|---------------x----x-x--------------------------------|
Eb|-------------------------------------------------------|
Bridge: Guitar 1 continued
eb|--1----1--1--1--1--1--0-----0--0--0--0-------------------------------|
Bb|--1----1--1--1--1--1--0-----0--0--0--0-------------------------------|
Gb|--2----2--2--2--2--2--1-----1--1--1--1-------------------------------|
Db|--3----3--3--3--3--3--2-----2--2--2--2-----------------------------7-|
Ab|--3----3--3--3--3--3--2-----2--2--2--2--0---0-0-0-0-0-0-0-0--------7-|
Eb|--1----1--1--1--1--1--0-----0--0--0--0----------------------3-3-3--5-|
Interlude: Guitar 2
eb|----------------(5)--------------------------------------------------------||
Bb|----------------(5)--------------------------------------------------------||
Gb|---------------------------------------------------------------------------||
o
Db|---(7)\--------------------------------------------------------------------||
o
Ab|---(7)\---------------0-0-0-0-0-0-0-0-0-0-0-3-3--0--0-0-0-0-0-0-0-0-5^-3-0-||
Eb|---(5)\--------------------------------------------------------------------||
Guitar 1
eb|--8-8---8-8--------------------------8-----8-8---8-8---8-8-8-8-------------|
Bb|--x-x---x-x---8-/10---10----10-10----x-----x-x---x-x---x-x-x-x-------------|
Gb|--5-5---5-5---x---x----x-----x--x----5-----5-5---5-5---5-5-5-5-7^----7^----|
Db|--------------5-/-7----7-----7--7------------------------------------------|
Ab|---------------------------------------------------------------------------|

Eb|---------------------------------------------------------------------------|
Guitar 2: continued
eb|---------------------------------------------------------------------------|
Bb|---------------------------------------8--------7-------6-----5------------|
Gb|--5--7-----5--7---7^----5--7-----5----10^-------9^------8^----7^-----20----|
Db|--------7---------------------7--------------------------------------------|
Ab|---------------------------------------------------------------------------|
Eb|---------------------------------------------------------------------------|
Guitar 2: continued
eb|----------------------------------------------------------------------|
Bb|--17----17---------------17------17-----------------------------------|
Gb|-----20----17--------20------20-----17------------17---19^-----19-17--|
Db|--------------19--17-------------------19-17-19-----------------------|
Ab|----------------------------------------------------------------------|
Eb|----------------------------------------------------------------------|
Guitar 2: continued
eb|------------------------------------------------17-------------18^---20^-|
Bb|---------------------------20--20--20--------17---17---------------------|
Gb|-----19-17----19^-(19)----------------19^------------20---20^------------|
Db|--19-------19------------------------------------------------------------|
Ab|-------------------------------------------------------------------------|
Eb|-------------------------------------------------------------------------|
Guitar 2: continued
eb|----------22^--------------------|
Bb|---------------------------7-----|
Gb|---------------------------7-----|
Db|---------------------------7-----|
Ab|-0--0--0------0--0--0--0---5-----|
Eb|---------------------------------|
Coda:
eb|---10---------10----------10-------10---------10---------15--------10--|
Bb|---13^--------13^---------13^------13^--------13^--------18^-------13^-|
Gb|-----------------------------------------------------------------------|
Db|-----------------------------------------------------------------------|
Ab|-----------------------------------------------------------------------|
Eb|-----------------------------------------------------------------------|
eb|--10--------------------10------10------------------------------------------|
Bb|--13^--^--^--^--^--^----13^-----13^--^-^-^-^-^-^--10----11----13----12---10-|
Gb|--------------------------------------------------12^---13^---15^---14^--12^|
Db|----------------------------------------------------------------------------|
Ab|----------------------------------------------------------------------------|
Eb|----------------------------------------------------------------------------|
Fill 3: Guitar 1
eb|----------13---------13---------13-----------------10------|
Bb|-------------13----------13-------13------------7/-13^-----|
Gb|--12^-----------12^--------12^-------12^---10---7/---------|
Db|------------------------------------------------7/---------|

Ab|------------------------------------------------5/---------|
Eb|-----------------------------------------------------------|
Fill 4: Guitar 2
eb|--------------------------------|
Bb|---------------------------7----|
Gb|-10-10-10-10-10-10-10-10---7----|
Db|-10-10-10-10-10-10-10-10---7----|
Ab|--8--8--8--8--8--8--8--8---5----|
Eb|--------------------------------|
Outro: Guitars 1 & 2
eb|-------------------------------------------------------------|
Bb|-------------------------------------------------------------|
Gb|---------------------------------------------3---3---3-------|
Db|--3-------------2-/-3-----------2-/-3--------3---3---3---3---|
Ab|--3-------------2-/-3-----------2-/-3--------1---1---1---3---|
Eb|--1----1---1------------1---1----------1--1--------------1---|
eb|---------------------------------------------------|
Bb|---------------------------------------------------|
Gb|---------------3---3---3---2-----------------------|
Db|-2-/-3---------3---3---3---2-----------------------|
Ab|-2-/-3---------1---1---1---0-----------------------|
Eb|--------1--1---------------------------------------|
_____________________________________________________________________
Band: Velvet Revolver
Song: Superhuman
Album: Contraband
Tabbed by: Kabir
ktaneja@students.latrobe.edu.au
*********** \m/ ************
Gtr I (D A D G B E) - 'Slash'
Gtr 2 (D A D G B E) - 'Dave Kushner'
4/4
Gtr I
::Inro::
|-----------------------------------------------|
|----13----15----15-13----13----15----12--18----|
|-----------------------------------------------|
|-12----12----12-------12----12----12-----------|
|-----------------------------------------------|
|-----------------------------------------------|
::Play this with above riff::
|----------------------------------|
|----------------------------------|
|----------------------------------|
|----------------------------------|

~~

|-0-0--x-0-0--x-0-0--x-0-0-x--3----|
|-0-0--x-0-0--x-0-0--x-0-0-x--3----|
::verse 1 - played with Riff A::
Riff A
|---------------------------------|
|---------------------------------|
|---5---7-x-7-5---5---7-5-7-------|
|-7---7---------7---7-------------|
|----------------------------5----|
|---------------------------------|
"What you get is a crash course to be a man
But a man is a destination never known
Sometimes dressed up like a red hot lady in pumps
Don't think she can get enough"
::Verse 2 - With same riff as Verse 1::
"Always feel like she's runnin on a hamster wheel
Getting high, crashing cars and makin mistakes
Keepin her face packed with cocaine
Her face is numb your faith is gone"
::Pre Chorus::
|-----------------|-----------------|------------------|
|-----------------|-----------------|------------------|
|-----------------|-----------------|------------------|
|-----------------|-----------------|------------------|
|-5-5h7-5h7-3-3h5-|-3h5-5-5h7-5h7-3-|-3h5-3h5-8-7-5----|
|-5-5h7-5h7-3-3h5-|-3-5-5-5h7-5h7-3-|-3h5-3h5-8-7-5----|
"I'm travelin on now
I'm makin plans now"
::Chorus - listen to song for exact timing::
|-----------------|-----------------|------------------------|
|-----------------|-----------------|------------------------|
|-----------------|-----------------|------------------------|
|-----------------|-----------------|------------------------|
|-0-0-x-0-0-x-0-0-|-x-0-0-x-3-2-3-0-|-0-x-0-0-x-0-0-5-3-5----|
|-0-0-x-0-0-x-0-0-|-x-0-0-x-3-2-3-0-|-0-x-0-0-x-0-0-5-3-5----|
"Cocaine
Alcohol
Lady-lay
Withdrawal"
::Verse 3 - played with same as above Riff A::
"Keep it comin in a world that's blown up wild
Keep it comin in a world that's bred her style
We're all runnin from the goose she's high on cocaine
There's a noose swimmin right between her legs to her brain"
::Verse 4 - same as abobe::

"We're all in need of a superhuman woman now


We're all in need of a superhuman woman now
So rodeo, rodeo, rodeo, rodeo
Throw the rope around her neck and get the show on the road"
::Pre Chorus::
|-----------------|-----------------|------------------|
|-----------------|-----------------|------------------|
|-----------------|-----------------|------------------|
|-----------------|-----------------|------------------|
|-5-5h7-5h7-3-3h5-|-3h5-5-5h7-5h7-3-|-3h5-3h5-8-7-5----|
|-5-5h7-5h7-3-3h5-|-3-5-5-5h7-5h7-3-|-3h5-3h5-8-7-5---""I'm travelin on now
I'm makin plans now"
::Chorus::
|-----------------|-----------------|------------------------|
|-----------------|-----------------|------------------------|
|-----------------|-----------------|------------------------|
|-----------------|-----------------|------------------------|
|-0-0-x-0-0-x-0-0-|-x-0-0-x-3-2-3-0-|-0-x-0-0-x-0-0-5-3-5----|
|-0-0-x-0-0-x-0-0-|-x-0-0-x-3-2-3-0-|-0-x-0-0-x-0-0-5-3-5----|
"Cocaine
Alcohol
Lady-lay
Withdrawal"
::Solo/fill - Slash pays this and does some feedback thingys too in the backgrou
nd::
|---------------------------|------------------------|-----------------------|
|-18-18-18-18-18-18-18-18-x-|-18-x-18-18-18-18-18-18-|-18-18-18-x-18-x-18----|
|-22-22-22-22-22-22-22-17-x-|-17-x-17-22-22-22-22-22-|-22-22-17-x-17-x-17----|
|---------------------------|------------------------|-----------------------|
|---------------------------|------------------------|-----------------------|
|---------------------------|------------------------|-----------------------|
::Pre Chorus::
|-----------------|-----------------|------------------|
|-----------------|-----------------|------------------|
|-----------------|-----------------|------------------|
|-----------------|-----------------|------------------|
|-5-5h7-5h7-3-3h5-|-3h5-5-5h7-5h7-3-|-3h5-3h5-8-7-5----|
|-5-5h7-5h7-3-3h5-|-3-5-5-5h7-5h7-3-|-3h5-3h5-8-7-5---""I'm travelin on now
I'm makin plans now"
::Bass part with Scott singing and Duff on Bass::
"What's she thinking
She'll never get enough"
::Slashs Fill when Scott is singing the above lines::

|------------------|
|------------------|
|------------------|
|-0S=3S=2S=1S=0----|
|------------------|
|------------------|
::When Scott is singing thhose lines "Whats shes thinking after above fill Slash
returns to Intro, while Dave then starts the above riff.::
~~~
|-----------------------------------------------|
|----13----15----15-13----13----15----12--18----|
|-----------------------------------------------|
|-12----12----12-------12----12----12-----------|
|-----------------------------------------------|
|-----------------------------------------------|
::Scott screams and back to full Intro with chords::
|-----------------------------------------------|
|----13----15----15-13----13----15----12--18----|
|-----------------------------------------------|
|-12----12----12-------12----12----12-----------|
|-----------------------------------------------|
|-----------------------------------------------|
::Play this with above riff::
|----------------------------------|
|----------------------------------|
|----------------------------------|
|----------------------------------|
|-0-0--x-0-0--x-0-0--x-0-0-x--3----|
|-0-0--x-0-0--x-0-0--x-0-0-x--3----|
::Chorus::
::Chorus::
|-----------------|-----------------|------------------------|
|-----------------|-----------------|------------------------|
|-----------------|-----------------|------------------------|
|-----------------|-----------------|------------------------|
|-0-0-x-0-0-x-0-0-|-x-0-0-x-3-2-3-0-|-0-x-0-0-x-0-0-5-3-5----|
|-0-0-x-0-0-x-0-0-|-x-0-0-x-3-2-3-0-|-0-x-0-0-x-0-0-5-3-5----|
"Cocaine
Alcohol
Lady-lay
Withdrawal"
::finish song with playing intro riff::
|-----------------------------------------------|
|----13----15----15-13----13----15----12--18----|

|-----------------------------------------------|
|-12----12----12-------12----12----12-----------|
|-----------------------------------------------|
|-----------------------------------------------|
Gtr I (E A D G B E) - \'Slash\'
Gtr 2 (E A D G B E) - \'Dave Kushner\'
4/4
Gtr I
::Intro riff - work timing yourself::
|----------------------------------------|
|----------------------------------------|
|-2-2-2---2-2-2---2-2-2-2---2----2-------|
|-0-0-0-2-0-0-0-2-0-0-0-0-2-0-2--2--5----|
|-------0-------0---------0---0--0--3----|
|----------------------------------------|
::Verse 1 - with intro riff:
\"I fell through the ice
She won\'t be coming back again
It never wins to lie
She said you\'ll never have no rights\"
::verse 2 - played with below clean guitar riffs and chords::
>>chords<<
|-------------------|
|-------------------|
|-------------------|
|-3------5-----7----|
|-1------3-----5----|
|-------------------|
>>Riff<<
|---------0----------------0--------0h2----0-------0-------0-------0h2---|
|-----2-----3----------2-----3----------3----3-------3-------3---------3-|
|---3---------2------3---------2---------------2-------2-------2---------|
|-0-----0-------0--0-----0-------0---------------0-------0-------0-------|
|------------------------------------------------------------------------|
|------------------------------------------------------------------------|
|---------0-------|---------0-------|-0h2-------0h2---|-----0h2----|
|-----2-----3-----|-----2-----3-----|-----3---------3-|------------|
|---3---------2---|---3---------2---|-------2---------|-2----------|
|-0-----0-------0-|-0-----0-------0-|---------0-------|---0--------|
|-----------------|-----------------|-----------------|------------|
|-----------------|-----------------|-----------------|------------|
::Verse 3 - played with below riff and chords, listen to song for timing::
>>chords<<
|-----------------|

|-----------------|
|-----------------|
|-3-----5----2----|
|-1-----3----0----|
|-----------------|
>>riff<<
|---------------------------------|----------------------------|
|-----------------------3-------3-|----------------------------|
|-------5-------7-----------------|-------5-------7-------0----|
|---------------------------------|----------------------------|
|---3h5-----3-5-----3-5-----3-5---|---3h5-----3-5-----3-5------|
|-5-------5-------5-------5-------|-5-------5-------5----------|
::Verse 4 - chords given with lyrics::
|---------------------|
|---------------------|
|-------3--------5----|
|---------------------|
|---3-5------3-5------|
|-5--------5----------|
Bb
\"You got no right
C
To keep me waiting here
Bb
You got no right
C
To keep the pain in here
Bb
That holds the crown\"
::CHORUS - Chords with lyrics::
Bb
G
D
\"And if I fall apart on the outside (You really don\'t believe me)
Bb
G
D
And if I take it to the brink
Bb
G
D
And if I fall apart on the outside / (You really don\'t believe me)
Bb
G
D
You would have barely seen me breathe\"
::Bridge - chords with lyrics::
Em
G
D
\"And if I meet you out tonight
Em
G
D
Will you be loving me forever
Em
G
D
It\'s always over after the night
Em
It\'s always colder after the night\"
::Solo - best solo on the album, chords are easy and same used in the song, work
them out
yourself::

|-------------------------------------------------------------4-5-7---|
|-------------------------------------------------3-4-6-4-5-7---------|
|-------------------------------------------3-4-6---------------------|
|-------------------------------4-5-7-6-7-9---------------------------|
|-------2-3-5-2-3-5-4-5-7-4-5-7---------------------------------------|
|-2-3-5---------------------------------------------------------------|

~~
|-7-8-10-7-8-10-9-10--(9)---12b14-13-----14b16---------------14-14pb16==14--12-1
4-------------|
|------------------------------------15---------18-17----------------------------15-12-15----|
|------------------------------------------------------15b17---------------------------------|
|--------------------------------------------------------------------------------------------|
|--------------------------------------------------------------------------------------------|
|--------------------------------------------------------------------------------------------|
~~
~~
|--------------------------------------------------------------------------------------|
|----------------------------------------------------13----12-13-15-15b17-13-1213-15---|
|-14r==14----12b14--12b14--12r=12---10-12-14---12-14----14-----------------------------|
|--------------------------------------------------------------------------------------|
|--------------------------------------------------------------------------------------|
|--------------------------------------------------------------------------------------|

|-18-17-15--19b21-18-16-----------------------------21b22.5--21b22.5--19-21-|
|-----------------------19-20-22--22b24-(22)-22b24--------------------------|
|---------------------------------------------------------------------------|
|---------------------------------------------------------------------------|
|---------------------------------------------------------------------------|
|---------------------------------------------------------------------------|
|---------19-------------------------------------------|
|-21b22.5----20--21b22-21b22-21b22-21b22--19pb20r==19--|
|------------------------------------------------------|
|------------------------------------------------------|
|------------------------------------------------------|
|------------------------------------------------------|

::Verse 5 - played with intro riff::


\"I broke through the ice
She won\'t be coming back again
It\'s been a year and a night\"
::CHORUS - Chords with lyrics, Scott just keeps singing the chorus in diff. octa
ves till ending::
Bb
G
D
\"And if I fall apart on the outside (You really don\'t believe me)
Bb
G
D
And if I take it to the brink
Bb
G
D
And if I fall apart on the outside / (You really don\'t believe me)
Bb
G
D
You would have barely seen me breathe\"
::Outro - small riff type thing from Slash::
|----------------------------------|
|----------------------------------|
|----------------------------------|
|-4S5S4S5S4--0---------------------|
|----------------------------------|
|---------------5--7s8--7s5s=10----|
SLITHER
As recorded by Velvet Revolver
(From the 2004 Album CONTRABAND)
Words and Music by Slash, Scott Weiland, Duff McKagan, Dave Kushner, Matt Sorum
Transcribed by apocalymon75@hotmail.com
TUNING:DADGBe
Intro
Q=145
N.C.(D)
4/4
Wx8
|--------|
|--------|
|--------|
|--------|
|--------|
|--------|
N.C.(D)
H
Q.
E
+W
H
Q.
E +H.
Q
|-----------------|--------------------|----------------|-------------------|
|-----------------|--------------------|----------------|-------------------|
|-7-----10-----12-|-(12)---------------|-7-----10-----7-|-(7)-----------5---|
|-x------x------x-|--------------------|-x------x-----x-|---------------x---|

|-5------8-----10-|-(10)---------------|-5------8-----5-|-(5)-----------3---|
|-----------------|--------------------|----------------|-------------------|
|
|
|
PM
PM-------------|
PM
PM-------------|
| H.
E E
E E E E E E E E H.
E E
E E E E E E E E
|-----------------|--------------------|----------------|-------------------|
|-----------------|--------------------|----------------|-------------------|
|-7---------------|--------------------|-5--------------|-------------------|
|-7---------------|--------------------|-5--------------|-------------------|
|------------0--0-|---0--0-0-0-0-0-0-0-|------------0-0-|--0--0-0-0-0-0-0-0-|
|------------0--0-|---0--0-0-0-0-0-0-0-|------------0-0-|--0--0-0-0-0-0-0-0-|
N.C.(D)
H
Q.
E
+W
|-----------------|--------------------|
|-----------------|--------------------|
|-7-----10-----12-|-(12)---------------|
|-x------x------x-|--------------------|
|-5------8-----10-|-(10)---------------|
|-----------------|--------------------|
|
|
PM
PM-------------|
| H.
E E
E E E E E E E E
|-----------------|--------------------|
|-----------------|--------------------|
|-4---------------|--------------------|
|-5---------------|--------------------|
|------------0--0-|---0--0-0-0-0-0-0-0-|
|------------0--0-|---0--0-0-0-0-0-0-0-|
H
Q.
E +q
E. E. E Q
|----------------|----------------------||
|----------------|----------------------||
|-7----10------7-|-(7)------------------||
|-x-----x------x-|----------------------||
|-5-----8------5-|-(5)---x--(x)-(x)-----||
|----------------|-------x--(x)-(x)-----||
|
| H
+E E E E +E H
Q.
|----------------|----------------------||
|----------------|----------------------||
|-2----(2)-------|----------------------||
|-0----(0)-------|----------------------||
|----------0-0-0-|-(0)----------/7\-----||
|----------0-0-0-|-(0)----------/7\-----||
Main Riff
$
N.C.(D)
E E E E E E E E E E E E E E E E 3x
||-------------------|------------------||
||o------------------|-----------------o||
||-------------------|------------------||
||-------------------|------------------||
||o-0-3-4-0-6-7-0-10-|-0-6-7-0-5-0-3-4-o||
||--0-3-4-0-6-7-0-10-|-0-6-7-0-5-0-3-4--||

|
|
| W
W
3x
||-------------------|------------------||
||o------------------|-----------------o||
||-------------------|------------------||
||-------------------|------------------||
||o------------------|-----------------o||
||-------------------|------------------||
E E E E E E E E
E E E E E E E E
|------------------------|-------------------------||
|------------------------|-------------------------||
|------------------------|-------------------------||
|------------------------|-------------------------||
|--0--3--4--0-6--7--0-10-|--0-6--7--0--5--0--3--4--||
|--0--3--4--0-6--7--0-10-|--0-6--7--0--5--0--3--4--||
|
|
~~~
| E E E E E E E E
E E E E E E Q
|------------------------|-------------------------||
|-------------9-10----13-|----9-10-----------------||
|----10-11---------------|------------12----10\----||
|-12-------12------12----|-12------12----12--------||
|------------------------|-------------------------||
|------------------------|-------------------------||
Verse
N.C.(D)
PM---------------------------|
PM---------------------------|
E E E E E E E E E E E E E E E E E E E E E E E E E E E E E E E E
|------------------|-----------------|------------------|-----------------|
|------------------|-----------------|------------------|-----------------|
|------------------|-----------------|------------------|-----------------|
|------------------|-----------------|------------------|-----------------|
|------------------|-----------------|------------------|-----------------|
|-0-3-4-0-6-7-0-10-|-0-6-7-0-5-0-3-4-|-0-3-4-0-6-7-0-10-|-0-6-7-0-5-0-3-4-|
N.C.(D)
PM---------------------------|
E E E E E E E E E E E E E E E E E E E E E E E E E E E E E E E E
|------------------|-----------------|-------------------|------------------|
|------------------|-----------------|-------------------|------------------|
|------------------|-----------------|-------------------|------------------|
|------------------|-----------------|-------------------|------------------|
|------------------|-----------------|-------------------|------------------|
|-0-3-4-0-6-7-0-10-|-0-6-7-0-5-0-3-4-|-0-3-4-0-6-7-0--10-|-0-6-7-0--5-0-3-4-|
|
|
|
PM-----------------------------| ~
| W
W
E E E E E E E E E E E E E E Q
|------------------|-----------------|-------------------|------------------|
|------------------|-----------------|-------------------|------------------|
|------------------|-----------------|-------------------|------------------|
|------------------|-----------------|-0-3-4-0-6-7-0-/10-|-0-6-7-0-/5-0-3---|
|------------------|-----------------|-------------------|------------------|
|------------------|-----------------|-------------------|------------------|

N.C.(D)
PM---------------------------|
PM---------------------------|
E E E E E E E E E E E E E E E E E E E E E E E E E E E E E E E E
|------------------|-----------------|------------------|-----------------|
|------------------|-----------------|------------------|-----------------|
|------------------|-----------------|------------------|-----------------|
|------------------|-----------------|------------------|-----------------|
|------------------|-----------------|------------------|-----------------|
|-0-3-4-0-6-7-0-10-|-0-6-7-0-5-0-3-4-|-0-3-4-0-6-7-0-10-|-0-6-7-0-5-0-3-4-|
N.C.(D)
PM---------------------------|
E E E E E E E E E E E E E E E E
|------------------|-----------------|
|------------------|-----------------|
|------------------|-----------------|
|------------------|-----------------|
|------------------|-----------------|
|-0-3-4-0-6-7-0-10-|-0-6-7-0-5-0-3-4-|
|
|
| W
W
|------------------|-----------------|
|------------------|-----------------|
|------------------|-----------------|
|------------------|-----------------|
|------------------|-----------------|
|------------------|-----------------|
E E E E E E E E E E E E E E Q
|----------------------|-------------------||
|----------------------|-------------------||
|----------------------|-------------------||
|----------------------|-------------------||
|-0-3-4-0---6--7--0-10-|-0-6--7--0-5-0-3---||
|-0-3-4-0---6--7--0-10-|-0-6--7--0-5-0-3---||
|
| H
E E E E E E +H
Q
|----------------------|-------------------||
|----------------------|-------------------||
|---------/10-10-10-10-|---7-(7)-------5\--||
|---------/10-10-10-10-|---7-(7)-------5\--||
|----------------------|-------------------||
|----------------------|-------------------||
Chorus
D5

C5

E E E E E E E E
E E E E E E E E E E E E E E E E
E E E E E E E E
|------------------|-------------------|------------------|-------------------|
|------------------|-------------------|------------------|-------------------|
|------------------|-------------------|------------------|-------------------|
|-0-3-4-0-6-7-0-10-|--0--6-7-0-5-0-3-4-|-0-3-4-0-6-7-0-10-|--0--6-7-0-5-0-3-4-|
|------------------|-------------------|------------------|-------------------|
|------------------|-------------------|------------------|-------------------|

|
|
| W
+W
W
+W
|------------------|-------------------|------------------|-------------------|
|------------------|-------------------|------------------|-------------------|
|-7----------------|-(7)---------------|-5----------------|-(5)---------------|
|-7----------------|-(7)---------------|-5----------------|-(5)---------------|
|-5----------------|-(5)---------------|-3----------------|-(3)---------------|
|------------------|-------------------|------------------|-------------------|
D.S.
B5

D5

~~
E E E E E E E E
E E E E E E E E E E E E E E E E
E E E E E E Q
|------------------|-------------------|------------------|-------------------||
|------------------|-------------------|------------------|-------------------||
|------------------|-------------------|------------------|-------------------||
|-0-3-4-0-6-7-0-10-|--0--6-7-0-5-0-3-4-|-0-3-4-0-6-7-0-10-|--0--6-7-0-5-0-3\--||
|------------------|-------------------|------------------|-------------------||
|------------------|-------------------|------------------|-------------------||
|
| W
+W
W
+W
|------------------|-------------------|------------------|-------------------||
|------------------|-------------------|------------------|-------------------||
|-4----------------|-(4)---------------|-2----------------|-(2)---------------||
|-4----------------|-(4)---------------|-0----------------|-(0)---------------||
|-2----------------|-(2)---------------|-0----------------|-(0)---------------||
|------------------|-------------------|-0----------------|-(0)---------------||
D5
C5
E E E E E E E E
E E E E E E E E E E E E E E E E
E E E E E E E E
|------------------|-------------------|------------------|-------------------|
|------------------|-------------------|------------------|-------------------|
|------------------|-------------------|------------------|-------------------|
|-0-3-4-0-6-7-0-10-|--0--6-7-0-5-0-3-4-|-0-3-4-0-6-7-0-10-|--0--6-7-0-5-0-3-4-|
|------------------|-------------------|------------------|-------------------|
|------------------|-------------------|------------------|-------------------|
|
| W
+W
W
+W
|------------------|-------------------|------------------|-------------------|
|------------------|-------------------|------------------|-------------------|
|-7----------------|-(7)---------------|-5----------------|-(5)---------------|
|-7----------------|-(7)---------------|-5----------------|-(5)---------------|
|-5----------------|-(5)---------------|-3----------------|-(3)---------------|
|------------------|-------------------|------------------|-------------------|
B5
D5
E E E E E E E E
E E E E E E E E E E E E E E E E
E E E E E E E E
|------------------|-------------------|------------------|-------------------||
|------------------|-------------------|------------------|-------------------||
|------------------|-------------------|------------------|-------------------||
|-0-3-4-0-6-7-0-10-|--0--6-7-0-5-0-3-4-|-0-3-4-0-6-7-0-10-|--0--6-7-0-5-0-3-4-||
|------------------|-------------------|------------------|-------------------||
|------------------|-------------------|------------------|-------------------||
|
| W
+W
W
+W
|------------------|-------------------|------------------|-------------------||

|------------------|-------------------|------------------|-------------------||
|-4----------------|-(4)---------------|-2----------------|-(2)---------------||
|-4----------------|-(4)---------------|-0----------------|-(0)---------------||
|-2----------------|-(2)---------------|-0----------------|-(0)---------------||
|------------------|-------------------|-0----------------|-(0)---------------||
Breakdown
D5

N.C.(D)

>
W
+W
W
W
3x
|----------|------------||-----------|-------||
|----------|------------||o----------|------o||
|-7--------|-(7)--------||-----------|-------||
|-7--------|-(7)--------||-----------|-------||
|-5--------|-(5)--------||o----------|------o||
|----------|------------||-----------|-------||
Guitar Solo
D5
H.
+E
E
+Q
S S E
+H
|--------------------------------|--------------------------------------|
|-13b15=============(13)r-13b15==|=(13)r---13p10-13b15====(13)r---------|
|--------------------------------|--------------------------------------|
|--------------------------------|--------------------------------------|
|--------------------------------|--------------------------------------|
|--------------------------------|--------------------------------------|
|
|
|
PM|
PM
PM----|
| Q
E S S E E E
E
+E E E
S
S E E E E
|--------------------------------|--------------------------------------|
|--------------------------------|--------------------------------------|
|--------------------------------|--------------------------------------|
|--7------7-----5-7--------7-----|--(7)-----7---------------5---7-7-----|
|--5------5-5-5-5-5--------5-----|--(5)--5--5-----5-----5---5---5-5-0---|
|--------------------------------|----------------------------------0---|
|
|
|
PM----|
PM
PM------------|
PM|
| Q
E E E E E
E
+Q
E
E
E Q S S
|--------------------------------|--------------------------------------|
|--------------------------------|--------------------------------------|
|--7--------------7--------7-----|--(7)-------------------------7-------|
|--7--------------7--------7-----|--(7)-------------------------7-------|
|--5------5-5---5-5---5----5-----|--(5)-----5-----5---------5---5---5-5-|
|--------------------------------|--------------------------------------|
C5
H.
+E
E
+Q
Q
Q
Q
|--------------------------------|-------------------------------------------|
|-15b17=============(15)r-15b17==|=(15)r---15b17-----15b17.5---15b17.5-------|
|--------------------------------|-------------------------------------------|
|--------------------------------|-------------------------------------------|
|--------------------------------|-------------------------------------------|
|--------------------------------|-------------------------------------------|

|
|
PM|
PM
PM|
| Q
E S S E E E
E
+E E E
S S E
E E
E
|--------------------------------|-------------------------------------------|
|--------------------------------|-------------------------------------------|
|--------------------------------|-------------------------------------------|
|--5------5-----3-5--------5-----|--(5)-----5---------3------5--5------------|
|--3------3-3-3-3-3--------3-----|--(3)--3--3----3-3--3------3--3------0-----|
|--------------------------------|-------------------------------------0-----|
|
|
PM----|
PM
PM-------|
PM|
| Q
E E E E E
E
+Q
E
E
E
Q
S S
|--------------------------------|-------------------------------------------|
|--------------------------------|-------------------------------------------|
|--5--------------5--------5-----|--(5)----------------------5---------------|
|--5--------------5--------5-----|--(5)----------------------5---------------|
|--3------3-3---3-3---3----3-----|--(3)-----3----3----3------3---------3-3---|
|--------------------------------|-------------------------------------------|
B5
|---3---|
Q
E S S
Q
+E.
S E
|-----------------------------------15b17==|
|-15b18===15r15p13h==15---(15)---13--------|
|------------------------------------------|
|------------------------------------------|
|------------------------------------------|
|------------------------------------------|
|
|
PM---|
| Q
E S
S
E E E
E
|------------------------------------------|
|------------------------------------------|
|------------------------------------------|
|--5-------5------------5---5--------5-----|
|--2-------2--2----2----2---2--------2-----|
|------------------------------------------|
|
|
PM-----------|
PM
| Q
E E
E E E
E
|------------------------------------------|
|------------------------------------------|
|--4------------------------4--------4-----|
|--4------------------------4--------4-----|
|--2-------2--2---------2---2--2-----2-----|
|------------------------------------------|
+E +S
+E
+S
+Q.
+S +S S S
|-(15)r(15)b17==(15)r==(15)b17==(15)-------(15)r(15)-14-15-|
|----------------------------------------------------------|
|----------------------------------------------------------|
|----------------------------------------------------------|
|----------------------------------------------------------|
|----------------------------------------------------------|
|
|
PM
PM-|
| E
E
E
S S E E E
E
|----------------------------------------------------------|

|----------------------------------------------------------|
|----------------------------------------------------------|
|---5----------------5-----------------5-5---5-------------|
|---2----2-----------2------------2--2-3-3---3--------0----|
|-----------------------------------------------------0----|
|
|
PM----------------|
PM|
| Q
E
E
E Q
S S
|----------------------------------------------------------|
|----------------------------------------------------------|
|---4------------------------------------4-----------------|
|---4------------------------------------4-----------------|
|---2----------------2------------2----2-2------------2--2-|
|----------------------------------------------------------|
D5
|---3---|
|--3--|
S S S S S
S S S S S S S S S S S S S
|-15p14p12-14p12s==10-12p10----------10-------------------|
|---------------------------13p12h13----13p12p10-------10-|
|------------------------------------------------12-13----|
|---------------------------------------------------------|
|---------------------------------------------------------|
|---------------------------------------------------------|
|
|
PM|
| Q
E
S S E
E
E
E
|---------------------------------------------------------|
|---------------------------------------------------------|
|---------------------------------------------------------|
|--7-------------7--------------5--------7-----------7----|
|--5-------------5--------5--5--5--------5-----------5----|
|---------------------------------------------------------|
|
|
PM------------|
PM
| Q
E
E
E
E
E
E
|---------------------------------------------------------|
|---------------------------------------------------------|
|--7-------------------------------------7-----------7----|
|--7-------------------------------------7-----------7----|
|--5-------------5--------5-----5--------5-----5-----5----|
|---------------------------------------------------------|
|----3-----| |---3---|
|---3---|
E
E
E E E
E
E
E E
E +E
|-----------------------------------------------------|
|-----------------------------------------------------|
|-12b14-12---11-12------10---12b14-12-10--------------|
|------------------12----------------------12-(12)----|
|-----------------------------------------------------|
|-----------------------------------------------------|
|
|
PM
PM---|
| +E
E
E
S
S E
E
E
E
|-----------------------------------------------------|
|-----------------------------------------------------|
|-----------------------------------------------------|
|-(7)------------7------------5-----7----7------------|

|-(5)------5-----5----5----5--5-----5----5------0-----|
|-----------------------------------------------0-----|
|
|
PM----------|
PM-|
| +Q
E
E
E
Q
S S
|-----------------------------------------------------|
|-----------------------------------------------------|
|-(7)-------------------------------7-----------------|
|-(7)-------------------------------7-----------------|
|-(5)------------5----5-------5-----5-----------5--5--|
|-----------------------------------------------------|
D5
Q
+Q
S
S S S S
S S S
|---------------------------------------------------|
|---------------------------10h13p10-------10h13p10-|
|-12pb13r=(12)b14-----12b14----------12b14----------|
|---------------------------------------------------|
|---------------------------------------------------|
|---------------------------------------------------|
|
|
PM|
| Q
E
S S E
E
E
E
|---------------------------------------------------|
|---------------------------------------------------|
|---------------------------------------------------|
|--7--------7----------7--------7--------------7----|
|--5--------5-----5-5--5--------5--------------5----|
|---------------------------------------------------|
|
|
PM--------|
PM
| Q
E
E
E
E
E
E
|---------------------------------------------------|
|---------------------------------------------------|
|--7----------------------------7--------------7----|
|--7----------------------------7--------------7----|
|--5--------5-----5----5--------5-----5--------5----|
|---------------------------------------------------|
S
S S S S
S S S S
S S S S
S S S
|-------------------------------------------------------------|
|-------10h13p10-------10h13p10-------10h13p10-------10h13p10-|
|-12b14----------12b14----------12b14----------12b14----------|
|-------------------------------------------------------------|
|-------------------------------------------------------------|
|-------------------------------------------------------------|
|
|
PM
PM|
| +E
E
E
S S E
E
Q
|-------------------------------------------------------------|
|-------------------------------------------------------------|
|-------------------------------10-------10----10\------------|
|-(7)-------------7--------------x--------x-----x-------------|
|-(5)-------5-----5--------5--5--8--------8-----8\------------|
|-------------------------------------------------------------|
|
|
PM------------|
PM|
| +Q
E
E
E
Q
S S

|-------------------------------------------------------------|
|-------------------------------------------------------------|
|-(7)-------------------------------------7-------------------|
|-(7)-------------------------------------7-------------------|
|-(5)-------------5--------5-----5--------5--------------5--5-|
|-------------------------------------------------------------|
C5
S
S S S S
S S S S
S S S S
S S S
|-------------------------------------------------------------|
|-------10h13p10-------10h13p10-------10h13p10-------10h13p10-|
|-12b14----------12b14----------12b14----------12b14----------|
|-------------------------------------------------------------|
|-------------------------------------------------------------|
|-------------------------------------------------------------|
|
|
PM|
| Q
E
S S E
E
E
E
|-------------------------------------------------------------|
|-------------------------------------------------------------|
|-------------------------------------------------------------|
|--5--------------5--------------3--------5--------------5----|
|--3--------------3--------3--3--3--------3--------------3----|
|-------------------------------------------------------------|
|
|
PM------------|
PM
| Q
E
E
E
E
E
E
|-------------------------------------------------------------|
|-------------------------------------------------------------|
|--5--------------------------------------5--------------5----|
|--5--------------------------------------5--------------5----|
|--3--------------3--------3-----3--------3-----3--------3----|
|-------------------------------------------------------------|
S
S S S S
S S S Q
E
S S
|----------------------------------------------------|
|-------10h13p10-------10h13p10-13b15----13b15-13p10-|
|-12b14----------12b14-------------------------------|
|----------------------------------------------------|
|----------------------------------------------------|
|----------------------------------------------------|
|
|
PM
PM|
| +E
E
E
S S E
E Q
|----------------------------------------------------|
|----------------------------------------------------|
|-------------------------------10----10-10\---------|
|-(5)-------------5--------------x-----x--x----------|
|-(3)-------3-----3--------3--3--8-----8--8\---------|
|----------------------------------------------------|
|
|
PM------------|
PM|
| +Q
E
E
E
Q
S S
|----------------------------------------------------|
|----------------------------------------------------|
|-(5)----------------------------------5-------------|
|-(5)----------------------------------5-------------|
|-(3)-------------3--------3-----3-----3--------3--3-|

|----------------------------------------------------|
B5
S
S S S S
S S S S
S S S S
S S S
|-------10-------------10-------------10-------------10-------|
|-13b15----13p10----------13p10-13b15----13p10----------13p10-|
|----------------12b14-------------------------12b14----------|
|-------------------------------------------------------------|
|-------------------------------------------------------------|
|-------------------------------------------------------------|
|
|
PM|
| Q
E
S S E
E
E
E
|-------------------------------------------------------------|
|-------------------------------------------------------------|
|-------------------------------------------------------------|
|--5--------------5--------------5--------5--------------5----|
|--2--------------2--------2--2--2--------2--------------2----|
|-------------------------------------------------------------|
|
|
PM------------|
PM
| Q
E
E
E
E
E
E
|-------------------------------------------------------------|
|-------------------------------------------------------------|
|--4--------------------------------------4--------------4----|
|--4--------------------------------------4--------------4----|
|--2--------------2--------2-----2--------2-----2--------2----|
|-------------------------------------------------------------|
C5
S
S S S S
S S S Q
E
E
|-------10-------------10-------13b15----13b15-13---|
|-13b15----13p10----------13p10---------------------|
|----------------12b14------------------------------|
|---------------------------------------------------|
|---------------------------------------------------|
|---------------------------------------------------|
|
|
PM
PM|
| E
E
E
S S E
E Q
|---------------------------------------------------|
|---------------------------------------------------|
|-------------------------------10----10-10\--------|
|--5--------------5--------------x-----x--x---------|
|--2--------2-----2--------2--2--8-----8--8\--------|
|---------------------------------------------------|
|
|
PM------------|
PM|
| Q
E
E
E
E +E
S S
|---------------------------------------------------|
|---------------------------------------------------|
|--4-----------------------------------5-(5)--------|
|--4-----------------------------------5-(5)--------|
|--2--------------2--------2-----3-----3-(3)----3-3-|
|---------------------------------------------------|
D5

+Q
E S S Q
E E
|-(13)b13.5--13p10------------------|
|------------------10-13b15---------|
|-----------------------------12p10-|
|-----------------------------------|
|-----------------------------------|
|-----------------------------------|
|
|
PM|
| Q
E S S E
E E E
|-----------------------------------|
|-----------------------------------|
|-----------------------------------|
|---7---------7--------5----7-----7-|
|---5---------5--5--5--5----5-----5-|
|-----------------------------------|
|
|
PM------|
PM
| Q
E E
E
E E E
|-----------------------------------|
|-----------------------------------|
|---7-----------------------7-----7-|
|---7-----------------------7-----7-|
|---5---------5--5-----5----5--5--5-|
|-----------------------------------|
F5
S
+S S S S S S S S S S S S S S S
|----------------------------------------------------||
|----------------------------------------------------||
|-12b14r(12)p10----12p10-----------------------------||
|---------------12-------12p10-12-10-----------------||
|------------------------------------12-11-10s8-10-8-||
|----------------------------------------------------||
|
| E
E
E
E
E
E
E
E
|----------------------------------------------------||
|----------------------------------------------------||
|-10---------10----10----10----10----10----10---10---||
|--x----------x-----x-----x-----x-----x-----x----x---||
|--8----------8-----8-----8-----8-----8-----8----8---||
|----------------------------------------------------||
|
|
PM|
| +E
E
E
S S E
E
Q
|----------------------------------------------------||
|----------------------------------------------------||
|-(7)------------------------------------------------||
|-(7)--------10----10----------10----10----10--------||
|-(5)---------8-----8-----8--8--8-----8-----8--------||
|----------------------------------------------------||
Verse
N.C.(D)
E E E E E E E E
E E E E E E E E
|-------------------|--------------------|
|-------------------|--------------------|

|-------------------|--------------------|
|-------------------|--------------------|
|--0-3-4-0-6-7-0-10-|---0--6-7-0-5-0-3-4-|
|--0-3-4-0-6-7-0-10-|---0--6-7-0-5-0-3-4-|
|
|
|
~~~~~~~~~~~~~~~~~~
| W
+W
|-------------------|--------------------|
|-------------------|--------------------|
|-------------------|--------------------|
|-12----------------|-(12)---------------|
|-------------------|--------------------|
|-------------------|--------------------|
E E E E E E E E
E E E E E E E E
|---------------------|--------------------|
|---------------------|--------------------|
|---------------------|--------------------|
|---------------------|--------------------|
|---0--3-4-0-6-7-0-10-|---0--6-7-0-5-0-3-4-|
|---0--3-4-0-6-7-0-10-|---0--6-7-0-5-0-3-4-|
|
| >
|~~~~~~~~~~~~~~~~~~~~~~~~~~~~
| +W
+W
|---------------------|--------------------|
|---------------------|--------------------|
|---------------------|--------------------|
|-(12)----------------|-(12)---------------|
|---------------------|--------------------|
|---------------------|--------------------|
N.C.(D)
E E E E E E E E E E E E E E E E
|------------------|-----------------|
|------------------|-----------------|
|------------------|-----------------|
|------------------|-----------------|
|-0-3-4-0-6-7-0-10-|-0-6-7-0-5-0-3-4-|
|-0-3-4-0-6-7-0-10-|-0-6-7-0-5-0-3-4-|
|
| W
W
|------------------|-----------------|
|------------------|-----------------|
|------------------|-----------------|
|------------------|-----------------|
|------------------|-----------------|
|------------------|-----------------|
E E E E E E E E E E E E E E E E
|----------------------|----------------------||
|----------------------|----------------------||
|----------------------|----------------------||
|----------------------|----------------------||
|-0-10-12-0--7-10-0--7-|-0--6--7-0--5--0--3-4-||
|-0-10-12-0--9-10-0--7-|-0--6--7-0--5--0--3-4-||

|
| E E E E E E E E E E E E E E Q
|----------------------|----------------------||
|---13-15---12-13------|----------------------||
|-------------------14-|---13-14---12----10---||
|----------------------|--------------12------||
|----------------------|----------------------||
|----------------------|----------------------||
Out-Chorus
D5
C5
Gtr I
E E E E E E E E
E E E E E E E E E E E E E E E E
E E E E E E E E
|------------------|-------------------|------------------|-------------------|
|------------------|-------------------|------------------|-------------------|
|------------------|-------------------|------------------|-------------------|
|-0-3-4-0-6-7-0-10-|--0--6-7-0-5-0-3-4-|-0-3-4-0-6-7-0-10-|--0--6-7-0-5-0-3-4-|
|------------------|-------------------|------------------|-------------------|
|------------------|-------------------|------------------|-------------------|
|
|
| W
+W
W
+W
|------------------|-------------------|------------------|-------------------|
|------------------|-------------------|------------------|-------------------|
|-7----------------|-(7)---------------|-5----------------|-(5)---------------|
|-7----------------|-(7)---------------|-5----------------|-(5)---------------|
|-5----------------|-(5)---------------|-3----------------|-(3)---------------|
|------------------|-------------------|------------------|-------------------|
B5
D5
E E E E E E E E
E E E E E E E E
E
E E E
E E E E
|------------------|-------------------|---------------------------------------|
|------------------|-------------------|---------------------------------------|
|------------------|-------------------|---------------------------------------|
|-0-3-4-0-6-7-0-10-|--0--6-7-0-5-0-3-4-|--0-----3-4---0-----------6--7-0-10----|
|------------------|-------------------|---------------------------------------|
|------------------|-------------------|---------------------------------------|
|
| W
+W
W
|------------------|-------------------|---------------------------------------|
|------------------|-------------------|---------------------------------------|
|-4----------------|-(4)---------------|--2------------------------------------|
|-4----------------|-(4)---------------|--0------------------------------------|
|-2----------------|-(2)---------------|--0------------------------------------|
|------------------|-------------------|--0------------------------------------|
|
|
|
|---3----|
| W
W
Q.
+S +S S Q.
E
|------------------|-------------------|---------------------------------------|
|------------------|-------------------|-15b18======(15)r(15)p13-15------13b15-|
|------------------|-------------------|---------------------------------------|
|------------------|-------------------|---------------------------------------|
|------------------|-------------------|---------------------------------------|
|------------------|-------------------|---------------------------------------|
E

E E

E E

|----------------------------------------|
|----------------------------------------|
|----------------------------------------|
|---0---6--7-----0--5-----0-----3-----4--|
|----------------------------------------|
|----------------------------------------|
|
| +W
|----------------------------------------|
|----------------------------------------|
|--(2)-----------------------------------|
|--(0)-----------------------------------|
|--(0)-----------------------------------|
|--(0)-----------------------------------|
|
| +E E E
E E
E
S S E
|------10--------------------------------|
|-(13)----13b15r10-----------------------|
|------------------12b14-12b14-12p10-----|
|------------------------------------12--|
|----------------------------------------|
|----------------------------------------|
D5
E
E E E E E E E
E E E E E E E E
|-----------------------|---------------------|
|-----------------------|---------------------|
|-----------------------|---------------------|
|--0-----3-4-0-6-7-0-10-|---0---6-7-0-5-0-3-4-|
|-----------------------|---------------------|
|-----------------------|---------------------|
|
| W
+W
|-----------------------|---------------------|
|-----------------------|---------------------|
|--7--------------------|--(7)----------------|
|--7--------------------|--(7)----------------|
|--5--------------------|--(5)----------------|
|-----------------------|---------------------|
|
|
>
| W
+W
|-----------------------|---------------------|
|-13b15=================|=(13)r---------------|
|-----------------------|---------------------|
|-----------------------|---------------------|
|-----------------------|---------------------|
|-----------------------|---------------------|
C5
E E E E E E E E
E E E E E E E E
|------------------|-------------------|
|------------------|-------------------|
|------------------|-------------------|
|-0-3-4-0-6-7-0-10-|--0--6-7-0-5-0-3-4-|
|------------------|-------------------|
|------------------|-------------------|
|

| W
+W
|------------------|-------------------|
|------------------|-------------------|
|-5----------------|-(5)---------------|
|-5----------------|-(5)---------------|
|-3----------------|-(3)---------------|
|------------------|-------------------|
|
| W
W
|------------------|-------------------|
|------------------|-------------------|
|------------------|-------------------|
|------------------|-------------------|
|------------------|-------------------|
|------------------|-------------------|
B5
D5
E E E E E E E E
E E E E E E E E
E
E E E E E E E
|------------------|-------------------|-------------------------|
|------------------|-------------------|-------------------------|
|------------------|-------------------|-------------------------|
|-0-3-4-0-6-7-0-10-|--0--6-7-0-5-0-3-4-|--0----3-4-0--6--7--0-10-|
|------------------|-------------------|-------------------------|
|------------------|-------------------|-------------------------|
|
| W
+W
W
|------------------|-------------------|-------------------------|
|------------------|-------------------|-------------------------|
|-4----------------|-(4)---------------|--2----------------------|
|-4----------------|-(4)---------------|--0----------------------|
|-2----------------|-(2)---------------|--0----------------------|
|------------------|-------------------|--0----------------------|
|
| W
W
H
E E E E
|------------------|-------------------|-17b20-------17-15-13----|
|------------------|-------------------|----------------------15-|
|------------------|-------------------|-------------------------|
|------------------|-------------------|-------------------------|
|------------------|-------------------|-------------------------|
|------------------|-------------------|-------------------------|
E
E
E
E
E
E
E
E
|----------------------------------------------||
|----------------------------------------------||
|----------------------------------------------||
|--0----6-----7----0-----5----0-----3----4-----||
|----------------------------------------------||
|----------------------------------------------||
|
| +W
|----------------------------------------------||
|----------------------------------------------||
|-(2)------------------------------------------||
|-(0)------------------------------------------||
|-(0)------------------------------------------||
|-(0)------------------------------------------||
|
| |---3---| |---3---| |---3---| |---3---|

| E E
E E E
E E E
E E E
E
|----------------------------------------------||
|-13p10----------------------------------------||
|---------12-12p10------10h12p==10-------------||
|--------------------12------------12p10-------||
|------------------------------------------12--||
|----------------------------------------------||
Outro
N.C.(D)
E E E E E E E E
E E E E E E E E
E E E E E E E E
|------------------------|------------------------|------------------------|
|------------------------|------------------------|------------------------|
|------------------------|------------------------|------------------------|
|------------------------|------------------------|------------------------|
|--0--3--4--0-6--7--0-10-|--0-6--7--0--5--0--3--4-|--0--3--4--0-6--7--0-10-|
|--0--3--4--0-6--7--0-10-|--0-6--7--0--5--0--3--4-|--0--3--4--0-6--7--0-10-|
|
|
| E E E E E E E E
E E E E E E E E
E E E E E E E E
|------------------------|------------------------|------------------------|
|-------------9-10----13-|----9-10----------------|-------------9-10----13-|
|----10-11---------------|------------12----10-11-|----10-11---------------|
|-12-------12------12----|-12------12----12-------|-12-------12------12----|
|------------------------|------------------------|------------------------|
|------------------------|------------------------|------------------------|
N.C.(D)
E E E E E E E E
E E E E E E E E
E E E E E E E E
|------------------------|------------------------|------------------------|
|------------------------|------------------------|------------------------|
|------------------------|------------------------|------------------------|
|------------------------|------------------------|------------------------|
|--0-6--7--0--5--0--3--4-|--0--3--4--0-6--7--0-10-|--0-6--7--0--5--0--3--4-|
|--0-6--7--0--5--0--3--4-|--0--3--4--0-6--7--0-10-|--0-6--7--0--5--0--3--4-|
|
| E E E E E E E E
E E E E E E E E
E E E E E E E E
|------------------------|------------------------|------------------------|
|----9-10----------------|-------------9-10----13-|----9-10----------------|
|------------12----10-11-|----10-11---------------|------------12----10-11-|
|-12------12----12-------|-12-------12------12----|-12------12----12-------|
|------------------------|------------------------|------------------------|
|------------------------|------------------------|------------------------|
N.C.(D)
E E E E E E E E E E E E E E E E
Q. E H
|----------------------|----------------------|-------------*|
|----------------------|----------------------|-------------*|
|----------------------|----------------------|-------------*|
|----------------------|----------------------|-------------*|
|-0-10-12-0--7-10-0--7-|-0--6--7-0--5--0--3-4-|--0----------*|
|-0-10-12-0--9-10-0--7-|-0--6--7-0--5--0--3-4-|--0----------*|
|
| E E E E E E E E E E E E E E Q
Q. E H
|----------------------|----------------------|-------------*|
|---13-15---12-13------|----------------------|-------------*|

|-------------------14-|---13-14---12----10---|-------------*|
|----------------------|--------------12------|-12\---------*|
|----------------------|----------------------|-------------*|
|----------------------|----------------------|-------------*|
Song: Dirty Little Thing
Band: Velvet Revolver
Album: Contraband
Tabbed by: Kabir
ktaneja@students.latrobe.edu.au
*************** \m/*****************
Gtr I (E A D G B E) - 'Slash'
Gtr 2 (E A D G B E) - 'Dave Kushner'
4/4
Gtr I
::Intro, played on bass but can be played on guitar::
|--------------------------|
|--------------------------|
|--------------------------|
|-2-2-2-2-2-2-2-2-2-2-2----|
|--------------------------|
|--------------------------|
::main guitar intro riff/Verse 1 - played with these two riffs, the second riff
just has
G at the end, listen to song where that goes::
|------------------------------------|
|------------------------------------|
|------------------------------------|
|------------------------------------|
|----5-----7-----8-----7--5s=7s=5----|
|-0--3--0--5--0--6--0--5--3S=5s=3----|
|-----------------|--------------------|
|-----------------|--------------------|
|-----------------|--------------------|
|-----------------|--------------------|
|---5---7---8---7-|-5s7s5---5--5--5----|
|-0-3-0-5-0-6-0-5-|-3S5s3---3--3--3----|
"Can't stop thinkin musta been trippin this evening
My mind is racing demons and all of my feelings are numb"
::Pre - Chorus - Slash plays the lead riff and Dave plays the chord A5::
|--------------------------------------------|
|-----------------------------6--------------|
|-5b6.5===4S==2----7b8.5======7----5b6.5=====|
|--------------------------------------------|
|--------------------------------------------|
|--------------------------------------------|

|-----------------|--------------|
|-----------------|--------------|
|-----------------|--------------|
|-----------------|--------------|
|-7-7-7-7-7-7-x-7-|-7-7-7-7-7----|
|-5-5-5-5-5-5-x-5-|-5-5-5-5-5----|
"Yeah and when I roll with my head in the wind
And I feel like the king of the"
::Verse 2 - played with main intro riff::
|------------------------------------|
|------------------------------------|
|------------------------------------|
|------------------------------------|
|----5-----7-----8-----7--5s=7s=5----|
|-0--3--0--5--0--6--0--5--3S=5s=3----|
|-----------------|--------------------|
|-----------------|--------------------|
|-----------------|--------------------|
|-----------------|--------------------|
|---5---7---8---7-|-5s7s5---5--5--5----|
|-0-3-0-5-0-6-0-5-|-3S5s3---3--3--3----|
"Dead men wishin they had gotten together with you girl
But you're a dirty little liar with a message of obsession to come"
::Pre-Chorus - just one line before chorus::
|---------------------|
|---------------------|
|---------------------|
|-5-5-5-5-------------|
|-3-3-3-3--7-7-7-7----|
|----------5-5-5-5----|
"You got your head in the clouds and your world's upside down"
::Chorus - played with the below chords,listen to song for timing::
|-----------------------------------------------|
|-----------------------------------------------|
|-----------------------------------------------|
|--------5----------7--------5---4--------------|
|-2------3-----2----5----2---3---2-----7-----5--|
|-0------------0---------0----------0--5--0--3--|
"You got
Get away
Get away
Get away
Get away

your
from
from
from
from

head in the clouds and your world's upside down


the life you're living
the man that's stealing your life
the drugs you're taking
the film of sex in your life"

::Intro riff again with no singing::


|------------------------------------|
|------------------------------------|

|------------------------------------|
|------------------------------------|
|----5-----7-----8-----7--5s=7s=5----|
|-0--3--0--5--0--6--0--5--3S=5s=3----|
|-----------------|--------------------|
|-----------------|--------------------|
|-----------------|--------------------|
|-----------------|--------------------|
|---5---7---8---7-|-5s7s5---5--5--5----|
|-0-3-0-5-0-6-0-5-|-3S5s3---3--3--3----|
::Verse 3 - played again with intro riff, small verse here::
|------------------------------------|
|------------------------------------|
|------------------------------------|
|------------------------------------|
|----5-----7-----8-----7--5s=7s=5----|
|-0--3--0--5--0--6--0--5--3S=5s=3----|
|-----------------|--------------------|
|-----------------|--------------------|
|-----------------|--------------------|
|-----------------|--------------------|
|---5---7---8---7-|-5s7s5---5--5--5----|
|-0-3-0-5-0-6-0-5-|-3S5s3---3--3--3----|
::Bridge - Slash plays the lead riff and Dave plays the chord A5::
|--------------------------------------------|
|-----------------------------6--------------|
|-5b6.5===4S==2----7b8.5======7----5b6.5=====|
|--------------------------------------------|
|--------------------------------------------|
|--------------------------------------------|
|-----------------|--------------|
|-----------------|--------------|
|-----------------|--------------|
|-----------------|--------------|
|-7-7-7-7-7-7-x-7-|-7-7-7-7-7----|
|-5-5-5-5-5-5-x-5-|-5-5-5-5-5----|
"Yeah and when I roll with my head in the wind
And I feel like the king of the"
::Verse 2 again - played with main intro riff::
|------------------------------------|
|------------------------------------|
|------------------------------------|
|------------------------------------|
|----5-----7-----8-----7--5s=7s=5----|
|-0--3--0--5--0--6--0--5--3S=5s=3----|
|-----------------|--------------------|
|-----------------|--------------------|
|-----------------|--------------------|

|-----------------|--------------------|
|---5---7---8---7-|-5s7s5---5--5--5----|
|-0-3-0-5-0-6-0-5-|-3S5s3---3--3--3----|
"Dead men wishin they had gotten together with you girl
But you're a dirty little liar with a message of obsession to come"
::Pre-Chorus - just one line before chorus::
|---------------------|
|---------------------|
|---------------------|
|-5-5-5-5-------------|
|-3-3-3-3--7-7-7-7----|
|----------5-5-5-5----|
"You got your head in the clouds and your world's upside down"
::Chorus - played with the below chords,listen to song for timing::
|-----------------------------------------------|
|-----------------------------------------------|
|-----------------------------------------------|
|--------5----------7--------5---4--------------|
|-2------3-----2----5----2---3---2-----7-----5--|
|-0------------0---------0----------0--5--0--3--|
"Get away from the life you're living
Get away from the man that's stealing your life
Get away from the drugs you're taking
Get away from the film of sex in your life"
::SOLO - played by Slash, awesome! it wont be note to note and play some backwar
d run parts
twice to get the long lastiness::
|---------------------------------------------2-------2-------2--------|
|-----------------------------------------------5-2-----5-2-----5-2----|
|---------------------------------------0-2-5-------4-------4-------4--|
|-------------------------0-2-3-0-0-2-3--------------------------------|
|---------0-2-3-5-0-2-3-5----------------------------------------------|
|-0-2-3-5--------------------------------------------------------------|
|-2---------------------2-----2-------2-------5-------5-------7---------|
|---5-2---5-3-5---4-2-----5-2---5-2-----5-2-----8-5-----8-5-----10-7----|
|-------4-------4-----5-------------4-------4-------7-------7--------9--|
|-----------------------------------------------------------------------|
|-----------------------------------------------------------------------|
|-----------------------------------------------------------------------|

~~
|-9----------12-13b15--11-9---------9-----------------------------------------------|
|---12-9--------------------13-9-13---13-9--------------13-13p-10----13p-13-10------|

|--------11--------------------------------11-9-10----------------12-----------1
2----|
|--------------------------------------------------12-9-----------------------------|
|-----------------------------------------------------------------------------------|
|-----------------------------------------------------------------------------------|
|-15-13-12-13-11-10-10-8-7-8-6-5-----------------------------------------------|
|--------------------------------8-6-5-6-4-3-----------------------------------|
|--------------------------------------------9-7-6-8-6-5-----------------------|
|--------------------------------------------------------8-6-5-----------------|
|--------------------------------------------------------------9-7-6-7-5-4-7-5-|
|------------------------------------------------------------------------------|
|----------------|
|----------------|
|----------------|
|----------------|
|---4------------|
|-5---5-4-1-0----|
~~~~~
|-------12---12---12--15-------15---------------------------------------------|
|-------12---12---12--15-------15-------12-15----------12-15---------17b18----|
|-8b9.5----8----8--------16-14----14-12-12-15-12-15-12-12-15-12-15------------|
|------------------------------------------------15-12-------12-15------------|
|-----------------------------------------------------------------------------|
|-----------------------------------------------------------------------------|
::Pre-Chorus - just one line before chorus::
|---------------------|
|---------------------|
|---------------------|
|-5-5-5-5-------------|
|-3-3-3-3--7-7-7-7----|
|----------5-5-5-5----|
"You got your head in the clouds and your world's upside down"
::Chorus - played with the below chords,listen to song for timing::
|-----------------------------------------------|
|-----------------------------------------------|
|-----------------------------------------------|
|--------5----------7--------5---4--------------|
|-2------3-----2----5----2---3---2-----7-----5--|
|-0------------0---------0----------0--5--0--3--|
"Get away from the life you're living
Get away from the man that's stealing your life
Get away from the drugs you're taking
Get away from the film of sex in your life"
::Outro - play the below riff with the chorus chords...scott just keeps on singi

ng "get
till the end::
~~

~~

|-------------------------------|
|-17-----17---19---17-----12----|
|-20-----20---22---22-----15----|
|-------------------------------|
|-------------------------------|
|-------------------------------|
|-----------------------------------------------|
|-----------------------------------------------|
|-----------------------------------------------|
|--------5----------7--------5---4--------------|
|-2------3-----2----5----2---3---2-----7-----5--|
|-0------------0---------0----------0--5--0--3--|
Velvet Revolver
Contraband
Loving The Alien
Tabbed by D.K
Verse: One of the guitars play the rhythm, while
the other guitar pulls over the chords,
and let them ring.
C
Sometimes I
Em
I feel like
C
I feel like
Em
I feel like

Am
think I'm scared, sometimes I know.
G
making love, sometimes I don't.
Am
letting go, maybe not.
G
giving up, is all we got.

Chorus:
F
G
F
G
Sometimes is all the time, and never means maybe.
F
G
Sometimes is all the time,
C
G
maybe, and I'm moving on,
C
G
and I'm moving on, (sometimes I feel alone),
C
G C
G
and I'm moving on,
and I'm moving on.
E------8--------8-7-5---------5--/--7----------|
B----6-----------------8-7-5-------------------|
G----------------------------------------------| x3
D----------------------------------------------|
A----------------------------------------------|
E----------------------------------------------|
E----15-12-13-12----15-12-13-12----15-12-13-12----12-13-15-12----|

B----------------------------------------------------------------|
G----------------------------------------------------------------| x7
D----------------------------------------------------------------|
A----------------------------------------------------------------|
E----------------------------------------------------------------|
E----15-12-13-12----15-12----------------------------------------|
B-------------------------15b17r15-------------------------------|
G----------------------------------------------------------------|
D----------------------------------------------------------------|
A----------------------------------------------------------------|
E----------------------------------------------------------------|
Verse: Do the same here, on this verse, but here there's also
a third guitar playing.
C
Am
Sometimes I make believe, when we're alone.
Em
G
Machines have taken hold. Can you get me to a telephone?
C
Am
It's just the little things, you used to see.
Em
G
Am I still that man who makes you who you want to be?
E---------------|---------------|---------------|------------|
B-------\-13----|----12-\-10----|----10-/-12----|----/-15----|
G---------------|---------------|---------------|------------|
D---------------|---------------|---------------|------------|
A---------------|---------------|---------------|------------|
E---------------|---------------|---------------|------------|
E---------------|---------------|---------------|-------------------|
B----15-\-13----|----12-\-10----|----10-/-12----|----13-/-15b-b-b---|
G---------------|---------------|---------------|-------------------|
D---------------|---------------|---------------|-------------------|
A---------------|---------------|---------------|-------------------|
E---------------|---------------|---------------|-------------------|
Chorus:
F
G
F
G
Sometimes is all the time, and never means maybe.
F
G
Sometimes is all the time,
C
G
maybe, and I'm moving on,
C
G
and I'm moving on, (sometimes I feel alone),
C
G C
G
and I'm moving on,
and I'm moving on.
E------8--------8-7-5---------5--/--7----------|
B----6-----------------8-7-5-------------------|
G----------------------------------------------| x3
D----------------------------------------------|
A----------------------------------------------|
E----------------------------------------------|

E----15-12-13-12----15-12-13-12----15-12-13-12----12-13-15-12----|
B----------------------------------------------------------------|
G----------------------------------------------------------------| x7
D----------------------------------------------------------------|
A----------------------------------------------------------------|
E----------------------------------------------------------------|
E----15-12-13-12----15-12----------------------------------------|
B-------------------------15-------------------------------------|
G----------------------------------------------------------------|
D----------------------------------------------------------------|
A----------------------------------------------------------------|
E----------------------------------------------------------------|
Bridge:
D
C
G
G
I never noticed. How lovely were the aliens? Lovely were the aliens.
D
C
G
G
I never noticed. How lovely were the aliens? Lovely were the aliens.
E------------------------------------------------------------|
B------------------------------------------------------------|
G------------7-9---------------------7-----------------------|
D----------------7-9--------10----10---10p7------------------|
A--7h9---------------7-9--7-----------------10p7-------------|
E------10------------------------------------------10--------|
E------------------------------------------------------------|
B------------------------------------------------------------|
G-------------------------------------------7-9-----7--------|
D--9h10p9-\-7h9p7------7----------------7-9-----7-9----------|
A-----------------10-----9p7----------7----------------------|
E----------------------------10----10------------------------|
E------------------------------------------------------------|
B-----------------------------------8------------------------|
G--7h9-------7h9-------7h9------------7-10-7-10-9-7----7-----|
D------9p7-------9p7-------9p7----------------------10-------|
A------------------------------------------------------------|
E------------------------------------------------------------|
E------------------------------------------------------------|
B--8-----8-------8-/10-\-8-----8-----------------------------|
G----7-----7---7-----------7-----7------7-7---9-7------------|
D-------------------------------------9-----------9-7---7-7--|
A-----------------------------------------------------9------|
E------------------------------------------------------------|
Solo: I think this solo is almost 100% correct, except a little bit
in the end. Awesome solo. The chords are the same as in the
bridge.
E--------------------|--------------------------|-------------------|
B----------------19--|--19-19---------------19--|--19-19------------|
G--------19-19-------|--------21-19-19-21-------|--------19-21------|
D--19-21-------------|--------------------------|--------------19---|

A--------------------|--------------------------|-------------------|
E--------------------|--------------------------|-------------------|
E-----------------------------------|-------------------------------|
B-----------------------------------|-------------------------------|
G-----------------------------------|-------------------------------|
D--21-21-21--\--19-19-19--\--17-17--|--17---21p19--17-19-17-16------|
A-----------------------------------|-------------------------------|
E-----------------------------------|-------------------------------|
E-----------------------------------|--5~~---8-------8-5~~---8------|
B-----------------------------------|----------8~~-------------8~~--|
G-----------------------------------|-------------------------------|
D--17-16-14-16-14--12-10-9-7-5-7~~--|-------------------------------|
A-----------------------------------|-------------------------------|
E-----------------------------------|-------------------------------|
E--8-5~~---8------|-------------------------|-----------------------|
B------------8~~--|--7-/-8-5-5~~------------|-----------------------|
G-----------------|----------------5h7-4~~--|----------------4------|
D-----------------|-------------------------|----7------5--7--------|
A-----------------|-------------------------|-----------------------|
E-----------------|-------------------------|-----------------------|
E---------------------------------8h10p8----10h12p10----12h15-------|
B----5h8----8h10p8----10h12p10--------------------------------------|
G--7----------------------------------------------------------------|
D-------------------------------------------------------------------|
A-------------------------------------------------------------------|
E-------------------------------------------------------------------|
E--22--20--19--20-20~~---------19h20p19~~---------------------------|
B-------------------------------------------------------------------|
G-------------------------------------------------------------------|
D-------------------------------------------------------------------|
A-------------------------------------------------------------------|
E-------------------------------------------------------------------|
Chorus:
C
C
C

G C
And I'm moving on,
and I'm moving
G C
and I'm moving on,
and I'm moving
G C
and I'm moving on,
and I'm moving

G
on,
G
on,
G
on,

(sometimes I feel alone),


(sometimes I feel alone),

C
and I'm moving on,

and I'm moving on,

and I'm moving on,

and I'm moving on.

E----15-12-13-12----15-12-13-12----15-12-13-12----12-13-15-12----|
B----------------------------------------------------------------|
G----This is played about 24 times, and it's played until the----|
D----whole song has faded out. In the end, it goes a little -----|
A----than in the beginning.--------------------------------------|
E----------------------------------------------------------------|

__________________________________________________________________

Bodies
Intro, let ring
|----------------|---------------|
|----------------|---------------|
|----------------|---------------|
|-------2-----0--|-------2--(2)--|
|----------------|---------------|
|--2/3-----3-----|--2/3------0---|
|---------------|-------------------||
|------0-----0--|------0--0--0------||
|--2b-----2--2--|--2b--2--2--2--2b--||
|---------------|-------------------||
|---------------|-------------------||
|---------------|-------------------||

Verse
4x
||-------------------------|--------------------------||
||-------------------------|--------------------------||
||*------------------------|-------------------------*||
||*------------------------|-------------------------*||
||---7/9--9--9--7/9--9--9--|--7/9--9--9-----9--9--9---||
||---5/7--7--7--5/7--7--7--|--5/7--7--7-----7--7--7---||

||-------------------------|-------------------------|
||-------------------------|-------------------------|
||*------------------------|-------------------------|
||*------------------------|-------------------------|
||---3/4--4--4--3/4--4--4--|--3/4--4--4-----4--4--9--|
||---1/6--6--6--1/6--6--6--|--1/2--2--2-----2--2--7--|
|-------------------------|--------------------------||
|-------------------------|--------------------------||
|-------------------------|-------------------------*||
|-------------------------|-------------------------*||
|--9-----9--9--7/9--9--9--|--7/9--9--9-----9--9--9---||
|--7-----7--7--5/7--7--7--|--5/7--7--7-----7--7--7---||
Chorus
||----------------------------|--------------------------|
||----------------------------|--------------------------|
||*---------------------------|--------------------------|
||*---------------------------|--------------------------|
||----5--5--5--5--5--5--5--5--|--7--7--7--7--7--7--7--7--|
||----3--3--3--3--3--3--3--3--|--5--5--5--5--5--5--5--5--|

|------------------------|--------------------------||
|------------------------|--------------------------||
|------------------------|-------------------------*||
|--6/7--7--7--6/7--7--7--|--6/7--7--7-----7--7--7--*||
|--4/5--5--5--4/5--5--5--|--4/5--5--5-----5--5--5---||
|------------------------|--------------------------||
|--------------------------||
|--------------------------||
|--------------------------||
|--------------------------||
|--7--7--7--7--7--7--7--7--||
|--5--5--5--5--5--5--5--5--||