Sie sind auf Seite 1von 72

The Shadow Of Your Smile

Words & Music by Johnny Mandel & Paul F. Webster


Recorded by Tony Bennett, 1965 (#95)
Featured in the movie "The Sandpiper"

EmF#m7B7EmA9
Theshadowofyoursmilewhenyouaregone,
EmAm7D7G
Willcolorallmydreamsandlightthedawn.
CM7F#m7B7EmB+Em7
Lookintomyeyes,mylove,andsee
Em6F#7C7F#m7B7
Allthelovelythingsyouaretome.

(N.C.)F#m7B7EmB+Em7
Ourwistfullittlestarwentfartoohigh;
Em6Am7D7Bm75E7
Ateardropkissedyourlips,andsodidI.
Am7Cm7
NowwhenIrememberspring,
F7Bm75E7
Allthejoythatlovecanbring,
A7Am7D9D7/9D7GCdimB7
Iwillberememberingtheshadowofyoursmile.

(Instrumentalinterlude:1stverse)

(N.C.)F#m7B7EmB+Em7
Ourwistfullittlestarwentfartoohigh;
Em6Am7D7Bm75E7
Ateardropkissedyourlips,andsodidI.
Am7Cm7
NowwhenIrememberspring,
F7Bm75E7
Allthejoythatlovecanbring,
A7Am7
Iwillberemembering
D9D7/9GGdimAm7Cm7G
Theshadowofyoursmile.

Jethro Tull - AQUALUNG


heavy metal intro:
888844
4.8 2 P 8 4 2
e:|-------------|-------------------------|-4-4--4-|-----6---6-------6--h:|-------------|-------------------------|-6-6--6-|-----8---8-------8--g:|-------------|-------------------------|-6-6--6-|-----8---8-------8--D:|-------------|-------------------------|-6-6--6-|-----8---8-------8--A:|-5---1-3-4-3-|-5--------1--3-4----3----|-4-4--6-|-----6---6-------6--E:|---3---------|-----3-------------------|--------|---------------------

Sitting on a park bench


eyeing little girls with bad intent.
Snot running down his nose
greasy fingers smearing shabby clothes.
Drying in the cold sun
Watching as the frilly panties run.
Feeling like a dead duck
spitting out pieces of his broken luck.
4. 8 4 8 8 8 8 4 2 8 8 8 8 8 4 8 8 4 2
e:|------|-8----8--8---6--8-|--6-8--9--9-|-6-6-6-6-9--9-|-9--7-7-5-|--------h:|------|-10---10-10--8--10|--8-10-11-9-|-8-8-8-8-9--11|-11-9-7-7-|--------g:|------|-10---10-10--8--10|--8-10-11-10|-8-8-8-8-10-11|-11-9-8-7-|--------D:|------|-10---10-10--8--10|--8-10-11-11|-8-8-8-8-11-11|-11-9-9-7-|--------A:|------|-8----8--8---6--8-|--6-8--9--11|-6-6-6-6-11-9-|-9--7-9-5-|--------E:|------|------------------|----------9-|---------9----|------7---|---------

with bad in-tent


shabby clothes
panties run
his broken luck

Hey Aqualung
Hey Aqualung
Oh Aqualung

Acustic guitar (Capo at III)


(just the Chords ... lift some of your fingers now and then and do some
finger-picking to get the right I.A. sound)
eD
A
Sun streaking cold an old man wandring lonely,
aeD
taking time the only way he knows.

eD
A
Legs hurting bad as he bends to pick a dog end .
aeD
He goes down to the bog and warms his feet.
eD
A
Feeling alone the army's up the road,
aeD
salvation a la mode and a cup of tea.
eD
A
Aqualung my friend, don't you start away uneasy.
aeF
You poor old sod see it's only me.
(faster and heavier)
eD
eDo you still remember Decembers foggy freeze
D
when the ice that clings onto your beard
ewas screaming agony?
D
eAnd your ratling last breaths with deepseadiver sounds
aD
and the flowers bloom like madness in the spring.
(G-pentatonic guitar solo)
... reapeat something of the beginning
(... please e-mail corrections)
From: jeremyj@freenet2.scri.fsu.edu (Jeremy Joseph)
Subject: Aqualung (Jethro Tull) SUGGESTIONS
Ok, well the beginning riff and rythm of Aqalung is fairly easy to
figure out, and the acoustic part in the middle isn't really hard
either, but the solo is a bit difficult, I got the first few bars down
to what I think is right, but I'm going to post all of what I know,
and since just about every guitarist in the world knows this song, I
would appreciate it if you would post your versions of parts to the
song if they are different than the ones here, especially the solo.
So, this isn't really a request for the song I just want to know how
other people play it.
Opening riff:
"Sitting on the park bench..."
e:-

B:G:D:A:--5--------3--4~--3-------E:-----3--6-----------------Verse rythm section: (play 3 string power chords)


"Eyeing little girls with bad intent..."
Db Db Db Eb Eb Eb F F F Eb F Eb F Gb Db
"Hey, Aqalung"
Eb Eb Eb Db Gb Gb E B D
I'm pretty sure everyone can do without tab here
Acoustic Part (Slow):
"Sun streaking cold, an old man..."
Gm Gm F F F F C C Cm Cm Gm Gm F F F F
Here occasionally hammer the 2nd and 3rd frets on the G string
while playing the F chords.
Acoustic Part (Faster):
"I still remember..."
Gm F F F F Gm Gm Gm
"Taking time the only time he knows..."
Gm Gm F F F F Cm Cm Gm Gm F F F F
And here is 1st part of the solo:
e:------------------------------------------------------B:------------------------------------------------------G:------10/12--14~----10\9------------------------------D:--10----------------------10------------------3-5--5/7A:------------------------------12\3--3----3h5----------E:------------------------------------------------------e:-----------------------B:------------------------ <--- Real evil sounding
G:----------------2------D:-------------2------5~-A:---2---2h4-------------E:-----------------------Well that's all I can figure out, it does two more little riffs then
gets extremely fast. Once, again please post your suggestions or
comments about this.
--

From alt.guitar.tab Wed Dec 7 11:54:33 1994


From: cbrown@ciit.org (CBrown)
Date: Tue, 06 Dec 1994 08:33:50 -0500
Newsgroups: alt.guitar.tab
Subject: Oops! Aqualung TAB Correction
Heres a correct version of Jethro Tull's Aqualung
(When I got home and picked up the guitar, I relized I was way off on a few
licks!)
The intro goes like this:
E----------------------------------------------------------------------B-----------------6--6-6--8-8--8--10--10-10----------------------------G-----------------6--6-6--8-8--8--10--10-10----------------------------D-----------------6--6-6--8-8--8--10--10-10----------------------------A---5-----3-4-3---4--4-4--6-6--6--8---8--8---6-8-6-8-9-----------------E-----3-6-----------------------------------------------9---------------

E-------------------------B--------------------7--G--------------------7--D--1-1-1-4----4-2----7--A----------4-----2---5--E-------------------------The Acoustic part goes like this:


Aqualung my friend Don't start away uneasy You poor old sod
Gm
F
C
Cm
You know its only me
Gm
F
Etc Etc.
Gm

Cm

E---3------1-----0-----3B---3------1-----1-----4G---3------2-----0-----5D---5------3-----2-----5A--(5)----(3)----3-----3E--(3)----(1)---(3)------

Get On With Your Life allman brothers band


INTRO: F7/Eb E7/D F7/Eb E7/D | C Ab/Eb C G/D
C7
F7a
I went around to your house, found you laid up in the bed.
C7
(C7(add#9))
By early afternoon you were so sloppy drunk, you couldn't even raise up your head.
F7b
F#7
C C7
So, get on with your life, baby; please, let me get on with mine.
G7
Ab7
These days and your ways are so painful,
Ab7
G7
C7 F7/Eb Ab G
You're just wasting all our precious time.
Since first I knew your name, I wasn't sure that you really cared.
Spent most of your time with the other boys & it's been all downhill from there.
So, get on with your life, baby; please, let me get on with mine.
Each day brings a new confusion; another way to break this poor heart of mine.
BRIDGE:
F7
F#dim7
I can't begin to count the times that I've told you
C7
You better change all your wicked ways.
F7
F#dim7
But I'm real sure whatever the number,
Ab7
G7
Ah, it's the same as the times you laughed in my face.
INSTRUMENTAL VERSE(S):
Won't somebody please wake me from this bad dream?
I remember my grandmama told me, "Things ain't always what they seem."
So, get on with your life, baby; please, let me get on with mine.
Each day brings another confusion,
It's about to break this poor heart of mine.
Oh, I'm gonna lose my only mind.
Baby, please, don't you break this poor heart of mine.
CHORDS:
F7a = x 0 1 2 1 x
F7b = 1 3 2 3 1 1

C7(add9) = x 3 2 3 4 x
F#dim7 = 2 0 2 3 2 0

Cry Me A River - Julie London, Joe Cocker


#1.
A7
Am7
Now you say you're lonely,
Dm7
G7
C
You cry the whole night through,
E E7 A7
Am7
Well, you can cry me a river, cry me a river,
Dm7
E7
Am E E7
I cried a river over you.
#2.
A7
Am7
Now you say you're sorry,
Dm7
G7 C
For bein' so un..true,
E E7 A7
Am7
Well, you can cry me a river, cry me a river,
Dm7
E7
Am
I cried a river over you.
CHORUS:
Am7
E7
Dm7
E7
You drove me, nearly drove me, out of my head,
E Am
Dm7 E7
while you never shed a tear.
Am7
E E7 Dm7
E7
Remember...I remember all that you said...
Am7
Am
told me love was too plebeian,
Am7
Am
Bb7 E7
told me you were through with me...and...
#3.
A7
Am7
Now you say you love me,
Dm7
G7
C
Well, just to prove you do,
E E7 A7
Am7
Come on and cry me a river, cry me a river,
Dm7
E7
Am Dm7 E7..Bb7 E7 Am
I cried a river over you.
CHORUS:
REPEAT#3.
ADD:
Am7
Dm7 E7 Am Dm7 E7..Bb7 E7 Am
I cried a river..over..you(x3).

IT'S ALL OVER NOW - ROLLING STONES


CAPO: 1st FRET
INTRO: E D A B -- 2x's
VERSE:
E
Well, baby used to stay out all night long
She made me cry, she done me wrong
She hurt my eyes open, that's no lie
Tables turning, now it's her turn to cry
CHORUS:
B
Because I used to love her
A
E
But it's all over now
B
Because I used to love her
A
E
But it's all over now
VERSE:
Well, she used to run around with every man in town
Spent all my money playin' a high-class game
She put me out, it was a pity how I cried
The tables turning, now it's her turn to cry
CHORUS:
Because I used to love her
But it's all over now
Because I used to love her
But it's all over now
INSTRUMENTAL: SOLO OVER CHORUS CHORDS -- 3x's
VERSE:
Well, I used to wake up in the morning
Get my breakfast in bed
When I gotten worried
She could ease my aching head
But now she's here and there
With every man in town
Instead of trying to take me
For that same old clown

CHORUS:
Because I used to love her
But it's all over now
Because I used to love her
But it's all over now
Because I used to love her
But it's all over now
OUTRO: B A E -- 4x's TO FADE

Rory Gallagher - Continental Op


Chord Intro:
A7(X3) forceful downward strokes only... repeat with A(x3), then G7 sliding to A7(sustained).
Verse 1:
A7
A
There's a body in the bay
A7
A
The cops are taking it away
A7
A
They said this case was closed
A7
A
It only shows you that - never know
E7
E
So who they gonna get when the troubles got to stop
A
A
Here's my card
A
G7
G A
I'm the Contintental Op
Verse 2:
Jane Doe in the bay
Now that's exhibit 'A'
Bloodstains on the dress of the millionairess
But I saw you leavin' town
I'm gonna have to track you down
Just like a hound
You slipped through the web
And you might have dodged the Feds
But who they gonna get when you've outfoxed the cops
Here's my number
I'm the Continental Op
First Guitar Solo Slide
Chorus:
Dm7
D
Call the agency, we never close
Dm7
D
First consultation is free
Dm7
D
Check my reputation an' my post
E7
E
A
(But) ...first ya oughta check my fee
Verse 3:
There's a menace on the streets
Offering infants sweets
Don't give this man a ride

Lock your car from the inside


(He's) ...suspect No. 1
But I guess his race is run
He left a set of prints
He ain't as smart as ya think
But who they gonna get when you've outfoxed the cops
Here's my card
I'm the Continental Op
Second Guitar Solo - Fuzz
Verse 4:
There's a body in the bay
The cops have taken it away
They say this case was closed
It only shows that you never know
Bruises 'round the neck
When they did a body check
I saw you leaving town
I'll track you down like a hound
Who they gonna get when you've outfoxed the cops
Here's my card
I'm the Continental Op
E7
E
Yeah, who they gonna get when you've out foxed they cops
A7
A
Here's my badge
A
G7
G A
I'm the Continental Op.
______
Footnotes:
1. Lyrics for Verses 1 to 3 confirmed from Rory Gallagher "Live at Montreaux" DVD (2006)
2. Lyrics for Verse 4 from Rory Gallagher "Meeting With the G Man" CD [IMPORT] (2003)
3. Additional verse courtesy of"The Thrilling Detective Web
Site":http://www.thrillingdetective.com/trivia/triv187.html
4. See "Contnental Op": http://www.bookrags.com/wiki/The_Continental_Op for background
Rory's song.
5. After transcribing but a small portion of this song you appreciate how much effort and his band
put into their work!

Rory Gallagher - WHEN MY BABY SHE LEFT ME


When my baby she left me,
Left me with a mule to ride,
When my baby she left me,
Left me with a mule to ride,
When that train left the station,
That old mule laid down and died.
Just give my baby,
A brand new twenty dollar bill,
I done give my baby.
A brand new twenty dollar bill,
If that don't get her back,
I swear this old shotgun will.
Standing down by the landing,
Big old board on the door,
Standing down by the landing,
Big old board on the door,
When I say goodbye,
Won't see that girl no more.
Look out baby,
Gonna spread the news,
Look out baby,
Got to spread the news,
Treat me so bad,
I'm buried with these blues.
When my baby she left me,
Left me with a mule to ride,
When my baby she left me,
Left me with a mule to ride,
When that train left the station,
That old mule laid down and died.
Yeah............

Jimi Hendrix - Come on(Let the Good Times Roll)


People talkin' but they just don't know,
What's in my heart, and why I love you so.
I love you baby like a miner loves gold.
Come on sugar, let the good times roll. hey!
So many people live in make believe,
They keep a lot a doin' up their sleeve.
But my lovin' baby ain't the kind that folds.
Come On Baby, let the good times roll.
(Let the good times roll).
Ah baby, come on and let daddy fill your soul.
baby, let the good times roll. HEY!
A love is nice if it's understood
It's even nicer when you're feelin' good
You got me flippin' like flag on a pole
Come on sugar, let the good times roll
Hey! Yeah! Let the good times roll!
feel me baby! Come on, good times roll!
come on and let me fill your soul,
hey, let the good times roll

Oh Well - Fleetwood Mac


E---------------------------------------------------------B---------------------------------------------------------G---------------------------------------------------------D------------0---------2-2-2-------------0-----2----2-2---A-------0h2-----2-0----2-2-2---------0h2---0h2------2-2---E-0h3-0-------------3--0-0-0---0h3-0--------------3-0-0---e|--------------------------------------------------------B|--------------------------------------------------------G|--------------------------------------------------------D------------0---------2-2-2------------0h3-0-------------A-------0h2-----2-0----2-2-2--------0h2-------2-0--------E-0h3-0-------------3--0-0-0--0h3-0---------------3-2-0-0-e|-------------12-12-12-12----------------12-12-12-12-----B|-------------12-12-12-12----------------12-12-12-12-----G|-------------12-12-12-12----------------12-12-12-12-----D|-0h2-2-2-2-2--------------------------------------------A|--------------------------5h7-7-7-7-7--------------------

E|--------------------------------------------------------e|---------------12-12-12-12----------------------------B|---------------12-12-12-12----------------------------G|---------------12-12-12-12----------------------------D|------------------------------------------------------A|-5h7-7-7-7-7-------------------5h7-7-7-7-7-7----------E|------------------------------------------------------e|--------------------------------------------------------B|--------------------------------------------------------G|-------12-----------------12-----------------12---------D|-12h14----14-12h14--12h14----14-12h14--12h14----14-12h14A|--------------------------------------------------------E|--------------------------------------------------------e|--------------------------------------------B|--------------------------------------------G|-------12----------------12----14----15-----D|-12h14----14-12h14-12h14----14----14----14--A|--------------------------------------------E|--------------------------------------------e|----------------------------------------------B|-------------------------------16-18----------G|----------------------12h14/16----------------D|-------------12-13-14-------------------------A|-10/12-13-14----------------------------------E|-----------------------------------------------

Oh Well - Fleetwood Mac


I cant help about the shape Im in
I cant sing, I aint pretty and my legs are thin
But dont ask me what I think of you
I might not give the answer that you want me to
Oh well
Now, when I talked to God I knew hed understand
He said, stick by my side and Ill be your guiding hand
But dont ask me what I think of you
I might not give the answer that you want me to
Oh well

White Room

intro
Gm F
ah ah

Dm
ah

C Gm
ah ah

F
ah

Dm
ah

C A7
ah ah

verses
D
Cadd9 G/B
Bb/F C/G
------------------------------|
-----3-----3------3---3-----5-|
-----2-----0------0---3-----5-|
-0-0-------2------0---3-----5-|
-------3-3----2-2-----1-----3-|
----------------------1-----3-|

D Cadd9 G/B Bb/F C/G D Cadd9 G/B Bb/F C/G


(1)In a white room with black curtains near the station
Blackroof country no gold pavements tired starlings
Silver horses run down moonbeams in your dark eyes
Dawnlight smiles on your leaving my contentment
C G/B Bb A
(1)Ill wait in this place where the sun never shines
C G/B Bb C D
Wait in this place where the shadows run from themselves
(2)You said no strings could secure you at the station
Platform ticket restless diesels goodbye windows
I walked into such a sad time at the station
As I walked out felt my own need just beginning
C G/B Bb A
(2)Ill wait in the queue when the trains come back
C G/B Bb C D
Ill wait for you where the shadows run from themselves
(3)At the party she was kindness in the hard crowd
Consolation from the old wound now forgotten
Yellow tigers crouched in jungles in her dark eyes
Shes just dressing goodbye windows tired starlings
C G/B Bb
(3)Ill sleep in
C G/B Bb
Lie in the dark

A
this place with the lonely crowd
C D
where the shadows run from themselves

chorus
C G/B Bb A C G/B Bb C D
--------------------------------------------------------------------|
-1-----3-----3-----2-----1-----3-----2-----5------7-----------------|
-0-----0-----3-----2-----0-----0-----2-----5------7---------7-7---7-|
-2-----0-----3-----2-----2-----0-----2-----5------7-----7h9-----9---|
-3-----2-----1-----0-----3-----2-----1-----3------5-----------------|
--------------------------------------------------------------------|

Are You Gonna Go My Way Tab by Lenny Kravitz, www.Ultimate-Guitar.Com


Tabs: Lenny Kravitz: Are You Gonna Go My Way?

Riff 1: ---- 2x ---|-------------------------------------------3----|


|-------------------------------------------3----|
G 1 |-2-^4-^2-p0-------------2-^4-^2-p0--------------|
|------------2---0-2----------------2---0-2------|
|------------------------------------------------|
|--------------0-------0--------------0----------|
Riff 2: ---- 6x ---|-------------------------------------------3----|
|-------------------------------------------3----|
G 1 |-2-^4-^2-p0-------------2-^4-^2-p0--------------|
|------------2---0-2----------------2---0-2------|
|------------------------------------------------|
|--------------0-------0--------------0----------|
|
|
|
|
|------------------------------------------------|
|-10^12^10p8-------------10^12^10p8--------------|
G 2 |------------9---7-9----------------9---7-9------|
|------------------------------------------------|
|------------------------------------------------|
|------------------------------------------------|
|--------------------------------------------------------| Riff 3: ---- 4x ---|
|------------------------------------------------|
|
|------------------------------------------------|
| G1|-2-^4-^2-p0-------------2-^4-^2-p0--------------|
|
|------------2---0-2----------------2---0-2------|
|
|------------------------------------------------|
|
|--------------0-------0--------------0-------0--|
|
|
I was born long ago
|
I am the chosen I'm the one
|
I have come to save the day
|
And I won't leave until I'm done
|--------------------------------------------------------|
-- 3x -||
|
|-----------------------||-------------------|
|
|-----------------------||-------------------|
| G1 |-5-^7-^5-p3------------||--5---4---3--2--4--|
|
|------------5-0-3-5--0-||-------------------|
|
|-----------------------||-------------------|
|
|-----------------------||-------------------|
|
|
|
|
|
-- 3x -||
|
|
|-----------------------||-------------------|
|
|-13^15^13p11-----------||-------------------|
| G 2 |------------12--10-12--||--12--10--9--10-12-|
|
|-----------------------||-------------------|
|
|-----------------------||-------------------|

|
|-----------------------||-------------------|
|
|
So that's why you've got to try
|
You've got to breathe and have some fun
|--------------------------------------------------------| Riff 3 2x
|
|
Though I'm not paid I play this game
|
And I won't stop until I'm done
|--------------------------------------------------------|
|
|
|
|
|
|
|

Chorus:
|----0-------------------0--------------------|
|----0-------------------0--------------------|
|----7-------------------6--------------------|
|----9-------------------7--------------------|
|---------------------------------------------|
|---------------------------------------------|
But what I really want to know is

|
|
|
|
|
|
|

|------------------------------------------|
|-9-9-7-9---------------------9-9--12-9----|
|-9-9-7-9---------------------9-9--12-9----|
|-9-9-7-9---------------------9-9--12-9----|
|------------------------------------------|
|------------------------------------------|
Are you gonna go my way

|
|----0---------------0------------------------|
|
|----0---------------0------------------------|
|
|----7---------------6------------------------|
|
|----9---------------7------------------------|
|
|---------------------------------------------|
|
|---------------------------------------------|
|
And I got to got to know
|
|--------------------------------------------------------Riff 1 1x
Riff 2 3x
|--------------------------------------------------------Riff 3 4x
I don't know why we always cry
This we must leave and get undone
We must engage and rearrange
And turn this planet back to one
|---------------------------------------------------------- 3x --------- ||
|-----------------------||-------------------|
|-----------------------||-------------------|
|-5-^7-^5-p3------------||--5---4---3--2--4--|

|------------5-0-3-5--0-||-------------------|
|-----------------------||-------------------|
|-----------------------||-------------------|
|
|
|
-- 3x -------- ||
|
|-----------------------||-------------------|
|-13^15^13p11-----------||--13--12--11-10-12-|
|------------12--10-12--||-------------------|
|-----------------------||-------------------|
|-----------------------||-------------------|
|-----------------------||-------------------|
So tell me why we got to die
And kill each other one by one
|--------------------------------------------------------Riff 3 2x
We've got to love and rub-a-dub
We've got to dance and be in love
|--------------------------------------------------------Chorus
|--------------------------------------------------------Solo:
12x in total --- ending with:
|---------------------------------||-----------------|
|-9-----7-------7-------5-5-7-5---||-----------------|
|-9-----7-------7-------6-6-7-6---||-----------------|
|-9-----7-------7-------7-7-7-7---||-----0-1---------|
|---------------------------------||---4-------------|
|---------------------------------||-----------------|
(repeat 4x by itself, then 8x under solo
|--------------------------------------------------------Outro:
Riff 2 4x
|-0----------0-------0-------------0-------|
|-0----------0-------0-------------0-------|
|-7----------6-------7-------------6-------|
|-9----------7-------9-------------7-------|
|------------------------------------------|
|--------------------------------------------------------|------------------------------------------|
|-9-9-7-9---------------------9-9--7--9----|
|-9-9-7-9---------------------9-9--7--9----|
|-9-9-7-9---------------------9-9--7--9----|

|------------------------------------------|
|------------------------------------------|
Are you gonna go my way
|-0---------------0------------------------|
|-8---------------7------------------------|
|-7---------------6------------------------|
|-9---------------8------------------------|
|------------------------------------------|
|------------------------------------------|
'cause Baby I got to know
-- Solo -E-|--------------------------------------------------------------------|
B-|--------------------------------------------------------------------|
G-|----------12h14p12vvvbbb--------------------------------------------|
D-|-14vvvv------------------14p12-12--14-------------------------------|
A-|--------------------------------------12b14--12---------------------|
E-|------------------------------------------------15---12-10-12-12sss-|
E-|-----------------------------------------------------------------------|
B-|------------------------------------------------------17----15s17vvvvv-|
G-|-----------------------9h11b13----9h11p9----9h11sss16----16------------|
D-|------9---11p9----9h11-------------------11----------------------------|
A-|--s11----------11------------------------------------------------------|
E-|-----------------------------------------------------------------------|
E-|---------------------------15--17b19vvv--17b19vv-17b19vv-17b19vvv-|
B-|17vvvvvvvvv19p17vvvv17vv17vvv-------------------------------------|
G-|------------------------------------------------------------------|
D-|------------------------------------------------------------------|
A-|------------------------------------------------------------------|
E-|------------------------------------------------------------------|
E-|-17b19rb17p15-----------------------------|
B-|--------------17vv-----17vv-----17b20vvv--|
G-|------------------------------------------|
D-|------------------------------------------|
A-|------------------------------------------|
E-|------------------------------------------|
E-|-----------------------------------------------------------------|
B-|--17b20v--17b20v--17b20v--17b20v--17b20v--17b20rb17p15----15--17-|
G-|-------------------------------------------------------16--------|
D-|-----------------------------------------------------------------|
A-|-----------------------------------------------------------------|
E-|-----------------------------------------------------------------|
E-|---------------------------------12----------12----------------|

B-|------------------------------------12-15b17----15p12----------|
G-|-16p14p12----12h14p12-----14b16-----------------------14p12----|
D-|----------14----------14------------------------------------14-|
A-|---------------------------------------------------------------|
E-|---------------------------------------------------------------|
E-|-12----------12--------------------------|
B-|----12-15b17----15p12--------------15p12-|
G-|----------------------14p12--14b16-------|
D-|-----------------------------------------|
A-|-----------------------------------------|
E-|-----------------------------------------|
E-|------12-------12--------15p12----12------------------------------|
B-|15b17----15b17----15b17--------15------15p12----15--12------------|
G-|---------------------------------------------14---------14p12--14-|
D-|------------------------------------------------------------------|
A-|------------------------------------------------------------------|
E-|------------------------------------------------------------------|
E-|-----------------------------|
B-|-----------------------------|
G-|-12b14rb12p9---12vvvvvvvvvv--|
D-|-----------------------------|
A-|-----------------------------|
E-|-----------------------------|

Red House - Jimi Hendrix


Im just tabbing out the licks in between the lyrics in the verses(verses 1 &
2 starts off with a B chord). This is my own work so maybe you
shouldnt completely trust it! I took the intro nearly note for note with a
few changes from the first one posted by "sub g". The solo is different and
complete and the verses and ending are included.
INTRO|-----11----11----------11----11----11-|-------10----10-----10-----10-----10|
|-/10-10----------10----10----10----10-|-10/9--9-----9---9--9------9---9--9-|
|-/11----11----11----11----11----11----|-11/10----10-----------10---------10|
|--------------------------------------|------------------------------------|
|--------------------------------------|------------------------------------|
|--------------------------------------|------------------------------------|
T.
|-----------------------------------------------7--------9-7----------------|
|-7-----10B--10B--10B-----10B-10-10B-10-----7-----10-7--------10-7----------|
|-8--------------------------------------9B--------------------------9B~~---|
|-9-------------------------------------------------------------------------|

|---------------------------------------------------------------------------|
|-7-------------------------------------------------------------------------|
|----------------------------------7--------7---------7--7---------7----7---|
|----- (7)-----------------------7----10~---7-------7----10p7------7h9--7---|
|-7h9B--7~~~~-----8/9B--7~~---9B-----------------9B------------9------------|
|---------------------------------------------------------------------------|
|---------------------------------------------------------------------------|
|---------------------------------------------------------------------------|
|---------------------------------------------------------------------------|
|--------------------------------------------------------12~--14B------14B--|
|-9--7/8----------------------------------------11h12/13--------------------|
|--------9-7-------------------------9~---11/13-----------------------------|
|------------9-8-7-5/6~---------9h11----------------------------------------|
|--------------------------7/11---------------------------------------------|
|-----------14-----14-------------------------------------------------------|
|-14B--14B~~~~14B~~~~14BR----12h14p12--12~----15BR-15B--15BR---12-----------|
|-----------------------------------(13)------------------------------------|
|---------------------------------------------------------------------------|
|---------------------------------------------------------------------------|
|---------------------------------------------------------------------------|
(#)
|---------14------------------7------10br7-----9b---7---------7-------------|
|-12h14B~~~~14RB--12\-------7---10-7------------------7-----7---------------|
|------------------------/8------------------------------9B------7----------|
|-------------------------------------------------------------------10------|
|-----------------------------------------------------------------------10--|
|---------------------------------------------------------------------------|
VS 1...yonder
(* )
|---------7-----7-----------------|
|---------7h9----7----------------|
|-----------------x---------------|
|------------------9~-------------|
|---------------------------------|
|------------------------0--------|
...stays
|-------------7---------------------7-----------------|
|-----------7----10B~~-7----------7----10p7------7----|
|--------9B------------------9B---------------9-----9-|
|-----------------------------------------------------|
|-----------------------------------------------------|
|-----------------------------------------------------|
|--------------------------------------------|
|----------7-7---9----7----------------------|
|-----7-9----------9---7--9----7/9---7-------|
|-/9------------------------9-----------9p7--|
|--------------------------------------------|
|--------------------------------------------|

...yonder
(* )
|---------7-----7--------------|
|---------7h9----7-------------|
|-----------------x------------|
|------------------9~~~\2------|
|------------------------------|
|------------------------------|
...stays
|----------------------------------------------------------------|
|----------------------------------------------------------------|
|----------------------------------------------------------------|
|---------7/9~~----9\7------------7/9---7------------------------|
|---------------------------7-8-9---------9-8-7------------xx--4-|
|-----------------------10-----------------------10p7------xx--2-|
...baby
|----------------------|
|----------------------|
|----------------------|
|-----------------2----|
|------------2h4-------|
|-------2/4----------0-|
...days
|------------------------------------------------/7-------------------------|
|-----------7-9-7--------------------------7h9---/7------------7------------|
|-------/7B~~~~~~~7PBR----------4~~-----7B-----------------/8---------------|
|-----------------------4/6-4h6---------------------------------------------|
|-----------------------------------------------------------------9~--------|
|---------------------------------------------------------------------------|
VS 2...wrong
(* )
|----------7----7------------------------|
|----------7h9---7-----------------------|
|-----------------x----7h9--7------------|
|------------------9-----------9p7--9----|
|----------------------------------------|
|----------------------------------------|
...door
|-----------7-------7----7---------7------9-7----------7--------------------|
|---------7---10B~~---10---------7---10-7-----7h10B~~-----10p7--------------|
|------9B---------------------9B--------------------------------------------|
|---------------------------------------------------------------------------|
|---------------------------------------------------------------------------|
|---------------------------------------------------------------------------|
|----7-------/12-10---------------------|
|---7--10-7---------12-10---------------|
|-9B----------------------11-10-9-7~----|
|---------------------------------------|
|---------------------------------------|

|---------------------------------------|
...wrong baby
|----------------------------------|
|----------------------9\7---------|
|----------------------------------|
|----------------------------------|
|---------------9/11---------------|
|----------------------------------|
..door with this)
|---------7----------------------------------------|
|------7--7----------------------------------------|
|------9B-------------------9BRp7---7~-------------|
|---------------------------------9-----9p7----7~~-|
|--------------------------------------------9-----|
|--------------------------------------------------|
...feelin
|----------9/11\9~~-7/9\7---------|
|----------x----------------------|
|----------9/11\9~~-7/9\7---------|
|---------------------------------|
|---------------------------------|
|---------------------------------|
..more
|-------------7--------------------------------------|
|-----------7----10p7-------7------------------------|
|------9B---------------9B---7--9---7/9---7----------|
|--------------------------------9----------9p7------|
|-----------------------------------------------9----|
|----------------------------------------------------|

SOLO|---7-7-------10-12B--10----10-----------14B---14-12-14-10-12-12PB----------|
|-7------/12------------12------------12------------------------------------|
|---------------------------------/13---------------------------------------|
|---------------------------------------------------------------------------|
|---------------------------------------------------------------------------|
|---------------------------------------------------------------------------|
|--10h12p10-----10h12p10-----10h12p10------10-12B--10h12p10\7---------------|
|-----------12-----------12-----------12----------------------10B-----------|
|---------------------------------------------------------------------------|
|---------------------------------------------------------------------------|
|---------------------------------------------------------------------------|
|---------------------------------------------------------------------------|
(Keep repeating this..)
|-7------------------------------------7------9p7------10p7---10p7----------|
|---10p7-7h10p7-----------------------7--10p7-----7---------7-----7---------|
|---------------9-7h9p7---7--------9B---------------------------------------|
|-----------------------9---------------------------------------------------|

|---------------------------------------------------------------------------|
|---------------------------------------------------------------------------|
|-10B-10--7-9p7-----7------7----------7-------------------------------------|
|----------------10--10B-----10p7----7--10p7-----7--------------------------|
|----------------------------------9B---------9B---9p7----9---7-------------|
|-------------------------------------------------------9---9---------------|
|---------------------------------------------------------------------------|
|---------------------------------------------------------------------------|
|----7------10p7------10B-10--7---------7----10B-10-7-----10B-10-7----------|
|---7--10p7------7--------------7---10--7-------------7------------7--------|
|-9B------------------------------------------------------------------------|
|---------------------------------------------------------------------------|
|---------------------------------------------------------------------------|
|---------------------------------------------------------------------------|
|-10B-10-7------/12-14--13/14-14---17B-17-14h17p14---17-14------------------|
|----------7---------------------------------------17------17B--17-15h17p15-|
|---------------------------------------------------------------------------|
|---------------------------------------------------------------------------|
|---------------------------------------------------------------------------|
|---------------------------------------------------------------------------|
|----------------7------10------------14B-14--14B-14--14B-14--12h14--10B----|
|----15~~\-----7----/12----12p10---12---------------------------------------|
|-16--------/8--------------------------------------------------------------|
|---------------------------------------------------------------------------|
|---------------------------------------------------------------------------|
|---------------------------------------------------------------------------|

|------7--12/19----------7--------------------------------------------------|
|----7-----------------7---10p7--------7h9--7-------------------------------|
|-9B------------7~--9B----------7------8h9---7------------------------------|
|---------------------------------9-----------9-----------------------------|
|-----------------------------------9----------9--------8--9----------------|
|---------------------------------------------------0---6--7----------------|
im skippin VERSE 3 coz im too lazy but they are practically the same licks as
the rest of the song.
End|------7-9-7---7h9p7---7--9B------------7---7-------------------------------|
|-7--7-------9-------9--------9--8------7h9-7-------------------------------|
|-9B--------------------------10-9------------9-7/8-------------------------|
|-----------------------------9--8------------------9p7---7-----------------|
|-------------------------------------------------------9---9p7\5~~---------|
|---------------------------------------------------------------------------|

Keep the faith Bon Jovi


Intro G | F | G | G | Bb | C | G
Verse 1
G Bb C G
Mother mother tell your children that their t
ime has just begun
G Bb C Eb F G
I have suffered for my anger, there are wars
that can't be won
Verse 2
Father father please believe me I am laying
down my guns
I am broken like an arrow forgive me forgiv
e your wayward son
Verse 3
(Everybody needs somebody to love) mother
mother (Everybody needs somebody to hate)
please believe me
Everybody's bitching 'cause they can't get en
ough and it's hard to hold on when

there's no one to lean on


Chorus
G Bb F C G
Faith! You know you're gonna live thru the r
ain Lord you got to keep the faith
G Bb F C G
Faith! Don't let your love turn to hate right
now we got to keep the faith
G
Keep the faith, keep the faith Lord we got to
keep the faith
G | Bb | C | G
Verse 4
Tell me baby when I hurt you do you keep it
all inside
Do you tell me all's forgiven and just hide be
hind your pride
Verse 5
(Everybody needs somebody to love) mother
mother (Everybody needs somebody to hate)
please believe me
Everybody's bleeding 'cause the times are to
ugh and it's hard to be strong when

there's no one to dream on


Chorus
Faith! You know you're gonna live thru the r
ain Lord you got to keep the faith
Faith! You know it's not to late right now we
got to keep the faith
Faith! Don't let your love turn to hate Lord
we got to keep the faith
Keep the faith, keep the faith Lord we got to
keep the faith
Solo G | Bb | C | G (3x), G | Bb | C | Eb - F |
G
Verse 6
Walking in the footsteps of society's lies I do
n't like what I see no more, sometimes
I wish that I was blind
Sometimes I wait forever to stand out in the
rain so no one sees me cryin' trying to
wash away the pain
Verse 7

Mother father there's things I've done I can'


t erase every night we fall from grace
It's hard with the world in your face, trying t
o hold on, trying to hold on.
Chorus
Faith! You know you're gonna live thru the r
ain Lord you got to keep the faith
Faith! Don't let your love turn to hate right
now we got to keep the faith
Keep the faith, Keep the faith try to hold on,
trying to hold on
Faith! Keep the faith, Keep the faith try to h
old on, trying to hold on

You Don't Love Me


Allman Brothers
Baby, You don't love me
You don't love me yes I know
Baby, You don't love me
You don't love me yes I know
But you keep me mistreated
Now I've got no place to go
I'm gonna tell your mother
I'm gonna tell your pappa too
I'm gonna tell your mother
I'm gonna tell your pappa too
I'm gonna tell everbody
What those young girls will do to you
Goodbye now, pretty baby,
If I don't see you no more.
Goodbye now, pretty baby,
If I don't see you no more.
Well if you think I'll be your fool
Lord,you better be on your merry way.

Allman Brothers Band One Way Out


Ain't but one way out baby, Lord I just can't go out the door.
Ain't but one way out baby, and Lord I just can't go out the door.
Cause there's a man down there, might be your man I don't know.
Lord you got me trapped woman, up on the second floor;
If I get by this time I won't be trapped no more.
So raise your window baby, and I can ease out soft and slow.
And lord, your neighbors, no they won't be
Talking that stuff that they don't know.
Lord, I'm foolish to be here in the first place,
I know some man gonna walk in and take my place.
Ain't no way in the world, I'm going out that front door
Cause there's a man down there, might be your man I don't know.
Cause there's a man down there, might be your man I don't know.
Cause there's a man down there,
Lord, it just might happen to be your man...
Lord, it just a might be your man,
Mmm-mm-mmm-mm...
Lord, it just a might be your man,
Oh baby, I just don't know..

Children Of The Revolution - T Rex


Yeah
E
Well you can bump and grind
E
It is good for your mind
E
Well you can twist and shout let it all hang out
G
C
AM
But you won't fool the children of the revolution
G
C
AM
No you won't fool the children of the revolution, no no no
E
Well you can tear a plane in the falling rain
E
I drive a rolls royce 'cos it's good for my voice
E
But you won't fool the children of the revolution
E
No you won't fool the children of the revolution, no no no - yeah!
G
C
AM
But you won't fool the children of the revolution
AM
G
C
AM
No you won't fool the children of the revolution
AM
G
C
AM
No you won't fool the children of the revolution
AM
G
C
AM
No you won't fool the children of the revolution
E
No way, yeah, wow!

Rebel Yell - Billy Idol


B
Last night a little dancer came dancin' to my door
A
G
E D A
Last night a little angel Came pumpin cross my floor
B
She said "Come on baby I got a licence for love
A
G
E D A
And if it expires pray help from above
CHORUS
B
In the midnight hour she cried- "more, more, more"
A
G
E D A
With a rebel yell she cried- "more, more, more"
B
In the midniight hour babe- "more, more, more"
A
G
E
D
A
B

With a rebel yell- "more, more, more" More, more, more.


VERSE 2
B
She don't like slavery, she won't
A
But when I'm tired and lonely she
B
What set you free and brought you
A
G
What set you free I need you hear
CHORUS
B
In the
A
With a
B
In the
A
With a

sit and beg


G
E
sees me to bed

D A

to be me babe
E D A
by me
Because

midnight hour she cried- "more, more, more"


G
E D A
rebel yell she cried- "more, more, more"
midnight hour babe- "more, more, more"
G
E E
rebel yell- "more, more, more"

BRIDGE
G

F#

F#

F#

F#

E
He lives in his own heaven
E
Collects it to go from the seven eleven
E
Well he's out all night to collect a fare
E
Just so long, just so long it don't mess up his hair.

INTRO
SOLO - NOT TABBED - PROGRESSION SAME AS CHORUS
DRUM BREAK
VERSE - BASS ONLY
B
I
A
A
B
I
A
A

walked the ward with you, babe


G
E D A
thousand miles with you
dried your tears of pain, babe
G
E D A
million times for you

B
I'd sell my soul for you babe
A
G
E D A
For money to burn with you
B
I'd give you all, and have none, babe
A
G

Just, just, justa, justa to have you here by me


GUITAR IN
D A
Because
CHORUS
B
In the
A
With a
B
In the
A
With a

midnight hour she cried- "more, more, more"


G
E D A
rebel yell she cried- "more, more, more"

midniight hour babe- "more, more, more"


G
E
D
A
B
rebel yell she cried "more, more, more" More, more, more.
A
Oh yeah little baby
G
she want more
E
A
D
B
More, more, more, more, more.
A
Oh yeah little baby
G
she want more
E
D
A
B
More, more, more, more, more.

WHITE WEDDING - Billy Idol


Intro:
Bm
Bm
Bm
Bm
Bm
Hey
Bm
Hey
Bm
Hey
A
Hey
Bm
Hey

Bm
D

E
E

D
Bm

little sister what have you done


little sister who's the only one

little sister who's your superman


little sister who's the one you want
little sister shot gun!

A
E
It's a nice day to start again
Bm
E
D
It's a nice day for a white wedding
Bm
E
D
Bm
It's a nice day to start again.
Bm
Hey little sister what have you done
Bm
Hey little sister who's the only one
Bm
I've been away for so long (so long)
A
I've been away for so long (so long)
Bm
I let you go for so long
Chorus
Bm
Bm
Bm
Bm

and Intro
Bm
E
Bm
D
Bm
E
Bm
D

Bm
Bm
A
(Pick it up)
E
Bm
Take me back home

D
E
E
E

Bm

There is nothin' fair in this world


There is nothin' safe in this world
And there's nothin' sure in this world
And there's nothin' pure in this world
Look for something left in this world
Start again
Come on
It's
It's
It's
It's

a
a
a
a

nice
nice
nice
nice

day
day
day
day

for a white wedding


to start again.
for a white wedding
to start again

Out Of Control - Rolling Stones


*INTRO: 3x's
(IMPLIED CHORDS)
A A D D11 Bm D E D A A D D11 Bm D11 Bm
E -----------------|-----------|-----------------------B -----------------|-----------|-----------------------G -----------------|-----------|-----------------------D -----------------|-----------|-----------------------A --------5--------|--5--7--5--|--------5--------------E --7--7-----5--7--|-----------|--7--7-----5--7---5---7*VERSE:
I was out in the city
I was out in the rain
I was feeling down-hearted
I was drinking again
*VERSE:
I was standing by the bridges
Where the dark water flows
I was talking to a stranger
About times long ago
PRE-CHORUS:
D
I was young
A
I was foolish
F#
I was angry
Bm
I was vain
D
I was charming
A
I was lucky
F#
Bm
Tell me how have I changed
CHORUS:
D
Now I'm out
A
Bm
Oh out of control
D
Now I'm out
A
Bm
Oh out of control

( N.C.)
Oh help me now
VERSE:
And the girls in the doorway
And the boys on the game
And the drunks and the homeless
They all know me
VERSE:
And the police on the corner
Give a nod and a wave
As they point me
To my final destination
PRE-CHORUS:
I was young
I was foolish
I was angry
I was vain
I was charming
Feeling lucky
Tell me how have I changed
CHORUS:
Now I'm out
Oh out of control
Now I'm out
Oh out of control
Oh help me now
INSTRUMENTAL: play intro riff -- 4x's
VERSE:
In the hotel I'm excited
By the smile on her face
But I wondered
How was time
Gonna change her
PRE-CHORUS:
I was young
I was foolish
I was angry
I was vain
I was charming

I was out there


Tell me how have I changed
CHORUS:
Now I'm out
Oh out of control
Oh I'm out
Oh out of control
OUTRO: D A Bm -- 6x's to fade

Cream Sunshine Of Your Love


D

It's gettin' near dawn,


When lights close their tired eyes.
I'll soon be with you my love,
To give you my dawn surprise.
G
I'll be with you darling soon,
I'll be with you when the stars start falling.
I've been waiting so long
To be where I'm going
C
G A
In the sunshine of your love.
I'm with you my love,
The light's shinin' through on you.
Yes, I'm with you my love,
It's the morning and just we two.
I'll stay with you darling now,
I'll stay with you till my seeds are all dried up.
I've been waiting so long
To be where I'm going
In the sunshine of your love.
I'm with you my love,
The light's shinin' through on you.
Yes, I'm with you my love,

It's the morning and just we two.


I'll stay with you darling now,
I'll stay with you till my seeds are all dried up.
I've been waiting so long
I've been waiting so long
I've been waiting so long
To be where I'm going
In the sunshine of your love.

White Room
intro
Gm F
ah ah

Dm
ah

C Gm
ah ah

F
ah

Dm
ah

C A7
ah ah

verses
D
Cadd9 G/B
Bb/F C/G
------------------------------|
-----3-----3------3---3-----5-|
-----2-----0------0---3-----5-|
-0-0-------2------0---3-----5-|
-------3-3----2-2-----1-----3-|
----------------------1-----3-|

D Cadd9 G/B Bb/F C/G D Cadd9 G/B Bb/F C/G


(1)In a white room with black curtains near the station
Blackroof country no gold pavements tired starlings
Silver horses run down moonbeams in your dark eyes
Dawnlight smiles on your leaving my contentment
C G/B Bb A
(1)Ill wait in this place where the sun never shines
C G/B Bb C D
Wait in this place where the shadows run from themselves
(2)You said no strings could secure you at the station
Platform ticket restless diesels goodbye windows
I walked into such a sad time at the station
As I walked out felt my own need just beginning
C G/B Bb A
(2)Ill wait in the queue when the trains come back
C G/B Bb C D
Ill wait for you where the shadows run from themselves
(3)At the party she was kindness in the hard crowd

Consolation from the old wound now forgotten


Yellow tigers crouched in jungles in her dark eyes
Shes just dressing goodbye windows tired starlings
C G/B Bb
(3)Ill sleep in
C G/B Bb
Lie in the dark

A
this place with the lonely crowd
C D
where the shadows run from themselves

chorus
C G/B Bb A C G/B Bb C D
--------------------------------------------------------------------|
-1-----3-----3-----2-----1-----3-----2-----5------7-----------------|
-0-----0-----3-----2-----0-----0-----2-----5------7---------7-7---7-|
-2-----0-----3-----2-----2-----0-----2-----5------7-----7h9-----9---|
-3-----2-----1-----0-----3-----2-----1-----3------5-----------------|
--------------------------------------------------------------------|

Sleepy time - Cream


Im a sleepy time baby, a sleepy time boy.
Work only maybe, life is a joy.
Well have a sleepy time time.
Well have a sleepy time time.
Well have a sleepy time time.
Well have a sleepy time time.
Sleepy time time, sleepy time all the time.
Asleep in the daytime, asleep at night.
Life is all playtime; working aint right.
Chorus
I have my sunday, that aint no lie.
But on monday morning comes my favorite cry.
Chorus

Cream - I'm So Glad


Intro:
Fingerpick this

E|------------0---0---------0---0---------0---0---------0---0|
B|--------------0---0-0-------0---0-0-------0---0-0-------0--|
G|1--2--3--4-------------3-------------2-------------1-------|
D|-----------------------------------------------------------|-4 times
A|2--3--4--5-------------4-------------3-------------2-------|
E|-----------------------------------------------------------|

chorus
I'm so glad
I'm so glad
I'm glad, I'm glad, I'm glad
(reapt one time)
don't know what to do
don't know what to do
don't know what to do
tired of weeping
tired of moaning
tired of groaning for you
chorus
tired of weeping
tired of moaning
tired of groaning for you
chorus repeat 8 times with
one extra I'm glad on 6th time

LOVE LIKE A MAN - Ten Years After


You rolypoly
All over town
But you come on back to me
When things are down

Love like a man


Love all you can
Your satisfaction
Is growing less
If you come on back to me
Use my address and let you
Love like a man
Love all you can
You are the woman
You can't deny
You look so good to me, girl
You make me high
I'll tell you something
I think you know
When you flash those eyes at me
ALL SYSTEMS GO AND LET YOU
Love like a man
Love all you can

LOVE LIKE A MAN - Ten Years After


Riff 1
E
e---|----------------|----------------|
B---|----------------|----------------|
G---|----------------|----------------|
D---|----------------|--5-------------|
A---|--5-6-7---5---5-|----7-----------|
E---|7-----------7---|7--(0)----------| repeat riff X 4
You rolly poly
All over town
But you come on back to me
When things are down
Chorus Riff
3/4 D A E 4/4 time
e---|------------|----------------|
B---|7-----------|----------------|
G---|7-----7-----|----------------|
D---|7-----7-----|2---------------|

A---|5-----7-----|2---------------|
E---|------5-----|0---------------|
Love
Like a Man
Love
all you can
Verse 2
Your satisfaction
is growing less
If you come on back to me
Use my address and let you
Chorus
Verse 3
You are the woman
You can't deny
e---|----------------|----------------|
B---|----------------|----------------|
G---|----------------|--5-------------|
D---|--5-6-7---5---5-|----7-----------|
A---|7-----------7---|7--(0)----------|
E---|----------------|----------------|
You look so good to me, girl
You make me high

B
A
e---|--------rest----|---------rest---|
B---|----------------|----------------|
G---|88888-----------|66666-----------|
D---|99999-----------|77777-----------|
A---|99999-----------|77777-----------|
E---|77777-----------|55555-----------|
E
e---|----------------|----------------|----------------|
B---|----------------|----------------|----------------|
G---|9--7------------|----------------|----------------|
D---|------9--5------|9--7--5---------|------------5---|
A---|------------7-5-|------------5-6-|7---5---5-----7-|
E---|----------------|----------7-----|------7---7--(0)|
Riff 1 then solo
Verse 4
I'll tell you something
I think you know

When you flash those eyes at me


All systems go
Chorus and fade

Help Me - Willie Dixon


You got to help me
I can't do it all by myself
You got to help me, baby
I can't do it all by myself
You know if you don't help me darling
I'll have to find myself somebody else
I may have to wash
I may have to sew
I may have to cook
I might mop the floor
But you help me babe
You know if you don't help me darling
I'll find myself somebody else
When I walk, walk with me
When I talk, you talk to me
Oh baby, I can't do it all by myself
You know if you don't help me darling
I'll have to find myself somebody else
Help me, help me darlin'
Bring my nightshirt
Put on your morning gown
Bring my nightshirt
Put on your morning gown
Darlin I know we stripped bare
But I don't feel like lying down

Ten Years After - I WOKE UP THIS MORNING

I woke up this morning


My baby was gone
I woke up this morning, Lord
My baby was gone
I thought that she loved me
It seems that I'm wrong
Yes, I am wrong
I cried every night, darling
For you to come home, yes, I do
I cried every night, darling
For you to come home
I'm feeling so lonely, darling
I'm left all alone
Yes, I'm left all alone
I woke up this morning, Lord
The rain was falling down
I woke up this morning, Lord
The rain was falling down
I'm getting so lonely, darling
Oh, yeah, baby, I wish I could cry
Oh, yes, the rain is falling on the ground

Ten Years After - I Woke Up This Morning


e|-------------------------|------------|--------------------|-------------------|
b|-----10^(12)----10--8~\--|------------|------------8-------|-------------------|
g|--/9---------9-----------|------------|---------7-----9~\--|-------------------|
d|-------------------------|--9--7--9\--|--/7--9-------------|--9--7--9\---------|
a|-------------------------|--7--5--7\--|--------------------|--7--5--7\---------|
D|-------------------------|------------|--------------------|-------------------|
e|------------------------|------------|----------------------------|------------|
b|----10^(12)----10--8~\--|------------|-------8--------------------|------------|
g|-/9---------9-----------|------------|----------9--7--------------|------------|
d|------------------------|--9--7--9\--|--7--9----------9--7--------|--9--7--9\--|
a|------------------------|--7--5--7\--|----------------------10p7--|--7--5--7\--|
D|------------------------|------------|----------------------------|------------|
Right After Say: "I woke up this morning..."
like:
morning...

e|-------------------|-------------------------|------------|--------------------|
b|-------------------|-----10^(12)----10--8~\--|------------|------------8-------|
g|--7-9----9--7--9\--|--/9---------9-----------|--9--7--9\--|----------7----9~\--|
d|--5-7----7--5--7\--|-------------------------|--7--5--7\--|--7h9-7h9-----------|
a|-------------------|-------------------------|------------|--------------------|
D|-------------------|-------------------------|------------|--------------------|
my baby was gone...
e|--------------|---------------------|--------------|
b|--------------|-------------8-------|--------------|
g|--------------|----------7-----9~\--|--------------|
d|--9--7--9\----|--7h9-7h9------------|--9--7--9\----|
a|--7--5--7\----|---------------------|--7--5--7\----|
D|--------------|---------------------|--------------|
e|------------------|--------------|--------------------------|
b|------------------|--------------|--This part is just too---|
g|------------------|--------------|--hard for me, so if------|
d|------------------|--9--7--9\----|--someone can help me-----|
a|--------5-6-7\----|--7--5--7\----|--with this...------------|
D|--5--7------------|--------------|--------------------------|
I woke up this morning...
e|--------------|---------------------|--------------|---------------------|
b|--------------|-------------8-------|--------------|-------------8-------|
g|--------------|----------7-----9~\--|--------------|----------7-----9~\--|
d|--9--7--9\----|--7h9-7h9------------|--9--7--9\----|--7h9-7h9------------|
a|--7--5--7\----|---------------------|--7--5--7\----|---------------------|
D|--------------|---------------------|--------------|---------------------|
my baby was gone...
e|--------------|---------------------------------------------------|--------------|
b|--------------|---------------------------------------------------|--12---12-\---|
g|--------------|---------------------------------------------------|--14^--14^\---|
d|--9--7--9\----|--9--9--0--9---------------------------------------|--------------|
a|--7--5--7\----|--7--7--0--7---9-9-9-9-9-9-9-9-9-9-9--8--7-7-7-7---|--------------|
D|--------------|---------------7-7-7-7-7-7-7-7-7-7-7--6--5-5-5-5---|--------------|

Sympathy For the Devil - Rolling Stones


E D A E
Please allow me to introduce myself, I'm a man of wealth and taste
E DA E
I've been around for long, long years I've stolen many a man's soul and faith
ED A E
I was around when Jesus Christ had His moments of doubt and pain
E D AE
I made damn sure that Pilate washed his hands and sealed his fate
B B E D
Pleased to meet you, hope you guess my name, but what's puzzling you, is
A E
the nature of my game
I stuck around St. Petersburg when I saw it was time for a change
I killed the Tzar and his ministers, Anastasia screamed in vain
I rode a tank, held a gen'ral's rank, when the blitzkrieg raged and the

bodies stank
Pleased to meet you, hope you guess my name, but what's puzzling you, is the
nature of my game
I watched with glee while your kings and queens, fought for ten decades for
the gods they made
I shouted out "Who killed the Kennedys?", when after all it was you and me
So let me please introduce myself, I am a man of wealth and taste
And I lay traps for troubadours, who get killed before they reach Bombay
Pleased to meet you, hope you guess my name, but what's puzzling you, is the
nature of my game
Pleased to meet you, hope you guess my name, but what's confusing you, is
just the nature of my game
Just as every cop is criminal, and all the sinners, Saints
As heads is tails, just call me Lucifer, 'cause I'm in need of some restraint
So if you meet me, have some courtesy, have some sympathy and some taste
Use all your well-learned politesse, or I'll lay your soul to waste
Pleased to meet you, hope you guess my name, but what's puzzling you, is the
nature of my game

L.A. Woman - The Doors


Well, I just took a little downer about an hour ago
Took a look around, see which way the wind blow
With a little girl in a Hollywood bungalow
Are you a lucky little lady in The City of Light
Or just another lost angel...City of Night
City of Night, City of Night, City of Night, woo, c'mon
L.A. Woman, L.A. Woman
L.A. Woman Sunday afternoon
L.A. Woman Sunday afternoon
L.A. Woman Sunday afternoon
Drive thru your suburbs
Into your blues, into your blues, yeah
Into your blue-blue Blues
Into your blues, ohh, yeah
I see your hair is burnin'
Hills are filled with fire
If they say I never loved you
You know they are a liar
Drivin' down your freeways
Midnite alleys roam
Cops in cars, the topless bars
Never saw a woman
So alone, so alone
So alone, so alone

Motel Money Murder Madness


Let's change the mood from glad to sadness
Mr. Mojo Risin', Mr. Mojo Risin'
Mr. Mojo Risin', Mr. Mojo Risin'
Got to keep on risin'
Mr. Mojo Risin', Mr. Mojo Risin'
Mojo Risin', gotta Mojo Risin'
Mr. Mojo Risin', gotta keep on risin'
Risin', risin'
Gone risin', risin'
I'm gone risin', risin'
I gotta risin', risin'
Well, risin', risin'
I gotta, wooo! Bang! Bang!
Woah, ohh yeah
Well, I just got into town about an hour ago
Took a look around, see which way the wind blow
With a little girl in a Hollywood bungalow
Oh you were like a little lady in The City of Lights
Or just another lost angel...City of Night
City of Night, City of Night, City of Night, woah, c'mon
L.A. Woman, L.A. Woman
L.A. Woman, you're my woman
Little L.A. Woman, Little L.A. Woman
L.A. L.A. Woman Woman
L.A. Woman c'mon

LA WOMAN - The Doors


Intro:
E --9---------|--7---------|--5---------5\3|
B ------------|------------|---------------|
G ------------|------------|---------------|
D ------------|------------|---------------|
A ------------|------------|---------------|
E ------------|------------|---------------|
E -2h3----2--3--2---0h2-|------------------------|
B ----------------------|-2h3----2--3--2--0--2~~-|
G ----------------------|------------------------|
D ----------------------|------------------------|
A ----------------------|------------------------|
E ----------------------|------------------------|
E -------------------|------------------------|

B -------------------|------------------------|
G -6h7p6--7p6-----6--|--6p7--6--7--6----------|
D -------------7-----|-----------------7---7--|
A -------------------|------------------------|
E -------------------|------------------------|
E -------------------|------------------------|
B -------------------|------------------------|
G -6h7p6--7p6-----6--|--6h7p6--7--6-----------|
D -------------7-----|---------------7--7-----|
A -------------------|------------------------|
E -------------------|------------------------|
E ---------------|----------------|
B ---------------|----------------|
G -6h7p6---------|--6h7p6---------|
D --------7--7---|---------7--7---|
A ---------------|----------------|
E ---------------|----------------|
Verse 1:
This is all done by singing aline a then doing a guitar phrase, so if I put the
Well I just got into town about an hour ago.
E --------------------------------------|
B -8---7----5--7------------------------|
G -----------------5b-------------------|
D ----------------------7--5------------|
A ----------------------------7--6--5---|
E --------------------------------------|
Took a look around see which way the wind blows.
E --------------------------------------|
B -8---7----5--7------------------------|
G -----------------5b-------------------|
D ----------------------7--5------------|
A ----------------------------7--6--5---|
E --------------------------------------|
With a little girl in a Hollywood bungalow.
E -----------------------------------------|
B -----------------------------------------|
G ----------------------------------5~~----|
D -7--5--7--5--7--5--7--5--7--5--7---------|
A -----------------------------------------|

E -----------------------------------------|
Are you a lucky little lady in the city of light?
E -----------------------------------------|
B ----------------------------------5~~----|
G -7--6--7--6--7--6--7--6--7--6--7---------|
D -----------------------------------------|
A -----------------------------------------|
E -----------------------------------------|
G (For these
Or just another lost angel, City of night strike the
and let
A
G
A
City at night, City of night, City of night, Whoa come on
Solo: may not be exact but you can change it around and it sounds good.
E ----------------------------------------------|
B ----------------------------------------------|
G -------------------0-2-4-4b----4--2-----2~~~--|
D -------------0-2-4------------------4---------|
A -------0-2-4----------------------------------|
E -0-2-4----------------------------------------|
E ---------------------------------------------------------------|
B ---------------------------------------------------------------|
G -------0-2-4--4b--2-----2--4b--4--2-----4b---2-----2-----2--4--|
D -0-2-4---------------4---------------4----------4-----4--------|
A ---------------------------------------------------------------|
E ---------------------------------------------------------------|
E -0--5---5---5--7--5--7--7b--5-----5--7--5---7--7--7---|
B -------------------------------7----------------------|
G ------------------------------------------------------|
D ------------------------------------------------------|
A ------------------------------------------------------|
E ------------------------------------------------------|
E -9--9--9---10--10--10---9--9--9-----9\7---7--7--7~~---|
B ------------------------------------------------------|
G ------------------------------------------------------|
D ------------------------------------------------------|
A ------------------------------------------------------|
E ------------------------------------------------------|

E -7\5---5--5--5~~----5\3---|
B --------------------------|
G --------------------------|
D --------------------------|
A --------------------------|
E --------------------------|
E --------------------|-------------------|---------------|
B --------------------|-------------------|---------------|
G -6h7p6--7--6--7~~~--|-7p6--------6~~~---|-7--6----------|
D --------------------|--------7----------|--------7---7--|
A --------------------|-------------------|---------------|
E --------------------|-------------------|---------------|
E --------------------|
B --------------------|
G -6h7p6--7--6--------|
D --------------7--7--|
A --------------------|
E --------------------|
Then we go back to echoing a voice phrase with the guitar.
LA Woman
E ---------------------|
B ---------------------|
G -7b----5--7--7b~~~---|
D ---------------------|
A ---------------------|
E ---------------------|
LA Woman
E ---------------------|
B -8br-----------------|
G --------5~~~~--------|
D ---------------------|
A ---------------------|
E ---------------------|
LA Woman Sunday afternoon
E -------------------------------------------|
B -------------------------------------------|
G ----------------------------------5~~~-----|
D -7--5--7--5--7--5--7--5--7--5--7-----------|

A -------------------------------------------|
E -------------------------------------------|
LA Woman Sunday Afternoon
E --------------------------------|
B -7br----------------------------|
G -7br---5-------5----------------|
D ----------7-------7-------------|
A ---------------------7--7~~~~---|
E --------------------------------|
LA woman sunday afternoon drive through you suburbs
G
A
into your blues. into your blues.
G
A
into your blue, blue, blue, into your blues Oh yeah
(Piano Break)

Now the guitar plays this part under these words.


A
G
A
G
E ------------------------|-----------------------|
B -------2--0-------------|-------2--0-------------|
G ----2----------0-----0--|----2----------0-----0--|
D -2----------------0-----|-2----------------0-----|
A ------------------------|------------------------|
E ------------------------|------------------------|
A
G
A G A G
I See your hair is burning
A
G
A G A G
Hills are filled with fire.
A G A G A G
If they say I never loved you
A
G A G A G
You know they are a liar.
A G
A G
A G
Drivin down your freeway
A
G
A G
A G
Midnight alleys roam.
A

(Switch back to chords)

Cops in cars the topless bars, never saw a woman


G
A
So alone, so alone
Back to guitar echoing the voice.
Motel money murder madness
E --------------------------------|
B -5--7br-------------------------|
G ---------5--7---7---5-----5--7--|
D -----------------------7--------|
A --------------------------------|
E --------------------------------|
Lets change the mood from glad to sadness.
E ------------------------------------------|
B ------5--8b---5---------------------------|
G -7b--------------7br--5-------------------|
D -------------------------7--5-------------|
A --------------------------------7--6--5---|
E ------------------------------------------|
Now is where the whole song slows down and keep repeating
Mr. Mojo Risin.
I don't know anymore of the song, but I think Robby just improvises in the A blu

B.B. King - THE THRILL IS GONE


Bm
Thrill is gone
Thrill is gone away
G7
Thrill is gone baby
Bm
Thrill is gone away
G7 F#7
Know you done me wrong
Bm
You'll be sorry some day
Thrill is gone
The thrill is gone away from me
Thrill is gone
The thrill is gone away from me
Oh I'll still live on baby
But so lonely I'll be

Thrill is gone
Thrill is gone for good
Oh the thrill is gone baby
It's gone away for good
Some day I know I'll be open baby
Like I know I should
I'm free now baby
I'm free from your spell
Free, free, free, now baby
Baby I'm free from your spell
Now that its all over
All I can do is wish you well
Thrill is gone
Thrill is gone away for good
Thrill is gone baby
Thrill is gone away for good
Know you done me wrong baby
You'll be sorry some day
The thrill is gone
I'm free from your spell......(fade)

Key to the Highway - Big Bill Broonzy


A
E
D
D7
I got the key to the highway,
I'm booked out and bound to go, I'm
A
E
gonna leave here running,
A
E
ain't coming back no more
I'm going back to the border,
where I'm better known,
I'm gonna ride this old highway,
ain't coming back no more
Give me one more kiss,
mama, just before I go,
I'm gonna leave here running,
ain't coming back no more

Now, when the moon peeks over the mountain, yeah.. You know I'll be on
my way
I'm gonna walk, walk this ol' highway,
deep until the break of day
So long and good-bye, yes,
I had to say good-bye, 'Cause I'm gonna walk,
walk this ol' highway,
deep 'til the day I die

Let the sunshine In


Soldier 1:
[Am]We starve-look at one another short of breath walking proudly in our winter
[G]coats
Wearing smells from laboratories [Am]facing a dying [C]nation of moving paper
[E7]fantasy
Listening for the new told [Am]lies with the [F]supreme visions of [C]lonely tunes
Soldier 2:
Somewhere, inside something there is a rush of greatness
Who knows what stands in front of our lives
I fashion my future on films in space
Silence tells me secretly everything, everything
Claude:
Manchester England England
Manchester England England
(Ensemble:Eyes look your last)
Across the Atlantic Sea
(Arms take your last embrace)
And I'm a genius genius
(And lips oh you the doors of breath)
I believe in God
(Seal with a righteous kiss)
And I believe that God believes in Claude
(Seal with a righteous kiss)
That's me, that's me, that's me
(The rest is silence, The rest is silence, The rest is silence)

Ensemble:
Singing our space songs on a spider web sitar
Life is around you and in you
Answer for Timothy Leary, dearie
[Am]Let the [E7]sunshine - Let the [Am]sunshine in - The [F]sunshine [C]in
(rep. and fade)

Im A Man - Spencer Davis Group (Chicago)


Intro: Em
Em
Well my pad is very messy
And there's whiskers on my chin
And I'm all hung up on music
And I always play to win
I ain't got no time for lovin'
Cause my time is all used up
Just to sit around creatin'
All that groovy kind of stuff.
G
I'm a man
F#
Yes I am
F
And I can't help
Em
But love you so
G
I'm a man
F#
Yes I am
F
And I can't help
But love you so.
Em
Well if I had my choice of matter
I would rather be with cats
All engrossed in mental chatter
Moving where our minds are at
And relating to each other
Just how strong our wills can be
I'm resisting all involvement
With each groovy chick we see
G

Well I'm a man


F#
Yes I am
F
And I can't help
Em
But love you so
G
I'm a man
F#
Yes I am
F
And I can't help
Em
But love you so.
Em
I got to keep my image
While suspended from a throne
That looks out upon a kingdom
Full of people all unknown
Who imagine I'm not human
And my heart is made of stone
I never had no problems
And my toilet's trimmed with chrome
G
Well I'm a man
F#
Yes I am
F
And I can't help
Em
But love you so
G
I'm a man
F#
Yes I am
F
And I can't help
Em
But love you so.

Los Bravos - Black Is Black


Intro:
bass [4X]:
(Em)
v v v v

v v v v

-----------------|-----------------2---0-2-----0-2-|-----0-2-----0-2---2-------2-----|---2-------2---------------------|----------------(D)
v v v v v v v v
-----------------|-----------------0-----0-------0-|-------0-------0---0-2-----0-2---|---0-2-----0-2-------------------|----------------Verse 1:
Em
Black is black
D
I want my baby back
Em
It's gray, it's gray
A7
D
Since she went away, whoa-whoa
(D)
What can I do
Em A7
'Cause I-I-I-I-I'm
D
I'm feelin' blue
Verse 2:
If I had my way
She'd be back today
But she don't intend
To see me again, whoa-whoa
What can I do
'Cause I-I-I-I-I'm
I'm feelin' blue
Bridge:
Em
I can't choose
F#m
It's too much to lose
G
(G) F# F

My love's too strong / / /


(F) E7
Wow! Maybe if she would come back to me
A
F#m B
Then it can't go wrong
Verse 3:
Bad is bad
That I feel so sad
It's time, it's time
That I found peace of mind, whoa-whoa
What can I do
'Cause I-I-I-I-I'm
I'm feelin' blue
[repeat bridge]
[repeat verse 1]
Coda:
Em A7
'Cause I-I-I-I-I'm
D
I'm feelin' blue
(horns):
F G D
//// /

Janis Joplin ball and Chain


Sittin' down by my window,
Honey, lookin' out at the rain.
Lord, Lord, Lord, sittin' down by my window,
Baby, lookin' out at the rain.
Somethin' came along, grabbed a hold of me,
And it felt just like a ball and chain.
Honey, that's exactly what it felt like,
Honey, just dragging me down.
And I say, oh, whoa, whoa, now hon', tell me why,
Why does every single little tiny thing I hold on goes wrong ?

Yeah it all goes wrong, yeah.


And I say, oh, whoa, whoa, now babe, tell me why,
Why does every thing, every thing.
Hey, here you gone today, I wanted to love you,
Honey, I just wanted to hold you, I said, for so long,
Yeah! Alright! Hey!
Love's got a hold on me, baby,
Feels just like a ball and chain.
Now, love's just draggin' me down, baby, yeah,
Feels like a ball and chain.
I hope there's someone out there who could tell me
Why the man I love wanna leave me in so much pain.
Yeah, maybe, maybe you could help me, come on, help me!
And I say, oh, whoa, whoa, now hon', tell me why,
Now tell me, tell me, tell me, tell me, tell me, tell me why, yeah.
And I say, oh, whoa, whoa, whoa, when I ask you,
When I need to know why, c'mon tell me why, hey hey hey,
Here you've gone today,
I wanted to love you and hold you
Till the day I die.
I said whoa, whoa, whoa!!
And I say oh, whoa, whoa, no honey
It ain't fair, daddy it ain't fair what you do,
I see what you're doin' to me and you know it ain't fair.
And I say oh, whoa whoa now baby
It ain't fair, now, now, now, what you do
I said hon' it ain't fair what, hon' it ain't fair what you do.
Oh, here you gone today and all I ever wanted to do
Was to love you
Honey an' I think there can be nothing wrong with that,
Only it ain't wrong, no, no, no, no, no.
Sittin' down by my window,
Lookin' at the rain.
Lord, Lord, Lord, sittin' down by my window,
Lookin' at the rain, see the rain.
Somethin' came along, grabbed a hold of me,
And it felt like a ball and chain.
Oh this can't be in vain
And I'm gonna tell you one just more time, yeah, yeah!
And I say oh, whoa whoa, now baby
This can't be, no this can't be in vain,
And I say no no no no no no no no, whoa!
And I say whoa, whoa, whoa, whoa, whoa
Now now now now now now now now now no no not in vain
Hey, hope there is someone that could tell me
Hon', tell me why,
Hon', tell me why love is like

Just like a ball


Just like a ball
Baaaaaaalllll
Oh daddy, daddy, daddy, daddy, daddy, daddy, daddy, daddy
And a chain.
Yeah

My Generation - The Who


People try to put us d-down
Just because we get around
Things they do look awful c-c-cold
I hope I die before I get old
This is my generation
This is my generation, baby
Why don't you all f-fade away
And don't try to dig what we all s-s-say
I'm not trying to cause a big s-s-sensation
I'm just talkin' 'bout my g-g-g-generation
This is my generation, This is my generation, baby
[bass solo]
Why don't you all f-fade away
And don't try to dig what we all s-s-say
I'm not trying to cause a big s-s-sensation
I'm just talkin' 'bout my g-g-g-generation
This is my generation, This is my generation, baby
[modulate to A]
People try to put us d-down
Just because we get around
Things they do look awful c-c-cold
I hope I die before I get old

This is my generation, This is my generation, baby


[modulate to B]

The Who - My Generation - bass tab


Intro
|-------------|-------------|-------------|---------------|
|-5--5--5--5--|-3--3--3--3--|-5--5--5--5--|-3--3--3--3--0h|
|-------------|-------------|-------------|---------------|
|-------------|-------------|-------------|---------------|
1st Verse
People try to...
(Talkin' 'bout my generation)
|---------------|----------------|----------------|-----------------|
|5-5-5-0h5-5-5--|-3-3-3-3-3-5-5--|-5--5----5----5-|-5\\3--3--3-3-0-3h|
|---------------|----------------|----------------|-----------------|
|---------------|----------------|----------------|------------------|
|----------------|----------------|-------------|---------------|
|-5-5-5-3h5-5-5--|-3---3-3-3-5-5--|-5--5--5--5--|-3--3--3--3--0h|
|----------------|----------------|-------------|---------------|
|----------------|----------------|-------------|---------------|
|----------------|----------------|-------------|------------------|
|-5-5-5-0h5-5-5--|-3-3-3-3-3-5-5--|-5--5--5--5--|-5\\3--3--3-3-0--3h|
|----------------|----------------|-------------|------------------|
|----------------|----------------|-------------|------------------|
|----------------|---------------|-------------|-------------|
|-5-5-5-3h5-5-5--|-3--3-3-3-5-5--|-5--5--5--5--|-3--3--3--3--|
|----------------|---------------|-------------|-------------|
|----------------|---------------|-------------|-------------|
1st Chorus
|-------------|-------------|--------------|----------------|
|-5--5--5--5--|-3--3--3--3--|-5--5--5--5-5-|-3--3-3-3-3-0-3-|
|-------------|-------------|--------------|----------------|
|-------------|-------------|--------------|----------------|
2nd Verse
|-------------|----------|-------------|-------------|
|-5-----------|----------|-5--5--5--5--|-3--3--3--3--|
|-------------|----------|-------------|-------------| x4
|-------------|----------|-------------|-------------|

2nd Chorus
|-------------|---------------|-------------|-------------|
|-5--5--5-5-5-|-3--3--3-3-3-3-|-5--5--5-5-5-|-3--3--3-3-3-|
|-------------|---------------|-------------|-------------|
|-------------|---------------|-------------|-------------|
Bass Solo
|---3-5^--5-3----|-3------------|-------------|-------------|
|-5-----------5--|----5-3---3---|-5--5--5--5--|-3--3--3--3--|
|----------------|--------5---5-|-------------|-------------|
|----------------|--------------|-------------|-------------|
|----------------|-------------|-------------|-------------|
|-5-5-3----------|------3--4---|-5--5--5--5--|-3--3--3--3--|
|-------5-5-3--1^|--/5---------|-------------|-------------|
|----------------|-3-----------|-------------|-------------|
|---3-5^--3-3-3--|----------------|-------------|-------------|
|-5--------------|-5-3---3--------|-5--5--5--5--|-3--3--3--3--|
|----------------|-----5---5\\3-1--|-------------|-------------|
|----------------|----------------|-------------|-------------|
|--------------------|--------------|-------3-----|---------------|
|-5-5-5-5-5-3--3-3-0-|--------------|-5--5-----5--|-3--3--2-2-2-2-|
|--------------------|-3--3--1------|-------------|---------------|
|--------------------|----------1-1-|-------------|---------------|
|-------------|----------------|-------------|------------|
|-5--5--5--5--|-3--3-3-3-3-3-3-|-5--5--5--5--|-3--3--3--0-|
|-------------|----------------|-------------|------------|
|-------------|----------------|-------------|------------|
3rd Verse
|--------|---------|-------------|-------------|
|-7------|---------|-7--7--7--7--|-5--5--5--5--|
|--------|---------|-------------|-------------| x4
|--------|---------|-------------|-------------|
3rd Chorus
|-------------|------------|----------------|----------------|
|-7--7--7-7-7-|-5--5--5--5-|-7--7-7-7-7-7-7-|-5--5-5-5-5-5-5-|
|-------------|------------|----------------|----------------|
|-------------|------------|----------------|----------------|
|-------------|-------------|----------------|----------------|
|-7--7--7-7-7-|-5--5--5--5--|-7--7-7-7-7-7-7-|-5--5-5-5-5-7-7-|
|-------------|-------------|----------------|----------------|
|-------------|-------------|----------------|----------------|

|---------------|-------------|-------------|------------|
|-8--8--8-8-8-8-|-6--6--6--6--|-8--8--8--8--|-6--6--6--6-|
|---------------|-------------|-------------|------------|
|---------------|-------------|-------------|------------|
4th Verse
|----------|----------|-------------|-------------|
|-8--------|----------|-8--8--8--8--|-6--6--6--6--|
|----------|----------|-------------|-------------| x2
|----------|----------|-------------|-------------|
|----------|----------|-------------|-------------|
|-8\\6------|----------|-8--8--8--8--|-6--6--6--6--|
|----------|----------|-------------|-------------|
|----------|----------|-------------|-------------|
|----------|----------|-------------|-------------|
|-8--------|----------|-8--8--8--8--|-6--6--6--6--|
|----------|----------|-------------|-------------|
|----------|----------|-------------|-------------|
4th Chorus
|--------------|---------------|-------------|----------------|
|-8--8--8-8-8--|-6--6--6-6-6-6-|-8--8--8--8--|-6--6-6-6-6-6-6-|
|--------------|---------------|-------------|----------------|
|--------------|---------------|-------------|----------------|
|-------------|-------------|-------------|----------------|
|-8--8--8--8--|-6--6--6--6--|-8--8--8--8--|-6--6-6-6-6-8-9-|
|-------------|-------------|-------------|----------------|
|-------------|-------------|-------------|----------------|
Outro
|-----------|-----------|----------------|------------|
|-10--------|-8-------8-|-10--8----------|------------|
|-----------|------10---|--------10--9---|-8--6-------|
|-----------|-----------|----------------|-------8--6-|
|----------|---------------|--------------|----8---------------|
|-----10-8-|---------------|--------8--10-|--------10-8------8h|
|----------|-10--9--8------|-8--10--------|-------------10-10--|
|-8--------|-----------11--|--------------|--------------------|
|-----------|---------------|---------------|---------------|
|-10------8-|-----10--8-----|-10--10--8-----|-10--8---------|
|------10---|------------10-|------------10-|--------10--8--|
|-----------|---------------|---------------|---------------|

|-------------|--------------|--------------|-----------------|
|-10--8-------|--------------|----10--8-----|-----------------|
|-------10--9-|-8------------|-----------10-|-8---8-8-8-8-8-8-|
|-------------|----11--10--9-|-8------------|-----------------|
|-------8----|-----10---|------8----|-----10----|
|-10------10-|-8------8-|-10-----10-|-8-------8-|
|------------|----------|-----------|-----------|
|------------|----------|-----------|-----------|
Talkin' 'bout my generation...
|----------8------|-----------|------8----|------10---|
|-10------------10|-8-----8---|-10-----10-|-8-------8-|
|-----------------|-----10----|-----------|-----------|
|-----------------|-----------|-----------|-----------|
|-----------|-----------|--------------|-------10---|
|-10---8----|-----------|-10--8-----10-|-8--------8-|
|--------10-|-8---------|-------10-----|------------|
|-----------|------11-8-|--------------|------------|
|------8----|-----------|------8----|-----------|
|-10-----10-|-8-------8-|-10-----10-|-8-------8-|
|-----------|------10---|-----------|------10---|
|-----------|-----------|-----------|-----------|
|------8----|-----------|------8----|-----------|---------|
|-10-----10-|-8-------8-|-10-----10-|-8-------8-|-10------|
|-----------|------10---|-----------|------10---|---------|
|-----------|-----------|-----------|-----------|---------|

Blues brothers - Everybody needs somebody to love


Everybody needs somebody
Everybody needs somebody to love (someone to love)
Sweetheart to miss (sweetheart to miss)
Sugar to kiss (sugar to kiss)
I need you you you
I need you you you
I need you you you in the morning
I need you you you when my souls on fire
Sometimes I feel
I feel a little sad inside
When my baby mistreats me
I never never never have a place to hide
I need you
Sometimes I feel
I feel a little sad inside

When my baby mistreats me


I never never never have a place to hide
I need you you you
I need you you you
I need you you you
I need you you you
I need you
You know people when you do find that somebody
Hold that woman, hold that man
Love him, hold him, squeeze her, please her, hold her
Squeeze and please that person, give em all your love
Signify your feelings with every gentle caress
Because its so important to have that special somebody
To hold, kiss, miss, squeeze and please
Everybody needs somebody
Everybody needs somebody to love
Someone to love
Sweetheart to miss
Sugar to kiss
I need you you you
I need you you you
I need you you you...

ROLLING STONES - LOVE IN VAIN


[intro]
|G
[verse]
|G
|C
| D7 D/F#

| Em
|G
| D7
| Em

|G

| G7
|G
|G

G7

|D

D7
G7

| G7
| Gsus4G
|D

|
|
|

D Em C G G7 G D
G
G7
Well I followed her to the station with a suitcase in my hand
C
D
G D7 G G/C G
Yea, I followed her to the station with a suitcase in my hand
D7
D/F#
Whoa, it's hard to tell it's hard to tell
Em
C
G G7 G D
But all your love's in vain
When the train come in the station I looked her in the eye
Well the train come into the station and I looked her in the eye

Whoa, I felt so sad, so lonesome that I could not help but cry
SOLO
When the train left the station, it had two lights on behind
Yea, when the train had left the station, it had two lights on behind
Whoa, the blue light was my baby, and the red light was my mind
G
G7 C D G D7 G G/C G
All my love's in vain
D7 D/F# Em
C
G G7 G D G
All my love's in vain
INTRO RIFF:
D
Em
C
G
E-------2-----------2-----------3----------------------------------3-B-----3---3-------3---3-----------0--------------------------------0-G---2-------2---2-------2---2s4-----2-0---------0h2-0-----0-----0--0-D-0-----------0-----------2-------------2---0h2-------0h2---0h2----0-A-------------------------2---------------3------------------------2-E-------------------------0----------------------------------------3

TIGHTROPE - STEVIE RAY VAUGHAN


With swing: E - D - B7 / A - G - E (x2)
B9
Caught up in a whirlwind, can't catch my breath.
Knee deep in hot water, broke out in cold sweat.
Can't catch a turtle, in this rat race.
G#m7 E9
E-D-B7 / A-G-E (x2)
Feels like I'm losing, at a breakneck pace.
Afraid of my own shadow, in the face of grace.
Heart full of darkness, spotlight on my face.
There was love all around me, but I was looking for revenge.
Thank God it never found me, would have been the end.
E9
B9
Walkin' the tight rope, steppin on my friends
E9
B9
Walkin' the tight rope, was a shame and a sin.
E9
B9
Walkin' the tight rope, between wrong and right.
A
E9
Walkin' the tight rope, both day and night. (Solo)

Lookin' back in front of me, in the mirror's grin.


Through eyes of love I see, I'm really lookin at a friend
We've had all our problems, that's the way life is.
My heart goes out to others, who are there to make amends.
(Walkin' the tightrope) Trying to make it right
Every day and every night
Bring it all around.
From the lost to found.
Streched around the world.
Save the boys and girls.
Let's make it right.
Do it, do it tonight.
Walkin the tightrope.
(Solo)

Some kind of wonderful Buddy guy


D
I don't need a whole lots of money. I don't need a big fine car.
D
I got everything that a man could want. I got more than I could ask for.
G
I-i don't have to run around. I don't have to stay out all night, cause I got me a
D
F# G G# A
sweet, a sweet lovin' woman and she knows just how to treat me right.
A
G
B C C# D
Well my baby, she's alright. Well my baby's clean out of sight. Don't you know that she's
D
G
C C# D
G
C C# D
She's some kind of wonderful;
She's some kind of wonderful, yes she is shesuhG
C C# D
She's some kind of wonderful yeah,yeah,yeah,yeah
D
When I hold her in my arms, you know she sets my soul on fire
D
Ooooh when my baby kisses me, my hart become filled with desire
G
When she wraps her lovin' arms around me, about drives me out of my mind
D
Yeeah, when my baby kisses me, chills run up and down my spine
A
G
B C C# D
Well my baby, she's alright, Well my baby's clean out of sight. Don't you know that she is,
D
G
C C# D
G
B C C# D
She's some kind of wonderful;
She's some kind of wonderful, yes she is

G
B C C# D
She's some kind of wonderful yeah,yeah,yeah,yeah
D
Now is there anybody got a sweet little woman like mine. There got to be somebody, gotta gotta
D
D
Bm
squeezy little woman like mine, Yeeeah. Nah-Can i get a whitness, (yes), can i get a whitness,
D
Bm
D
Well can i get a whitness, (yeah), can I get a whitness, (ohohoo), can I get a whitness (yeah),
Bm
can I get a whitness (yeah)
D
G
I thougt youre talkinbout my baby, shes some kind of wonderful,
C C# D
talkin'bout my baby, she's some kind of wonderful,
G
talkin'bout my baby, she's some kind of wonderful,
C C# D
talkin'bout my baby, she's some kind of wonderful,(my baby, my baby)
G
talkin'bout my baby, she's some kind of wonderful,(my baby, my baby)
repeat as long as.

Sympathy - Rare Bird


Am
F#dim
Now when you climb
E
Into your bed tonight
Am
F#dim
And when you lock
E
And bolt the door
Dm
Eadd9Just think of those
Am /G F
Out in the cold and dark
Dm7
Em
Am Em /F# /G
Cause there's not enough love to go 'round
Am
F#dim
And sympathy
E
Is what we need my friend
Am
F#dim
And sympathy
E

Is what we need
Dm Eadd9And sympathy
Am /G F
Is what we need my friend
Dm7
Em
Am Em
Cause there's not enough love to go 'round
Dm7
Em
Am
Em /F# /G
No there's not enough love to go 'ro----und
Now half the world
Hates the other half
And half the world
Has all the food
And half the world
Lies down and quietly stops
Cause there's not enough love to go 'round
And sympathy
Is what we need my friend
And sympathy
Is what we need
And sympathy
Is what we need my friend
Cause there's not enough love to go 'round
No there's not enough love to go 'round

Iron Butterfly - In-A-Gadda-Da-Vida


Dm
In-a-gadda-da-vida, honey,
Don't you know that I love you?
Dm
I-a-gadda-da-vida, baby,
Don't you know that I'll always be true?
G
E
Oh, won't you come with me,
G
E
And take my hand?
a
F#
Oh, won't you come with me,
a
F# B

And walk this land?


a
F#
Oh, won't you come with me,
a
F# B
And walk this land?
B
Dm
Please take my hand!
Gimme Some Lovin' - The Spencer Davis Group
Well, my temperature's rising and my feet on the floor
Twenty people knocking 'cause they're wanting some more
Let me in, baby, I don't know what you've got
But you'd better take it easy, this place is hot
/ E AE A/ / / /
{Refrain}
And I'm so glad we made it, so glad we made it
You gotta gimme some lovin'
Gimme gimme some lovin'
Gimme some lovin'
Gimme gimme some lovin'
Gimme some lovin' every day
/ E - G -A- C - / E -A- / / E - A- E - - - /
(D - - ADA E - - - :)
Well, I feel so good, everything is sounding hot
Better take it easy, 'cause the place is on fire
Been a hard day and I don't know what to do
Wait a minute, baby, it could happen to you
{Refrain}
Well, I feel so good, everybody's gettin' high
Better take it easy, 'cause the place is on fire
Been a hard day, nothing went too good
Now I'm gonna relax just like everybody should
{Refrain}

Tin Soldier - Small Faces


EGDA

E
G
I'm a
little tin soldier
D
A
that wants to j
ump into your f
E
G
you are a l
ook in your eye
D
A
C#m
a dream p
assing by in the
sky
D
F
I don't under
stand
A
all I ne
ed is treat me like a ma
A
'cause I ain't no ch
ild
F#m D
take me like I a
m
E
I got to know that I belong to you

E
ire

F#m
n

do anything that you want to do


D
you

sing any so song that you want me to sing to

KEYBOARD
EGA
I don't need no aggravation
I just got to make you
I just got to make you my occupation
E
I got to know that I belong to you
do anything that you want to do
D
you

sing any so song that you want me to sing to


E
G
All I need is your
whispered hello
D
A
E
smiles melting
the snow not
hing heard
E
G
your eyes are
deeper than time
D
A
C#m
say a love that
won't rhyme without w
ords
D
F
so now I've lost my
way
I need h

A
elp to show me things to
A

F#m
say
F#m

D
d

give me your
love before mine fad
E
I got to know that I belong to you

es

do anything that you want to do


D
you

sing any so song that you want me to sing to


E D
oh no no
A
I just want some reaction
B
someone to give me satisfaction
C
D
all I want to do is
stick with you ,'cause I

lov

E E
e you