Sie sind auf Seite 1von 16

The Beatles

The Ballad Of John And Yoko


Violo: Principal
55.526 exibies
Tom: E
Transcribed by: Thiago Augusto de Souza Zanetti
Antes de tudo, algumas notas: essa msica dos Beatles foi gravada
baixo, bateria e backing vocal, e o John fazendo as guitarras e o
perceber quando se ouve (mas difcil de escrever). Eu escrevi a
tocar essa msica em 3 pessoas, para que uma faa o baixo, outra
RIFFS E LICKS USADOS DURANTE A MSICA:
BAIXO:
Baixo 1:
Baixo 2:
Baixo 3:
-------------|
-------------|
-------------|
-------------|
-------2-4-2-|
-0--4--------|

|-------------|
|-------------|
|-------------|
|-------2-4-2-|
|-0--4--------|
|-------------|

--9--8--7--5-|
-------------|
--9--8--7--6-|
-------------|
-------------|
-------------|

|-4--3--2--0--|
|-------------|
|-4--3--2--1--|
|-------------|
|-------------|
|-------------|

Baixo 4:

|-------------|
|-------------|
|---------1---|
|----1--4---4-|
|-2-----------|
|-------------|

RIFFS DO REFRO:
Chorus 1:
Chorus 2:

Chorus 3:

|------------------------------------------------------|
|------------------------------------------------------|
|------------------------------------------------------|
|-----4--4---------4--4-------2--2---------------------|
|-2------------2---------------------4---2-------2-----|
|-----------2------------2-------------------4-------0-|

Chorus 4:

|-11--10--9--7-|
|--------------|
|-11--10--9--8-|
|--------------|
|--------------|
|--------------|

|-0--2--3--4--|
|-------------|
|-1--2--3--4--|
|-------------|
|-------------|
|-------------|

Chorus 5:
|-----4--------|
|--------------|
|-2/4---4--3-2-|
|--------------|
|--------------|
|--------------|

LICKS:
Lick 1:

Lick 2:

-12----------------------------|
----12b14r12-12b14r12-12b14b12-|
-------------------------------|
-------------------------------|
-------------------------------|
-------------------------------|

|-12/-|
|-12/-|
|-----|
|-----|
|-----|
|-----|

Intro:

com apenas dois deles em estdio (John Lennon e Paul McCartney), com Paul fazendo o
vocal principal. O Lick 1 sofre pequenas variaes ao longo da msica, e fcil de
linha de baixo, porque o instrumento mais marcante nessa msica. Eu recomendo
as bases e a outra faa os licks e riffs do refro. Divirtam-se! :)

Lick 3:
|-------12-----------|
|-12b14----14r12-12v-|
|--------------------|
|--------------------|
|--------------------|
|--------------------|

Chorus 6:
|-4--3--2--2/4-|
|--------------|
|-4--3--2--2/4-|
|--------------|
|--------------|
|--------------|

E (com baixo 1)
E (com baixo 1)
Standing in the dock at Southampton,

(Lick 1)

(Lick 1)
Trying to get to Holland or France.
E (com baixo 1)
The man in the mac said, "You've got to turn back".
You know they didn't even give us a chance.

A7 (com baixo 2) (Chorus 1)


Christ you know it ain't easy,
E (com baixo 1) (Chorus 2)
You know how hard it can be.
B7 (com baixo 3) (Chorus 3)
The way things are going
E (com baixo 1) (Chorus 2)
They're gonna crucify me.
E (com baixo 1)
(Lick 1)
Finally made the plane into Paris,
(Lick 1)
Honey mooning down by the Seine.
E (com baixo 1)
Peter Brown called to say,
"You can make it O.K.,
You can get married in Gibraltar, near Spain".
A7 (com baixo 2) (Chorus 1)
Christ you know it ain't easy,
E (com baixo 1) (Chorus 2)
You know how hard it can be.
B7 (com baixo 3) (Chorus 3)
The way things are going
E (com baixo 1) (Chorus 2)
They're gonna crucify me.
E (com baixo 1)
(Lick 1)
Drove from Paris to the Amsterdam Hilton,
(Lick 1)
Talking in our beds for a week.
E (com baixo 1)
The newspapers said, "Say what you doing in bed?"
I said, "We're only trying to get us some peace".

A7 (com baixo 2) (Chorus 1)

Christ you know it ain't easy,


E (com baixo 1) (Chorus 4)
You know how hard it can be.
B7 (com baixo 3) (Chorus 5)
The way things are going
E (com baixo 1) (Chorus 2)
They're gonna crucify me.
A7 (com baixo 2)
Saving up your money for a rainy day,
Giving all your clothes to charity.
A7 (com baixo 2)
Last night the wife said,
"Oh boy, when you're dead
B7 (com baixo 3)
You don't take nothing with you
(pausa)
But your soul - think!"
E (com baixo 1)
(Lick 1)
Made a lightning trip to Vienna,
(Lick 2)
eating chocolate cake in a bag.
E (com baixo 1)
(Lick 2)
The newspapers said, "She's gone to his head,
They look just like two gurus in drag".
A7 (com baixo 2) (Chorus 1)
Christ you know it ain't easy,
E (com baixo 1) (Chorus 4)
You know how hard it can be.
B7 (com baixo 3) (Chorus 5)
The way things are going
E (com baixo 1) (Lick 3)
They're gonna crucify me.
E (com baixo 1)
(Lick 1)
Caught an early plane back to London.
(Lick 1)
Fifty acorns tied in a sack.
E (com baixo 1)
(Lick 2)
(Lick 2)
The men from the press said, "We wish you success,
It's good to have the both of you back".

A7 (com baixo 2) (Chorus 1)

Christ you know it ain't easy,


E (com baixo 1) (Chorus 4)
You know how hard it can be.
B7 (com baixo 3) (Chorus 5)
The way things are going
E (com baixo 1) (Chorus 2)
They're gonna crucify me.
B7 (com baixo 3) (Chorus 6)
The way things are going
E (com baixo 1)
They're going to crucify me.
Final: (com baixo 4)
------------------------------------------------------------------------------|
------------------4--4--4--4--4--4--4--2--2--2--0---------------------2-------|
-------------1-2--4--4--4--4--4--4--4--2--2--2--1--2------------------1-------|
------1-2-4----------------------------------------4---2--2----2------2-------|
--2-4-------------------------------------------------------4----4----2-------|
----------------------------------------------------------------------0-------|

Beatles - Anna tab


------------------------------------------------------------THE BEATLES - ANNA (Go To Him) (Alexander) From PLEASE PLEASE
ME album. Released on March, 22nd 1963.
------------------------------------------------------------Tabbed by:PJVillanueva
The song is a cover from Arthur Alexander, also author of
A SHOT OF RHYTHM AND BLUES, YOU BETTER MOVE ON and SOLDIER
OF LOVE, among other hits. This version by The Beatles is defined than the original, which also had a string
arrangement . The Beatles recorded it at a higher pitch for John, who, although at first sounds as If he's got a cold,
delivers a great vocal part, more varied and confident than Alexander's and with some very smart rhythm changes too.
This, like the rest of the covers on PLEASE PLEASE ME (ANNA, BOYS, CHAINS and TWIST AND SHOUT) were recorded live
without any overdubs, with the exception of the celesta recorded by Martin on BABY IT'S YOU, to reinforce its guitar
solo.

Anna, you come and ask me girl


To set you free, girl
You say he loves you more than me
So I will set you free
Go with him, go with him
Anna, girl, before you go now
I want you to know now
That I still love you so
But if he loves you more, go with him
All of my life I've been searching for a girl
To love me like I love you. Oh, now
But every girl I've ever had breaks my heart
And leaves me sad, what am I
What am I supposed to do oh, oh, oh
Anna, just one more thing, girl
You give back your ring to me
And I will set you free, go with him
All of my life I've been searching for a girl
To love me like I love you
Cause let me tell you now
But every girl I've ever had breaks my heart
And leaves me sad, what am I
What am I suppose to do oh, oh, oh
Anna, just one more thing, girl
You give back your ring to me
And I will set you free,
Go with him, go with him
You can go with him, girl, go with him

INTRO
x
e|------- ------- ------- -------|------- ------- ------- -------|
B|-------------------------------|-------------------------------|
G|-------------------------------|-------------------------------|
D|-------------------------------|-------------------------------|
A|-------------------------------|-------------------------------|
E|-------------------------------|-------------------------------|

D
Bm
e|2---2-- ----2-- ----2-- 2------|2---2-- ----2-- 2---2-- 2------|
B|3---3-------3-------3---3---3--|3---3-------3---3---3---3---3--|
G|2---2-------2-------2---2---2--|4---4-------4---4---4---4---4--|
D|0---0-------0-------0---0---0--|4---4-------4---4---4---4---4--|
A|-------------------------------|2---2-------2---2---2---2---2--|
E|-------------------------------|-------------------------------|
e|------- ------2 ------- -------|------- ------- ------- -------|
B|------------3---3--------------|-------------------------------|
G|--------------------2---3---4--|------------3---4---3---4---3--|
D|-------------------------------|-------------------------------|
A|-------------------------------|-------------------------------|
E|-------------------------------|-------------------------------|

D
Bm
e|2---2-- ----2-- ----2-- 2------|2------ ----2-- 2---2-- 2------|
B|3---3-------3-------3---3------|3-----------3---3---3---3---3--|
G|2---2-------2-------2---2------|4-----------4---4---4---4---4--|
D|0---0-------0-------0---0------|4-----------4---4---4---4---4--|
A|-------------------------------|2-----------2---2---2---2---2--|
E|-------------------------------|-------------------------------|
e|------- ------2 ------- -------|------- ------- ------- -------|
B|------------3---3--------------|-------------------------------|
G|2-------------------2---3---4--|------------3---4---3---4---3--|
D|-------------------------------|-------------------------------|
A|-------------------------------|-------------------------------|
E|-------------------------------|-------------------------------|

VERSE
00:09
e|2------ ----2-- ----2-- 2------|2---2-- 2---2-- ----2-- 2------|
B|3-----------3-------3---3---3--|3---3---3---3-------3---3------|
G|2-----------2-------2---2---2--|4---4---4---4-------4---4------|
D|0-----------0-------0---0---0--|4---4---4---4-------4---4------|
A|-------------------------------|2---2---2---2-------2---2------|
E|-------------------------------|-------------------------------|
Anna
you come
ask
and
e|------- ------2 ------- -------|------- ------- ------- -------|
B|------------3---3--------------|-------------------------------|
G|2-------------------2---3---4--|------------3---4---3---4---3--|
D|-------------------------------|-------------------------------|
A|-------------------------------|-------------------------------|
E|-------------------------------|-------------------------------|

e|2------ ----2-- 2---2-- 2------|2------ ----2-- ----2-- 2------|


B|3-----------3---3---3---3---3--|3-----------3-------3---3---3--|
G|2-----------2---2---2---2---2--|4-----------4-------4---4---4--|
D|0-----------0---0---0---0---0--|4-----------4-------4---4---4--|
A|-------------------------------|2-----------2-------2---2---2--|
E|-------------------------------|-------------------------------|
me, girl
to set
you
e|------- ------2 ------- -------|------- ------- ------- -------|
B|------------3---3--------------|-------------------------------|
G|2-------------------2---3---4--|------------3---4---3---4---3--|
D|-------------------------------|-------------------------------|
A|-------------------------------|-------------------------------|
E|-------------------------------|-------------------------------|
REFRAIN
e|2---2-- ----2-- 2---2-- 2------|2------ ----2-- ----2-- 2------|
B|3---3-------3---3---3---3---3--|3-----------3-------3---3------|
G|2---2-------2---2---2---2---2--|4-----------4-------4---4------|
D|0---0-------0---0---0---0---0--|4-----------4-------4---4------|
A|-------------------------------|2-----------2-------2---2------|

E|-------------------------------|-------------------------------|
free,
You say he loves
girl
you
e|------- ------2 ------- -------|------- ------- ------- -------|
B|------------3---3--------------|-------------------------------|
G|2-------------------2---3---4--|------------3---4---3---4---3--|
D|-------------------------------|-------------------------------|
A|-------------------------------|-------------------------------|
E|-------------------------------|-------------------------------|
D
Bm
Em
A
e|2---2-- ----2-- ----2-- 2---0--|----0-- 0---0-- ----0-- 0------|
B|3---3-------3-------3---3---0--|----0---0---2-------2---2------|
G|2---2-------4-------4---4---0--|----0---0---2-------2---2------|
D|0---0-------4-------4---4---2--|----2---2---2-------2---2------|
A|------------2-------2---2---2--|----2---2---0-------0---0------|
E|----------------------------0--|----0---0----------------------|
more
me
so I
set you
free.
Go with
than
will
e|------- ------- ------- -------|------- ------- ------- -------|
B|-------------------------------|-------------------------------|
G|2-----------4---------------0--|--------0---0H2-----2---2------|
D|-------------------------------|-------------------------------|
A|-------------------------------|-------------------------------|
E|-------------------------------|-------------------------------|
INTERLUDE
D
Bm
e|2---2-- ----2-- 2---2-- 2------|2------ ----2-- 2---2-- 2------|
B|3---3-------3---3---3---3------|3-----------3---3---3---3------|
G|2---2-------2---2---2---2------|4-----------4---4---4---4------|
D|0---0-------0---0---0---0------|4-----------4---4---4---4------|
A|-------------------------------|2-----------2---2---2---2------|
E|-------------------------------|-------------------------------|
him.
Go with
(Anna)
e|------- ------2 ------- -------|------- ------- ------- -------|
B|------------3---3--------------|-------------------------------|
G|--------------------2---3------|4-----------3---4---3---4---3--|
D|-------------------------------|-------------------------------|
A|-------------------------------|-------------------------------|
E|-------------------------------|-------------------------------|

D
Bm
e|2---2-- ----2-- 2---2-- 2------|2------ ----2-- ----2-- 2---2--|
B|3---3-------3---3---3---3---3--|3-----------3-------3---3---3--|
G|2---2-------2---2---2---2---2--|4-----------4-------4---4---4--|
D|0---0-------0---0---0---0---0--|4-----------4-------4---4---4--|
A|-------------------------------|2-----------2-------2---2---2--|
E|-------------------------------|-------------------------------|
him.
(Anna)
e|------- ------2 ------- -------|------- ------- ------- -------|
B|------------3---3--------------|-------------------------------|
G|--------------------2---3------|4-----------3---4---3---4---3--|
D|-------------------------------|-------------------------------|
A|-------------------------------|-------------------------------|
E|-------------------------------|-------------------------------|
VERSE
00:35
e|2------ 2---2-- ----2-- 2------|2------ 2---2-- ----2-- 2---2--|
B|3-------3---3-------3---3---3--|3-------3---3-------3---3---3--|
G|2-------2---2-------2---2---2--|4-------4---4-------4---4---4--|
D|0-------0---0-------0---0---0--|4-------4---4-------4---4---4--|
A|-------------------------------|2-------2---2-------2---2---2--|
E|-------------------------------|-------------------------------|
Anna,
girl,
before you
e|------- ------2 ------- -------|------- ------- ------- -------|
B|------------3---3--------------|-------------------------------|
G|--------------------2---3---4--|------------3---4---3---4---3--|
D|-------------------------------|-------------------------------|
A|-------------------------------|-------------------------------|
E|-------------------------------|-------------------------------|
m: http://www.guitaretab.com/b/beatles/1053.html ]
e|2------ 2---2-- 2---2-- 2------|2---2-- 2---2-- ----2-- 2---2--|
B|3-------3---3---3---3---3---3--|3---3---3---3-------3---3---3--|
G|2-------2---2---2---2---2---2--|4---4---4---4-------4---4---4--|
D|0-------0---0---0---0---0---0--|4---4---4---4-------4---4---4--|
A|-------------------------------|2---2---2---2-------2---2---2--|
E|-------------------------------|-------------------------------|
go now
I
want
you to
e|------- ------2 ------- -------|------- ------- ------- -------|
B|------------3---3--------------|-------------------------------|

G|--------------------2---3---4--|------------3---4---3---4---3--|
D|-------------------------------|-------------------------------|
A|-------------------------------|-------------------------------|
E|-------------------------------|-------------------------------|
REFRAIN
e|2------ 2---2-- 2---2-- 2------|2------ 2---2-- ----2-- 2------|
B|3-------3---3---3---3---3---3--|3-------3---3-------3---3------|
G|2-------2---2---2---2---2---2--|4-------4---4-------4---4------|
D|0-------0---0---0---0---0---0--|4-------4---4-------4---4------|
A|-------------------------------|2-------2---2-------2---2------|
E|-------------------------------|-------------------------------|
know now
that
still
I
e|------- ------2 ------- -------|------- ------- ------- -------|
B|------------3---3--------------|-------------------------------|
G|--------------------2---3---4--|------------3---4---3---4---3--|
D|-------------------------------|-------------------------------|
A|-------------------------------|-------------------------------|
E|-------------------------------|-------------------------------|
e|2------ ----2-- 2---2-- 2---0--|0------ 0---0-- ----0-- 0------|
B|3-----------3---3---3---3---0--|0-------0---2-------2---2------|
G|2-----------4---4---4---4---0--|0-------0---2-------2---2------|
D|0-----------4---4---4---4---2--|2-------2---2-------2---2------|
A|------------2---2---2---2---2--|2-------2---0-------0---0------|
E|----------------------------0--|0-------0----------------------|
love
so,
but If he loves
more
go with
you
you
e|------- ------- ------- -------|------- ------- ------- -------|
B|-------------------------------|0------------------------------|
G|2---------------------------0--|--------0---2-------2---2------|
D|------------4------------------|-------------------------------|
A|-------------------------------|-------------------------------|
E|-------------------------------|-------------------------------|

e|2------ 2---2-- ----2-- 2------|2------ 2---2-- 2---2-- 2------|


B|3-------3---3-------3---3------|3-------3---3---3---3---3------|
G|2-------2---2-------2---2------|2-------2---2---2---2---2------|
D|0-------0---0-------0---0------|0-------0---0---0---0---0------|

A|-------------------------------|-------------------------------|
E|-------------------------------|-------------------------------|
him.
e|2------ ----2-- ------- ----2--|2------ 2------ ------- -------|
B|3-----------3---------------3--|3-------3----------------------|
G|2-----------2---------------2--|2-------2----------------------|
D|0-----------0---------------0--|0-------0----------------------|
A|-------------------------------|-------------------------------|
E|-------------------------------|-------------------------------|
MIDDLE SIXTEEN
00:57
G
e|3------ 3------ 3---3-- 3------|3------ 3---3-- ----3-- 3------|
B|3-------3-------3---3---3------|3-------3---3-------3---3------|
G|0-------0-------0---0---0------|0-------0---0-------0---0------|
D|0-------0-------0---0---0------|0-------0---0-------0---0------|
A|2-------2-------2---2---2------|2-------2---2-------2---2------|
E|3-------3-------3---3---3------|3-------3---3-------3---3------|
All of my life
I've
been
e|------- ----7-- ------- 7------|------- ----7-- ------- 7------|
B|------------8-----------8------|------------8-----------8------|
G|------------7-----------7------|------------7-- ------- 7------|
D|------------9-----------9------|------------9-----------9------|
A|-------------------------------|-------------------------------|
E|-------------------------------|-------------------------------|

e|3------ 3---3-- 3------ 3---3--|3------ 3---3-- ----3-- 3------|


B|3-------3---3---3-------3---3--|3-------3---3-------3---3------|
G|0-------0---0---0-------0---0--|0-------0---0-------0---0------|
D|0-------0---0---0-------0---0--|0-------0---0-------0---0------|
A|2-------2---2---2-------2---2--|2-------2---2-------2---2------|
E|3-------3---3---3-------3---3--|3-------3---3-------3---3------|
searching
for a
girl
to
e|------- ----7-- ------- 7------|------- ----7-- ------- 7------|
B|------------8-----------8------|------------8-----------8------|
G|------------7-----------7------|------------7-- ------- 7------|
D|------------9-----------9------|------------9-----------9------|
A|-------------------------------|-------------------------------|
E|-------------------------------|-------------------------------|

D
e|2------ 2---2-- 2---2-- 2---2--|2------ 2---2-- 2---2-- 2------|
B|3-------3---3---3---3---3---3--|3-------3---3---3---3---3------|
G|2-------2---2---2---2---2---2--|2-------2---2---2---2---2------|
D|0-------0---0---0---0---0---0--|0-------0---0---0---0---0------|
A|-------------------------------|-------------------------------|
E|-------------------------------|-------------------------------|
love
like
I
love
me
e|------- ----5-- ------- 5------|------- ----5-- ------- 5------|
B|------------7-----------7------|------------7-----------7------|
G|------------7-----------7------|------------7-----------7------|
D|------------7-----------7------|------------7-----------7------|
A|------------5-----------5------|------------5-----------5------|
E|-------------------------------|-------------------------------|
me

e|2------ 2---2-- 2---2-- 2---2--|2---2-- 2------ 2------ 2------|


B|3-------3---3---3---3---3---3--|3---3---3-------3-------3------|
G|2-------2---2---2---2---2---2--|2---2---2-------2-------2------|
D|0-------0---0---0---0---0---0--|0---0---0-------0-------0------|
A|-------------------------------|-------------------------------|
E|-------------------------------|-------------------------------|
you.
Oh, now
e|------- ----5-- ------- 5------|------- ------- ------- -------|
B|------------7-----------7------|--------3-------5-------7------|
G|------------7-----------7------|-------------------------------|
D|------------7-----------7------|--------4-------5-------7------|
A|------------5-----------5------|-------------------------------|
E|-------------------------------|-------------------------------|

G
e|3------ 3---3-- 3------ 3------|3------ 3---3-- ----3-- 3---3--|
B|3-------3---3---3-------3------|3-------3---3-------3---3---3--|
G|0-------0---0---0-------0------|0-------0---0-------0---0---0--|
D|0-------0---0---0-------0------|0-------0---0-------0---0---0--|
A|2-------2---2---2-------2------|2-------2---2-------2---2---2--|
E|3-------3---3---3-------3------|3-------3---3-------3---3---3--|
But
every girl
I've
ever had
e|------- ----7-- ------- 7------|------- ----7-- ------- 7------|

B|------------8-----------8------|------------8-----------8------|
G|------------7-----------7------|------------7-- ------- 7------|
D|------------9-----------9------|------------9-----------9------|
A|-------------------------------|-------------------------------|
E|-------------------------------|-------------------------------|

e|3---3-- ----3-- 3------ 3------|3------ 3---3-- 3---3-- 3------|


B|3---3-------3---3-------3------|3-------3---3---3---3---3------|
G|0---0-------0---0-------0------|0-------0---0---0---0---0------|
D|0---0-------0---0-------0------|0-------0---0---0---0---0------|
A|2---2-------2---2-------2------|2-------2---2---2---2---2------|
E|3---3-------3---3-------3------|3-------3---3---3---3---3------|
breaks my heart and leave me
sad
e|------- ----7-- ------- -------|------- ----7-- ------- 7------|
B|------------8------------------|------------8-------8---8------|
G|------------7------------------|------------7-- ----7-- 7------|
D|------------9------------------|------------9-------9---9------|
A|-------------------------------|-------------------------------|
E|-------------------------------|-------------------------------|
E
e|0---0-- 0------ 0------ 0---0--|0------ 0---0-- ------- 0------|
B|0---0---0-------0-------0---0--|0-------0---0-----------0------|
G|1---1---1-------1-------1---1--|1-------1---1-----------1------|
D|2---2---2-------2-------2---2--|2-------2---2-----------2------|
A|2---2---2-------2-------2---2--|2-------2---2-----------2------|
E|0---0---0-------0-------0---0--|0-------0---0-----------0------|
what
what
supposed
to
am I
am I
e|------- ----7-- ------- 7------|------- ----7-- ------- 7------|
B|------------9-----------9------|------------9-----------9------|
G|------------9-----------9------|------------9-----------9------|
D|------------9-----------9------|------------9-----------9------|
A|------------7-----------7------|------------7-----------7------|
E|-------------------------------|-------------------------------|
A
e|0------ 0---0-- 0------ 0---0--|0---0-- 0------ 0---0-- 0------|
B|2-------2---2---2-------2---2--|2---2---2-------2---2---2------|
G|2-------2---2---2-------2---2--|2---2---2-------2---2---2------|
D|2-------2---2---2-------2---2--|2---2---2-------2---2---2------|
A|0-------0---0---0-------0---0--|0---0---0-------0---0---0------|

E|-------------------------------|-------------------------------|
do.
Oh, oh,
oh, oh, oh,
oh
e|------- ----5-- ------- 5------|------- ----5-- ------- 5--- --|
B|------------5-----------5------|------------5-----------5------|
G|------------6-----------6------|------------6-----------6------|
D|------------7-----------7------|------------7-----------7------|
A|------------7-----------7------|------------7-----------7------|
E|------------5-----------5------|------------5-----------5------|
VERSE/REFRAIN
01:31
Anna, just one more thing, girl
You give back your ring to me
And I will set you free, go with him
MIDDLE SIXTEEN
01:49
All of my life I've been searching for a girl
To love me like I love you
But let me tell you now
But every girl I've ever had breaks my heart
And leaves me sad, what am I
What am I suppose to do oh, oh, oh
CODA
02:23
Anna, just one more thing, girl
You give back your ring to me
And I will set you free,
Go with him, go with him
You can go with him, girl, go with him.
B
R
/
\
H
P
~
+
x
.
^
(.

Bend
Release
Slide up
Slide down
Hammer-on
Pull-off
Vibrato
Harmonic
Mute note
Play note like a dot in standard notation
Ties two notes together
Pause

The Beatles

I Should Have Known Better


Violo: Principal
63.919 exibies
Tom: G

Intro: G

G
D
G
D
G
D
G D
I - - - - - - should have known better with a girl like you,
G
D
Em
That I would love everything that you do,
C
D
G D
G
D
And I do, hey, hey, hey, and I do.
Whoa, ooh
G
D
G
D
G
D
G
D
I - - - - - - never realized what a kiss could be,
G D
Em
This could only happen to me,
C
B7
Em
Can't you see, can't you see?
C
G
B7
Em
That when I tell you that I love you, oh,
C
G
G7
You're gonna say you love me too - oo - oo - oo - oo, oho,
C
D
G Em
C
D
G
And when I ask you to be mine,
you're gonna say you love me too.
D
G
D
G
D
G
D
So - o - o, I - - - - - - should have realized a lot of things before,
G
D
Em
If this is love you've gotta give me more,
C
D
G
D
G
D
Give me more, hey, hey, hey, give me more.
Solo:
E|-----------------------------------------------------------------------12-B|-3----5-3-3---3--3---3-3-5---3-3---3--3---3---3-5---3-4-5--4-5-7--5-7--12-G|------------4------4-------------4------4---4-----------------------------D|--------------------------------------------------------------------------A|--------------------------------------------------------------------------E|---------------------------------------------------------------------------

G
G

G
D
G
D
G
D
G
D
I - - - - - - never realized what a kiss could be,
G
D
Em
This could only happen to me,
C
B7
Can't you see, can't you see?
Em
C
G
B7
Em
That when I tell you that I love you, oh,
C
G
G7
C
You're gonna say you love me too - oo - oo - oo - oo, oho,
D
G Em
C
D
And when I ask you to be mine,
you're gonna say you love me too.
D
You love me too,

G
D
you love me too.