Sie sind auf Seite 1von 4

---------------------------------------------------------------------------

--
Drying of the Lawns - Tallest man on Earth
---------------------------------------------------------------------------
--
Tabbed by: Westy619
Email: little_west_1990@hotmail.com

Tuning: Standard
Capo: 6th fret

Intro

e|-----------------------------------------------------------------|
B|--3---------------------------0-----------------------0h1---0----|
G|--2---------------------------0-----------------------0----------| X 2
D|------3-------3-------3-------0-------0-------0-------0-------0--|
A|-----------------------------------------------------------------|
E|--1-------1-------1-------1-------3-------3-------3-------3------|

[3] \
e|------------------------0--------------0---------0---------0-----| |
B|------------0-----3-----------------6--------6---------6-------0-| |
G|------0---------0-----------0------5-------5---------5-------0---| |
D|------2-------2-------2-------0------6---------------------------| |
A|--3---------------3---------------5------5-------5-------5-------| |
E|----------3---------------3--------------------------------------| |
|
|
e|--0------------------------0-------------------| |
B|--------1-------------1----------1---1-------1-| |
G|------------0---------0h2--------0---0-------0-| |
D|------2-------0----------------0-----0-------0-| |
x2
A|--0----------------------3---------------------| |
E|----------3-------1--------------3-------3-----| |
|
|
e|------------------0--------------| |
B|------------0-----------0--------| |
G|------0---------------------0----| |
D|------2-------0-------2-------0--| |
A|--3---------------3--------------| |
E|----------3---------------3------| |
/
Verse/Chorus

e|------------------0--------------------0---------0---------0-----| |
B|------------0-----------0-----------6--------6---------6-------0-| |
G|------0---------------------0------5-------5---------5-------0---| |
D|------2-------2-------2-------0------6---------------------------| |
A|--3---------------3---------------5------5-------5-------5-------| |
E|----------3---------------3--------------------------------------| |
|
|
e|--0------------------------0-------------------| |
B|--------1-------------1----------1---1-------1-| |
G|------------0---------0h2--------0---0-------0-| |
D|------2-------0----------------0-----0-------0-| |
x2
A|--0----------------------3---------------------| |
E|----------3-------1--------------3-------3-----| |
|
|
e|------------------0--------------| |
B|------------0-----------0--------| |
G|------0---------------------0----| |
D|------2-------0-------2-------0--| |
A|--3---------------3--------------| |
E|----------3---------------3------| |
/
[3]
e|-------0-----------------------------------------------0--------|
B|----0----------------------0---------------0-----1--------------|
G|---0-------0-----------0-------0-----0---------------------0----|
D|-----2-------0-------3-------0-------2-------0-------2-------0--|
A|---------------------------------3---------------0--------------|
E|--0------0-------1-------1---------------3---------------3------|

e|------------------------0------------------------|
B|--------1---------1---------------1---1-------1--|
G|--0---------0---------------0-----2---0-------0--|
D|------2-------0-------2-------0-------0-------0--|
A|--3-------3-------0------------------------------|
E|--------------------------3-------1-------3------|

e|------------------0--------------|
B|------------0-----------0--------|
G|------0---------------------0----|
D|------2-------0-------2-------0--|
A|--3---------------3--------------|
E|----------3---------------3------|

Bit after chorus (bridge?)


[3]
e|-------0---------------0------------------------|
B|----1------------1---------------1---1-------1--|
G|---0-------0---------------0-----2---0-------0--|
D|-----2-------0-------2-------0-------0-------0--|
A|--3------2-------0------------------------------|
E|-------------------------3-------1-------3------|

e|------------------0--------------|
B|------------0-----------0--------|
G|------0---------------------0----|
D|------2-------0-------2-------0--|
A|--3---------------3--------------|
E|----------3---------------3------|

(And I will stand down in this hallway...)

e|---------------------------------|
B|-^1---------------^6---------^3--|
G|-|0---------------|5---------|2--|
D|-|2---------------|6---------|3--|
A|-|3---------------|5---------|2--|
E|---------------------------------|

Ending

e|-------0----------------------------------------|
B|----0----------------------0---------------0----|
G|---0-------0-----------0-------0-----0----------|
D|-----2-------0-------3-------0-------2-------0--|
A|---------------------------------3--------------|
E|--0------0-------1-------1---------------3------|

e|------------------0------------------------0--------|
B|------------0-----------0------------------------0--|
G|------0---------------------0---------0-------------|
D|------2-------2-------2-------0-------0h2----0------|
A|----------------------------------------------------|
E|--0-------0-------0-------0-------0------0-------0--|

e|------------------------0----------------------------------------|
B|--------1---------1---------------1---1-------1-------------0----|
G|--0---------0---------------0-----2---0-------0-------0----------|
D|------2-------0-------2-------0-------0-------0-------2-------0--|
A|--3-------3-------0-------------------------------3--------------|
E|--------------------------3-------1-------3---------------3------|

e|------------------------0----------------------------|
B|--------1---------1---------------1---1-------1------|
G|--0---------0---------------0-----2---0-------0------|
D|------2-------0-------2-------0-------0-------0------|
A|--3-------3-------0-------------------------------3--|
E|--------------------------3-------1-------3----------|

************************************

| / slide up
| \ slide down
| h hammer-on
| p pull-off
| ~ vibrato
| + harmonic
| x Mute note
| b Bend
| pb Pre-bend
| br Bend release
| pbr Pre-bend release
| brb Bend release bend

************************************