Sie sind auf Seite 1von 2

Photograph

EdSheeran
Composio:Edsheeran/JohnnyMcDaid

Tom: E (com acordes na forma de C)


Capotraste na 4 casa

Intro pre chorus


e|-------------------------------------------|
B|-----1-0-1-----------1-0-1-----------------| Am F
E|------------0--------------0---------------| We keep this love in a photograph
D|-------------3-2-------------3-2-----------| C G
A|-------------------------------------------| We made these memories for ourselves
E|-0-------0-------0-------0-----------------| Am
where our eyes are never closing
e|-------------------------------------------| F
B|-----1-0-1----------1-0-1------------------| our hearts are never broken
E|-----------0--------------0----------------| C G
D|------------3-2------------3-2-------------| and time's forever frozen still
A|-0-------0-------0------0------------------|
E|-------------------------------------------| Chorus

e|-------------------------------------------| C
B|---1-0-1---------1-0-1---------------------| So you can keep me inside the pocket of your
E|----------0------------0-------------------| G
D|------------3-2----------3-2---------------| ripped jeans holding me close until our
A|-------------------------------------------| Am F
E|-3-----3--------3----3---------------------| eyes meet, you won't ever be alone
C
e|-------------------------------------------| Wait for me to come home
B|---1-0-1-----------------------------------|
E|----------0--------------------------------| C
D|------------3-2----------------------------| Loving can heal
A|-------------------------------------------| Am
E|-1-----1--------1--------------------------| Loving can mend your soul
G F
And it's the only thing that I know, know

C Am G F C
I swear it will get easier
Verse Am
C remember that with every piece of ya
Loving can hurt G
Am And it's the only thing we take with us when
Loving can hurt sometimes F
G F we die
But it's the only thing that I know
Am F
C We keep this love in a photograph
When it gets hard C G
Am We made these memories for ourselves
you know it can get hard sometimes Am
G F where our eyes are never closing
it is the only thing that makes us feel alive
F
our hearts are never broken C
C G Or you can fit me inside the necklace you got
and times forever frozen still when you were
G
C sixteen next to your heart beat where I
So you can keep me inside the pocket of your Am F
G should be, keep it deep within your soul
ripped jeans holding me close until our C
Am F And if you hurt me well that's ok baby, only
eyes meet, you won't ever be alone G
C words bleed inside these pages you just
And if you hurt me that's ok baby, only Am F
G hold me and I won't ever let you go
words bleed inside these pages you just
Am F C
hold me and I won't ever let you go And when I'm away I will remember how you
G Am
Am kissed me under the lamppost back on sixth
Wait for me to come home Street
F F
Wait for me to come home hearing you whisper through the phone
C
Wait for me to come home Wait for me to come home
G
Wait for me to come home

Am C

E F

Verwandte Interessen