Sie sind auf Seite 1von 16

Intro

Moderately fast Q=144(8=s8)


F5 Gb5 G5 N.C.
4/4
Gtr I
|----3----|
W H Q Q Q a +Q S +S +S E +Q E E E E E E +Q
|----------|------------|---------------------------------|-------------------|
|----------|------------|---------------------------------|-------------------|
|----------|------------|----3b5-(3)--3b5==(3)r(3)--------|-------------------|
|----------|------3--4--|-5------------------------5-(5)--|-3---3---3-5-(5)---|
|----------|------3--4--|-5-------------------------------|---5---5-----------|
|----------|------1--2--|-3-------------------------------|-------------------|
|
| Gtr II
| W H Q Q Q Q E E +Q Q Q E E +Q
|----------|------------|---------------------------------|-------------------|
|----------|------------|---------------------------------|-------------------|
|----------|------------|---------------------------------|-------------------|
|----------|------3--4--|-5-------5---3-------------------|-------------------|
|----------|------3--4--|-5------------------------5-(5)--|-3---3---3-3-(3)---|
|----------|------1--2--|-3-------------------------------|-------------------|

G5 N.C.
~~~~~~
|----3----|
Q a +Q S +S +S E +Q Q E E +H
|---------------------------------|---------------|
|---------------------------------|---------------|
|----3b5-(3)--3b5==(3)r(3)--------|---------------|
|--------------------------5-(5)--|-3--3-5-(5)----|
|-5-------------------------------|---------------|
|-3-------------------------------|---------------|
|
| ~~~~~~
| Q Q E E +Q Q E E +H
|---------------------------------|---------------|
|---------------------------------|---------------|
|---------------------------------|---------------|
|---------5---3-------------------|---------------|
|-5------------------------5-(5)--|-3--3-5-(5)----|
|-3-------------------------------|---------------|

G5 N.C.
|----3----|
Q a +Q S +S +S E +Q E E E E E E +Q
|---------------------------------|------------------|
|---------------------------------|------------------|
|----3b5-(3)--3b5==(3)r(3)--------|------------------|
|--------------------------5-(5)--|-3---3---3-5-(5)--|
|-5-------------------------------|---5---5----------|
|-3-------------------------------|------------------|
|
| Q Q E E +Q Q Q E E +Q
|---------------------------------|------------------|
|---------------------------------|------------------|
|---------------------------------|------------------|
|---------5---3-------------------|------------------|
|-5------------------------5-(5)--|-3---3---3-3-(3)--|
|-3-------------------------------|------------------|

1st - 3rd Verses


$
N.C.
Gtrs I, II
|-3-| |-3-|
Q Q Q Q Q Q Q Q E E Q E E E E E E E Q E E E E E
|-------------|-------------||-------------------|-------------------|
|-------------|-------------||o------------------|-------------------|
|-------------|-------------||-------------------|-------------------|
|-5--3--------|-------------||------5------5p3---|-----5------5p3----|
|-------5--3--|-1-----------||o----------------5-|----------------5--|
|-------------|----3--1--2--||--3-3----3-3-------|-3-3----3-3--------|

|-3-| |-3-| |-3-| |-3-|


E E Q E E E E E E E E E E +Q E E E E E Q E E E E E
|------------------|----------------------|------------------|
|------------------|----------------------|------------------|
|------------------|---------3-(3)--------|------------------|
|-----5------5p3---|-----5p3--------5p3---|-----5------5p3---|
|----------------5-|--------------------5-|----------------5-|
|-3-3----3-3-------|-3-3------------------|-3-3----3-3-------|

|-3-| |-3-|
E E Q E E E E E E E Q E E E E E
|------------------|------------------|
|------------------|------------------|
|------------------|------------------|
|-----5------5p3---|-----5------5p3---|
|----------------5-|----------------5-|
|-3-3----3-3-------|-3-3----3-3-------|

Pre-Chorus
N.C.
E E Q +E E E E +E E E E +E E Q
|------------------||---------------------|
|------------------||---------------------|
|------------------||---------------------|
|-----5--(5)-------||---------------------|
|--------------0-1-||-(1)-0-----------0---|
|-3-3--------3-----||-------3-1-(1)-3-----|

E E E E +H E E Q Q Q E E Q +E E E E +E E E E +E E Q
|----------------|--------------|------------------|---------------------|
|----------------|--------------|------------------|---------------------|
|----------------|--------------|------------------|---------------------|
|----------------|-1-1-0--------|-----5--(5)-------|---------------------|
|-3-1-0----------|--------3--1--|--------------0-1-|-(1)-0-----------0---|
|-------3-(3)----|--------------|-3-3--------3-----|-------3-1-(1)-3-----|

F5 Gb5
|-3-| |-3-| |-3-| |-3-| |-3-| |-3-|
E E E E +E E Q E E E E E E E E E E E E E E E E E E Q Q
|------------------|-------------------------|--------------------||
|------------------|-------------------------|--------------------||
|------------------|-------------------------|--------------------||
|------------------|-------------------------|--------------------||
|-3-1-0------------|-3-3-3-3-3-3-3-3-3-3-3-3-|-3-3-3-3-3-3-3--4---||
|-------3-(3)-3-3--|-1-1-1-1-1-1-1-1-1-1-1-1-|-1-1-1-1-1-1-1--2---||

Chorus
G5 N.C.
Gtr I
|----3----|
Q a +Q S +S +S E +Q E E E E E E +Q
|---------------------------------|------------------|
|---------------------------------|------------------|
|----3b5-(3)--3b5==(3)r(3)--------|------------------|
|-5------------------------5-(5)--|-3---3---3-5-(5)--|
|-5-------------------------------|---5---5----------|
|-3-------------------------------|------------------|
|
| Gtr II
| Q Q E E +Q Q Q E E +Q
|---------------------------------|------------------|
|---------------------------------|------------------|
|---------------------------------|------------------|
|-5-------5---3-------------------|------------------|
|-5------------------------5-(5)--|-3---3---3-3-(3)--|
|-3-------------------------------|------------------|

G5 N.C.
~~~~~~
|----3----|
Q a +Q S +S +S E +Q Q E E +H
|---------------------------------|---------------|
|---------------------------------|---------------|
|----3b5-(3)--3b5==(3)r(3)--------|---------------|
|--------------------------5-(5)--|-3--3-5-(5)----|
|-5-------------------------------|---------------|
|-3-------------------------------|---------------|
|
| ~~~~~~
| Q Q E E +Q Q E E +H
|---------------------------------|---------------|
|---------------------------------|---------------|
|---------------------------------|---------------|
|---------5---3-------------------|---------------|
|-5------------------------5-(5)--|-3--3-5-(5)----|
|-3-------------------------------|---------------|

G5 N.C.
|----3----|
Q a +Q S +S +S E +Q
|---------------------------------|
|---------------------------------|
|----3b5-(3)--3b5==(3)r(3)--------|
|--------------------------5-(5)--|
|-5-------------------------------|
|-3-------------------------------|
|
| Q Q E E +Q
|---------------------------------|
|---------------------------------|
|---------------------------------|
|---------5---3-------------------|
|-5------------------------5-(5)--|
|-3-------------------------------|

To Coda
E E E E E E +Q Q Q Q Q Q Q Q Q
|------------------|-------------|--------------||
|------------------|-------------|-------------o||
|------------------|-------------|--------------||
|-3---3---3-5-(5)--|-5--3--------|--------------||
|---5---5----------|-------5--3--|-1-----------o||
|------------------|-------------|----3--1--2---||
|
| Q Q E E +Q Q Q Q Q Q Q Q Q
|------------------|-------------|--------------||
|------------------|-------------|-------------o||
|------------------|-------------|--------------||
|------------------|-5--3--------|--------------||
|-3---3---3-3-(3)--|-------5--3--|-1-----------o||
|------------------|-------------|----3--1--2---||

Guitar Solo
N.C.
Gtr III
|---3---| |--3--| |---3---| |--3--|
E E E E E E E E E E E E
|--/6-------6-----6-----6-------6-----6----|
|------8-------8-----8-----8-------8-----8-|
|------------------------------------------|
|------------------------------------------|
|------------------------------------------|
|------------------------------------------|
|
| Gtr II
| |---3---| |--3--| |---3---| |--3--|
| E E E E E E E E E E E E
|-/10------10----10----10------10----10----|
|-----11------11----11----11------11----11-|
|------------------------------------------|
|------------------------------------------|
|------------------------------------------|
|------------------------------------------|
|
| Gtr I
| E E Q E E Q
|------------------------------------------|
|------------------------------------------|
|------------------------------------------|
|--------------5-------------------5-------|
|------------------------------------------|
|---3----3--------------3----3-------------|
|---3---| |--3--| |---3---| |--3--|
E E E E E E E E E E E E
|--/6-------6-----6-----6-------6-----6-----|
|------8-------8-----8-----8-------8-----8--|
|-------------------------------------------|
|-------------------------------------------|
|-------------------------------------------|
|-------------------------------------------|
|
| |---3---| |--3--| |---3---| |--3--|
| E E E E E E E E E E E E
|-/10------10----10----10------10----10-----|
|-----11------11----11----11------11----11--|
|-------------------------------------------|
|-------------------------------------------|
|-------------------------------------------|
|-------------------------------------------|
|
| E E Q E E Q
|-------------------------------------------|
|-------------------------------------------|
|-------------------------------------------|
|--------------5-------------------5--------|
|-------------------------------------------|
|---3----3--------------3----3--------------|

|---3---| |--3--| |---3---| |--3--|


E E E E E E E E E E E E
|--/6-------6-----6-----6-------6-----6----|
|------8-------8-----8-----8-------8-----8-|
|------------------------------------------|
|------------------------------------------|
|------------------------------------------|
|------------------------------------------|
|
| |---3---| |--3--| |---3---| |--3--|
| E E E E E E E E E E E E
|-/10------10----10----10------10----10----|
|-----11------11----11----11------11----11-|
|------------------------------------------|
|------------------------------------------|
|------------------------------------------|
|------------------------------------------|
|
| E E Q E E Q
|------------------------------------------|
|------------------------------------------|
|------------------------------------------|
|--------------5-------------------5-------|
|------------------------------------------|
|---3----3--------------3----3-------------|

|--3--| |--3--| |--3--| |--3--|


E E E E E E E E E E E E
|--6-----6--7-----7--8-----8--9-----9-|
|-----8--------9-------10-------11----|
|-------------------------------------|
|-------------------------------------|
|-------------------------------------|
|-------------------------------------|
|
| |--3--| |--3--| |--3--| |--3--|
| E E E E E E E E E E E E
|-10----10-11----11-12----12-13----13-|
|----11-------12-------13-------14----|
|-------------------------------------|
|-------------------------------------|
|-------------------------------------|
|-------------------------------------|
|
| Q Q Q Q
|-------------------------------------|
|-------------------------------------|
|-------------------------------------|
|--5--------4--------3--------2-------|
|-------------------------------------|
|-------------------------------------|

|--3--| |--3--| |--3--| |--3--|


E E E E E E E E E E E E
|-10----10-11----11-12----12-13----13-|
|----12-------13-------14-------15----|
|-------------------------------------|
|-------------------------------------|
|-------------------------------------|
|-------------------------------------|
|
| |--3--| |--3--| |--3--| |--3--|
| E E E E E E E E E E E E
|-14----14-15----15-16----16-17----17-|
|----15-------16-------17-------18----|
|-------------------------------------|
|-------------------------------------|
|-------------------------------------|
|-------------------------------------|
|
| Q Q Q Q
|-------------------------------------|
|-------------------------------------|
|-------------------------------------|
|-------------------------------------|
|--6--------5--------4--------3-------|
|-------------------------------------|

~~~~~~~~~~~~~
Q Q Q Q Q Q Q +Q
|-13b15---13b15---13b15--13b15--|-13b15---13b15---13b15===(13)r--||
|-------------------------------|--------------------------------||
|-------------------------------|--------------------------------||
|-------------------------------|--------------------------------||
|-------------------------------|--------------------------------||
|-------------------------------|--------------------------------||
|
| ~~~~~~~~~~~~~
| Q Q Q Q Q Q Q +Q
|-17b18---17b18---17b18--17b18--|-17b18---17b18---17b18===(17)r--||
|-------------------------------|--------------------------------||
|-------------------------------|--------------------------------||
|-------------------------------|--------------------------------||
|-------------------------------|--------------------------------||
|-------------------------------|--------------------------------||
|
| E E E E H E E E E H
|-------------------------------|--------------------------------||
|-------------------------------|--------------------------------||
|-------------------------------|--------------------------------||
|-------------------------------|--------------------------------||
|-------------------------------|--------------------------------||
|--3----3--3----3--3------------|--3----3--3----3--3-------------||

N.C.
Gtr III
|--3--|
a +E +E E E E a +Q +E E
|-13b15-(13)r(13)-10----10---------------------------|
|--------------------13----13b15==(13)r==(13)p==11---|
|----------------------------------------------------|
|----------------------------------------------------|
|----------------------------------------------------|
|----------------------------------------------------|
|
| Gtr I
| |---3---|
| E E Q E E E E E
|----------------------------------------------------|
|----------------------------------------------------|
|----------------------------------------------------|
|------------------5-----------------------5p=3------|
|--------------------------------------------------5-|
|---------3----3--------------------3--3-------------|

|-----3------| |--3---| |--3---| |--3---| |---3


----|
E +e E +E E E E E +Q E E E S S E E S S
E E S S S S
|---------------------------------------------------|---------------------------
--------------------|
|-13b15-(13)---13pb15r(13)p11----11b11.5------------|-11------8-11p8----8-11p8--
----8-11p8--------8-|
|-----------------------------12---------12-(12)----|----10----------10--------1
0------------10-----|
|---------------------------------------------------|---------------------------
--------------------|
|---------------------------------------------------|---------------------------
--------------------|
|---------------------------------------------------|---------------------------
--------------------|
|
| |-3-|
|---3----|
| E E Q E E E E E E E Q E
E E E E
|---------------------------------------------------|---------------------------
--------------------|
|---------------------------------------------------|---------------------------
--------------------|
|---------------------------------------------------|---------------------------
--------------------|
|-----------------------5---------------------5p3---|------------5--------------
-------5p==3--------|
|-------------------------------------------------5-|---------------------------
----------------5---|
|--3---------3--------------------3-------3---------|--3----3--------------3----
--3-----------------|

~~~~~~~~~~~~~~
S S S S S S S S Q +E E
|------------------------------------------|
|-11p8----8-11p8----8------------------8---|
|------10--------10---10b12====(10)r-------|
|------------------------------------------|
|------------------------------------------|
|------------------------------------------|
|
| |---3---|
| E E Q E E E E E
|------------------------------------------|
|------------------------------------------|
|------------------------------------------|
|------------5-------------------5p==3-----|
|----------------------------------------5-|
|--3----3--------------3-----3-------------|

|---3----| |-3--| |--3---| |-3--| |--


3--|
E E S S E E E a E E E a E E E E E a E E E a +E E
E E
|---------------------------8------8h10-8----|-8--------------------------------
-------|
|----8---11p8----8-11-10h11-----11--------11-|---11-11s13-11-13-13b15==(13)r13-1
1------|
|-10----------10-----------------------------|----------------------------------
--12---|
|--------------------------------------------|----------------------------------
-------|
|--------------------------------------------|----------------------------------
-------|
|--------------------------------------------|----------------------------------
-------|
|
| |-3--| |--
3--|
| E E Q E E E E E E E Q E E E
E E
|--------------------------------------------|----------------------------------
-------|
|--------------------------------------------|----------------------------------
-------|
|--------------------------------------------|----------------------------------
-------|
|--------------5----------------------5p3----|----------5--------------------5p=
3------|
|------------------------------------------5-|----------------------------------
---5---|
|--3---3------------------3---3--------------|-3--3-----------3----------3------
-------|

|----3-----| |--3--|
E Q E E E E E E E
|----13b15---13-10---------10----------|
|-11---------------13b15------13-11-13-|
|--------------------------------------|
|--------------------------------------|
|--------------------------------------|
|--------------------------------------|
|
| |--3--|
| E E Q E E E E E
|--------------------------------------|
|--------------------------------------|
|--------------------------------------|
|----------5-------------------5p=3----|
|------------------------------------5-|
|--3--3----------3-------3-------------|

~~
|---3---| |--3--| |-----3-----|
E E E E E E S S E E E E E E E E E. S +E. S
|------------------------------------------|-------------------------------|
|-11---------------------------------------|-----11------------------------|
|----12---11-10----10-12p=10------10-12-10-|-12-----12-12-10----12-(12)-10-|
|---------------12-----------12------------|-------------------------------|
|------------------------------------------|-------------------------------|
|------------------------------------------|-------------------------------|
|
| E E Q +E E E E +E E E E +E E Q
|------------------------------------------|-------------------------------|
|------------------------------------------|-------------------------------|
|------------------------------------------|-------------------------------|
|-------------5-------(5)------------------|-------------------------------|
|-------------------------------------0--1-|-(1)--0------------------0-----|
|--3----3-----------------------3----------|---------3--1-(1)-3------------|

|---3---| |--3--|
S S S S E E E Q. S S S
|-----------------------------------------|
|-----------------------------------------|
|-----------------------------------------|
|-12-11-12-11-10------10---------------10-|
|----------------13------10---------13----|
|--------------------------------10-------|
|
| E E E E +E E Q
|-----------------------------------------|
|-----------------------------------------|
|-----------------------------------------|
|-----------------------------------------|
|--3-----1-----0--------------------------|
|-------------------3----(3)-3-3----------|

|--3--| |--3--|
E E E E E Q E E E H Q. +E
|----------------------------|---------------------------------|
|---8------------------------|-13pb15r=====13pb15r====(13)b14==|
|---------12-10s12-----------|---------------------------------|
|-8---/10-----------15-12-15-|---------------------------------|
|----------------------------|---------------------------------|
|----------------------------|---------------------------------|
|
| E E Q Q Q E E Q +E E E E
|----------------------------|---------------------------------|
|----------------------------|---------------------------------|
|----------------------------|---------------------------------|
|-1-1---0--------------------|----------5--(5)-----------------|
|----------------3---1-------|----------------------0---1------|
|----------------------------|--3-----3-----------3------------|

+E +E E +E +E +E +E +E
|------------------------------------------------------|
|-(13)r(13)-13pb14r(13)b14==(13)r(13)b14==(13)r(13)b14-|
|------------------------------------------------------|
|------------------------------------------------------|
|------------------------------------------------------|
|------------------------------------------------------|
|
| +E E E E +E E Q
|------------------------------------------------------|
|------------------------------------------------------|
|------------------------------------------------------|
|------------------------------------------------------|
|--(1)---0----------------------------------0----------|
|------------3-------1-------(1)---3-------------------|

F5
|-3-|
+Q a +E +E E Q +Q a +Q +Q Q Q
|----------------------------------------|-13b15==(13)r====(13)-----10----------
------|
|-(13)---13b15==(13)r(13)-11-------------|---------------------------------13pb1
5r====|
|-----------------------------12---(12)--|--------------------------------------
------|
|----------------------------------------|--------------------------------------
------|
|----------------------------------------|--------------------------------------
------|
|----------------------------------------|--------------------------------------
------|
|
| |-3--| |-3--| |-3-| |---
3---|
| E E E E +E E Q E E E E E E E E E E
E E
|----------------------------------------|--------------------------------------
------|
|----------------------------------------|--------------------------------------
------|
|----------------------------------------|--------------------------------------
------|
|----------------------------------------|--------------------------------------
------|
|---3--1----------0----------------------|----------3--3-3---3--3-3--3-3-3--3---
--3-3-|
|----------------------3--(3)----3---3---|----------1--1-1---1--1-1--1-1-1--1---
--1-1-|

Chorus
Gb5 G5 N.C.
+Q Q E +E E E +W
|--------------------------------13b15==||=(13)-------------------------------|
|-(13)p====11-----13pb14r(13)p11--------||------------------------------------|
|---------------------------------------||------------------------------------|
|---------------------------------------||------------------------------------|
|---------------------------------------||------------------------------------|
|---------------------------------------||------------------------------------|
|
| Gtr I
| |-3--| |-3-| |----3----|
| E E E E E E Q Q Q a +Q S +S +S E +Q
|---------------------------------------||------------------------------------|
|---------------------------------------||------------------------------------|
|---------------------------------------||-------3b5-(3)--3b5==(3)r(3)--------|
|---------------------------------------||---5-------------------------5-(5)--|
|---3--3-3--3-3-3--3-----------4--------||---5--------------------------------|
|---1--1-1--1-1-1--1-----------2--------||---3--------------------------------|
|
| Gtr II
| W Q Q E E +Q
|---------------------------------------||------------------------------------|
|---------------------------------------||------------------------------------|
|---------------------------------------||------------------------------------|
|---------------------------------------||---5--------5---3-------------------|
|---------------------------------------||---5-------------------------5-(5)--|
|---------------------------------------||---3--------------------------------|

G5 N.C.
+H. +Q W
|-(13)-----------(13)r\--|---------------------------------|
|------------------------|---------------------------------|
|------------------------|---------------------------------|
|------------------------|---------------------------------|
|------------------------|---------------------------------|
|------------------------|---------------------------------|
|
| |----3----|
| E E E E E E +Q Q a +Q S +S +S E +Q
|------------------------|---------------------------------|
|------------------------|---------------------------------|
|------------------------|----3b5-(3)--3b5==(3)r(3)--------|
|---3----3---3-5--(5)----|--------------------------5-(5)--|
|------5---5-------------|-5-------------------------------|
|------------------------|-3-------------------------------|
|
| Q Q E E +Q Q Q E E +Q
|------------------------|---------------------------------|
|------------------------|---------------------------------|
|------------------------|---------------------------------|
|------------------------|---------5---3-------------------|
|---3----3---3-3--(3)----|-5------------------------5-(5)--|
|------------------------|-3-------------------------------|

G5 N.C.
Gtr I
~~~~~~
|----3----|
Q E E +H Q a +Q S +S +S E +Q
|---------------|---------------------------------|
|---------------|---------------------------------|
|---------------|----3b5-(3)--3b5==(3)r(3)--------|
|-3--3-5-(5)----|--------------------------5-(5)--|
|---------------|-5-------------------------------|
|---------------|-3-------------------------------|
|
| Gtr II
| ~~~~~~
| Q E E +H Q Q E E +Q
|---------------|---------------------------------|
|---------------|---------------------------------|
|---------------|---------------------------------|
|-3--3-5-(5)----|---------5---3-------------------|
|---------------|-5------------------------5-(5)--|
|---------------|-3-------------------------------|

E E E E E E +Q Q Q Q Q
|------------------|-------------|
|------------------|-------------|
|------------------|-------------|
|-3---3---3-5-(5)--|-5--3--------|
|---5---5----------|-------5--3--|
|------------------|-------------|
|
| Q Q E E +Q Q Q Q Q
|------------------|-------------|
|------------------|-------------|
|------------------|-------------|
|------------------|-5--3--------|
|-3---3---3-3-(3)--|-------5--3--|
|------------------|-------------|

Out-Chorus
D.S. al Coda &
F5 Gb5
Gtrs I, II
|-3-| |-3-| |-3-| |-3-| |-3-| |-3-|
Q Q Q Q E E E E E E E E E E E E E E E E E E Q Q
|-------------||-------------------------|--------------------||
|-------------||-------------------------|--------------------||
|-------------||-------------------------|--------------------||
|-------------||-------------------------|--------------------||
|-1-----------||-3-3-3-3-3-3-3-3-3-3-3-3-|-3-3-3-3-3-3-3--4---||
|----3--1--2--||-1-1-1-1-1-1-1-1-1-1-1-1-|-1-1-1-1-1-1-1--2---||

G5 N.C.
Gtr I
|----3----|
Q a +Q S +S +S E +Q E E E E E E +Q
|---------------------------------|------------------|
|---------------------------------|------------------|
|----3b5-(3)--3b5==(3)r(3)--------|------------------|
|-5------------------------5-(5)--|-3---3---3-5-(5)--|
|-5-------------------------------|---5---5----------|
|-3-------------------------------|------------------|
|
| Gtr II
| Q Q E E +Q Q Q E E +Q
|---------------------------------|------------------|
|---------------------------------|------------------|
|---------------------------------|------------------|
|-5-------5---3-------------------|------------------|
|-5------------------------5-(5)--|-3---3---3-3-(3)--|
|-3-------------------------------|------------------|

G5 N.C.
~~~~~~
|----3----|
Q a +Q S +S +S E +Q Q E E +H
|---------------------------------|---------------|
|---------------------------------|---------------|
|----3b5-(3)--3b5==(3)r(3)--------|---------------|
|--------------------------5-(5)--|-3--3-5-(5)----|
|-5-------------------------------|---------------|
|-3-------------------------------|---------------|
|
| ~~~~~~
| Q Q E E +Q Q E E +H
|---------------------------------|---------------|
|---------------------------------|---------------|
|---------------------------------|---------------|
|---------5---3-------------------|---------------|
|-5------------------------5-(5)--|-3--3-5-(5)----|
|-3-------------------------------|---------------|

G5 N.C. F5
|----3----| |-3-| |-3-|
Q a +Q S +S +S E +Q E E E E E E +Q Q Q Q Q Q Q
|---------------------------------|------------------|-------------|
|---------------------------------|------------------|-------------|
|----3b5-(3)--3b5==(3)r(3)--------|------------------|-------------|
|--------------------------5-(5)--|-3---3---3-5-(5)--|-3-3-3-3-3-3-|
|-5-------------------------------|---5---5----------|-3-3-3-3-3-3-|
|-3-------------------------------|------------------|-1-1-1-1-1-1-|
|
| |-3-| |-3-|
| Q Q E E +Q Q Q E E +Q Q Q Q Q Q Q
|---------------------------------|------------------|-------------|
|---------------------------------|------------------|-------------|
|---------------------------------|------------------|-------------|
|---------5---3-------------------|------------------|-3-3-3-3-3-3-|
|-5------------------------5-(5)--|-3---3---3-3-(3)--|-3-3-3-3-3-3-|
|-3-------------------------------|------------------|-1-1-1-1-1-1-|

Gb5 G5 N.C.
|-3-| |----3----|
Q Q Q Q Q Q a +Q S +S +S E +Q
|-------------||----------------------------------|
|-------------||o---------------------------------|
|-------------||-----3b5-(3)--3b5==(3)r(3)--------|
|-3-3-3-3--4--||--5------------------------5-(5)--|
|-3-3-3-3--4--||o-5-------------------------------|
|-1-1-1-1--2--||--3-------------------------------|
|
| |-3-|
| Q Q Q Q Q Q Q E E +Q
|-------------||----------------------------------|
|-------------||o---------------------------------|
|-------------||----------------------------------|
|-3-3-3-3--4--||--5-------5---3-------------------|
|-3-3-3-3--4--||o-5------------------------5-(5)--|
|-1-1-1-1--2--||--3-------------------------------|

G5 N.C.
|----3----|
E E E E E E +Q Q a +Q S +S +S E +Q
|------------------|----------------------------------|
|------------------|----------------------------------|
|------------------|----3b5-(3)--3b5==(3)r(3)---------|
|-3---3---3-5-(5)--|--------------------------5-(5)---|
|---5---5----------|-5--------------------------------|
|------------------|-3--------------------------------|
|
| Q Q E E +Q Q Q E E +Q
|------------------|----------------------------------|
|------------------|----------------------------------|
|------------------|----------------------------------|
|------------------|---------5---3--------------------|
|-3---3---3-3-(3)--|-5------------------------5-(5)---|
|------------------|-3--------------------------------|

G5 N.C.
~~~~~~
|----3----|
Q E E +H Q a +Q S +S +S E +Q
|---------------|---------------------------------|
|---------------|---------------------------------|
|---------------|----3b5-(3)--3b5==(3)r(3)--------|
|-3--3-5-(5)----|--------------------------5-(5)--|
|---------------|-5-------------------------------|
|---------------|-3-------------------------------|
|
| ~~~~~~
| Q E E +H Q Q E E +Q
|---------------|---------------------------------|
|---------------|---------------------------------|
|---------------|---------------------------------|
|-3--3-5-(5)----|---------5---3-------------------|
|---------------|-5------------------------5-(5)--|
|---------------|-3-------------------------------|

F5 Gb5
|-3-| |-3-| |-3-| |-3-| |-3-| |-3-|
E E E E E E +Q E E E E E E E E E E E E E E E E E E Q Q 3x
|------------------|-------------------------|---------------------||
|------------------|-------------------------|--------------------o||
|------------------|-------------------------|---------------------||
|-3---3---3-5-(5)--|-------------------------|---------------------||
|---5---5----------|-3-3-3-3-3-3-3-3-3-3-3-3-|-3-3-3-3-3-3-3--4---o||
|------------------|-1-1-1-1-1-1-1-1-1-1-1-1-|-1-1-1-1-1-1-1--2----||
|
| |-3-| |-3-| |-3-| |-3-| |-3-| |-3-|
| Q Q E E +Q E E E E E E E E E E E E E E E E E E Q Q 3x
|------------------|-------------------------|---------------------||
|------------------|-------------------------|--------------------o||
|------------------|-------------------------|---------------------||
|------------------|-------------------------|---------------------||
|-3---3---3-3-(3)--|-3-3-3-3-3-3-3-3-3-3-3-3-|-3-3-3-3-3-3-3--4---o||
|------------------|-1-1-1-1-1-1-1-1-1-1-1-1-|-1-1-1-1-1-1-1--2----||

Duration Legend
---------------
W - whole; H - half; Q - quarter; E - 8th; S - 16th; T - 32nd; X - 64th; a - acc
iaccatura
+ - note tied to previous; . - note dotted; .. - note double dotted
Uncapitalized letters represent notes that are staccato (1/2 duration)
Irregular groupings are notated above the duration line
Duration letters will always appear directly above the note/fret number it repre
sents the
duration for. Duration letters with no fret number below them represent rests.
Multi-
bar rests are notated in the form Wxn, where n is the number of bars to rest for
. Low
melody durations appear below the staff
Tablature Legend
----------------
h - hammer-on
p - pull-off
b - bend
pb - pre-bend
r - bend release (if no number after the r, then release immediately)
/\ - slide into or out of (from/to "nowhere")
s - legato slide
S - shift slide
<n> - natural harmonic
[n] - artificial harmonic
n(n) - tapped harmonic
~ - vibrato
tr - trill
T - tap
TP - trem. picking
PM - palm muting
\n/ - tremolo bar dip; n = amount to dip
\n - tremolo bar down
n/ - tremolo bar up
/n\ - tremolo bar inverted dip
= - hold bend; also acts as connecting device for hammers/pulls
<> - volume swell (louder/softer)
x - on rhythm slash represents muted slash
o - on rhythm slash represents single note slash
Misc Legend
-----------
| - bar
|| - double bar
||o - repeat start
o|| - repeat end
*| - double bar (ending)
: - bar (freetime)
$ - Segno
& - Coda
Tempo markers - <E/E./Q/Q./H/H.> = BPM(8/16=s8/s16), where s8 = swing 8ths, s16
= swing 16ths