Sie sind auf Seite 1von 3

Hino Ocial do Sport Club Internacional

Hinos de Futebol

Tom: A#

Intro: Eb Ebm Bb G7 C7 F7 Bb F7

Eb Ebm Bb
E|------------------------------------------
B|-8-------8-------7-------7-------6--------
G|-8-------8-------8-------8-------7--------
D|-8-------8-------8-------8-------8--------
A|-6-------6-------6-------6----------------
E|---------------------------------6--------

G7 C7 F7
E|------------------------------------------
B|-----------3---1-----1-----1-------1---1--
G|-----------4---3-----3-----3-------2---2--
D|-----------3---2-----2-----2-------1---1--
A|---0-----------3--------------------------
E|-6---4-3---------------3-------1-------1--

Bb F7
E|------------------------------------------
B|-3----------------------------------------
G|-3----------------------------------------
D|-3-------3---3-3-3-1-0--------------------
A|-1---------------------3------------------
E|------------------------------------------

1 Parte:
Bb G7 C7
Glria do desporto nacional
F7
Oh, Internacional
Bb Bb
Que eu vivo a exaltar
Bb F7
Levas a plagas distantes
C7
Feitos relevantes
F7
Vives a brilhar
Bb G7 C7
Olhos onde surge o amanh surge o amanh
F7 D7/F# G7 Bb7
Radioso de luz, varonil
Eb Ebm Bb
Segue a tua senda de vitrias
G7 C7
Colorado das glrias,
F7 Bb
Orgulho do Brasil

2 Parte:
Gm Cm
teu passado, alvi-rubro
D7 Gm D7
Motivo de festas em nossos coraes
Gm F
O teu presente diz tudo
A7 D7
Trazendo torcida alegres emoes
Gm Cm
Colorado de ases celeiro
D7 G7
Teus astros cintilam num cu sempre azul
Cm Gm
Vibra o Brasil inteiro
Eb7 D7 Gm
Com o clube do povo do Rio Grande do Sul

(repete a primeira parte)

Final:

Bb
E|------------------------------------------
B|-3-----------------------3----------------
G|-3---------------3------------------------
D|-3-------3--------------------------------
A|-1---------------1------------------------
E|---------1---------------1----------------

Eb Ebm Bb
E|---------------------------------6---6----
B|-8-----------8-8-7---7-------7---6---6----
G|-8-----------8-8-8---8-------8---7---7----
D|-8-----------8-8-8---8-------8---8---8----
A|-6-----------6-6-6---6-------6---8---8----
E|---------------------------------6---6----
Bb
E|-6-6-6------------------------------------
B|-6-6-6------------------------------------
G|-7-7-7------------------------------------
D|-8-8-8------------------------------------
A|-8-8-8------------------------------------
E|-6-6-6------------------------------------

A7 Bb Bb7 Bb C7 Cm
6 1 2 3 1 1
1 2 4 2 3 2
2 3 4 3 4
2
3 4

D7 D7/F# Eb Eb7 Ebm F


1 6 4 1 6
2 3 2 2 2
1 2 3 4 3 4 3 4 3 4
2
3 4

F7 G7 Gm
1 2 3
4
1 2 3
4
3 4