Sie sind auf Seite 1von 4

Johann Michael Khnel

Suite H moll
Allemande

Tuning

1 |D| RE
2 |B| SI
3 |f| FA#
4 |D| RE
5 |A| LA
6 |E| MI

Time Signature: 4/4 1 2 3 4 5 6


Capotasto III 2 4 6 3

D|----------|------------------0h2-|-4p02p0--5p0-------|---------------------------|
B|-------0--|--0----------0h2------|---------------2p0--|-----------0-----0---------|
f|----------|-----0--2h4-----------|--------------------|--4p02h4-----4-----4------|
D|----------|----------------------|--------------------|---------------------------|
A|----------|--2-------------------|--------------------|---------------------------|
E|----------|----------------------|-0------------------|--2--------------0---------|

D|-------------------------|----------------------|----------------------|-----------------------|
B|--0-----------0----------|----------------------|----------------------|-----------------------|
f|-----0--1--3-----3p1-L-0-|----------------------|----------------------|-----------------------|
D|--0----------------------|----------------------|----------------------|-----------------------|
A|--------------2----------|----------------------|----------------------|-----------------------|
E|-------------------------|----------------------|----------------------|-----------------------|

D|-------------------------|----------------------|----------------------|-----------------------|
B|-------------------------|----------------------|----------------------|-----------------------|
f|-------------------------|----------------------|----------------------|-----------------------|
D|-------------------------|----------------------|----------------------|-----------------------|
A|-------------------------|----------------------|----------------------|-----------------------|
E|-------------------------|----------------------|----------------------|-----------------------|

D|-------------------------|----------------------|----------------------|-----------------------|
B|-------------------------|----------------------|----------------------|-----------------------|
f|-------------------------|----------------------|----------------------|-----------------------|
D|-------------------------|----------------------|----------------------|-----------------------|
A|-------------------------|----------------------|----------------------|-----------------------|
E|-------------------------|----------------------|----------------------|-----------------------|

D|-------------------------|----------------------|----------------------|-----------------------|
B|-------------------------|----------------------|----------------------|-----------------------|
f|-------------------------|----------------------|----------------------|-----------------------|
D|-------------------------|----------------------|----------------------|-----------------------|
A|-------------------------|----------------------|----------------------|-----------------------|
E|-------------------------|----------------------|----------------------|-----------------------|

D|-------------------------|----------------------|----------------------|-----------------------|
B|-------------------------|----------------------|----------------------|-----------------------|
f|-------------------------|----------------------|----------------------|-----------------------|
D|-------------------------|----------------------|----------------------|-----------------------|
A|-------------------------|----------------------|----------------------|-----------------------|
E|-------------------------|----------------------|----------------------|-----------------------|

D|-------------------------|----------------------|----------------------|-----------------------|
B|-------------------------|----------------------|----------------------|-----------------------|
f|-------------------------|----------------------|----------------------|-----------------------|
D|-------------------------|----------------------|----------------------|-----------------------|
A|-------------------------|----------------------|----------------------|-----------------------|
E|-------------------------|----------------------|----------------------|-----------------------|
Johann Michael Khnel
Suite H moll
Courante

Tuning

1 |D| RE
2 |B| SI
3 |f| FA#
4 |D| RE
5 |A| LA
6 |E| MI

Time Signature: 1 2 3 4 5 6
Capotasto III 2 4 6 3

D|----------|---------------------------|-------------------|---------------------------|
B|----------|--0------------------------|-0--------------0--|--2p0-------0--2-----------|
f|-0--2--4--|-----0------------0--2--4--|----0--------0-----|---------4--------0-----0--|
D|----------|--------0-----0------------|-------0-----------|---------------------2-----|
A|----------|--2--------2---------------|-2--------2--------|--1------------------------|
E|----------|---------------------------|-------------------|---------------------------|

D|-------------------------|--0-------0--------0--|----------0--------0--|-----------------------|
B|--2p0-----0--2-----------|-----0h2-----0--2-----|-----0h2-----0--------|-----------------------|
f|-------4--------0-----0--|----------------------|----------------4-----|--1p0--------1--1--1--1|
D|-------------------2-----|----------------------|----------------------|-------2--4-----0--2--0|
A|-------------------------|--2-------------0-----|----------------------|-----------------------|
E|--2----------------------|----------------------|--3-------------2-----|--0--------------------|

D|-------------------------|-----5p4-----4-----0-----0-------|-----0-----------------------------|
B|-------------------------|----------5-----5-----2-----2p0--|--------2p0-----0------------------|
f|--1p0--------1--1--1--1--|---------------------------------|--3----------3-----3p1--0--1p0-----|
D|-------2--4--------------|---------------------------------|--------------------------------2--|
A|--3-------------2--4--2--|--0------------------------------|--0--------------------------------|
E|-------------------------|---------------------------------|-----------------------------------|

D|----0---0---0---0---0---0--|-------0---0---0---0---0---0--|---------------------------|
B|------3---3---2---3--------|---------3---3---2---0--------|----0---0---0---0---0---0--|
f|----------------------3----|----0--------------------3----|--1---5---5---3---1---0----|
D|--0------------------------|--0---------------------------|---------------------------|
A|---------------------------|------------------------------|---------------------------|
E|---------------------------|------------------------------|---------------------------|

D|---------------------------|------------------------------|---------------------------|
B|---0---0----0---0----0---0-|------------------------------|----0---0---0---0---0---0--|
f|-----1---------------------|-----0---0---0---0----0---0---|------5---5---5---4---3----|
D|-2--------2---0------------|-------4---4---4----2---2-----|---------------------------|
A|-------------------4---2---|--1---------------------------|--1---------------4--------|
E|---------------------------|--------------------2---------|---------------------------|

D|---------------------------|-----------0------------------|---------------------------|
B|-----0----2p0---0--2p0---0-|--2p0---0----0---0--2p0---0---|----------0--------2-------|
f|---5---5------5--------5---|------5--------5--------5-----|-4p0---0----0---0----0---0-|
D|-0-------------------------|------------------------------|-----4--------4--------4---|
A|---------------------------|------------------------------|---------------------------|
E|---------------------------|--0---------------------------|-2-------------------------|

D|-0-------------------------|-----------------0-|-0-------||--------|------------------|
B|----------2--------0-------|-----0--0--2--2--0-|-0--2--2-||--2-----|----------2--2--2-|
f|---0---0----0---0----0---0-|--4--2--2--4--4----|----4--4-||--------|--3-0p2-3---------|
D|-----4--------4--------4---|--4----------------|---------||--------|------------------|
A|---------------------------|-------------------|---------||--------|------------------|
E|-2-------------------------|--2----------------|-2-------||--------|--2----------0----|
1 4 2 4 3 4 0 0 2 2 0 0 2 2
3 2 2 4 4 0 0 4 4
1 1
D|----------------------|-------------------|----0--0---------|-----7--7--6--7p6----6---|
B|-2-------0---0--0--0--|-0--0--0--0--0--0--|-0--0-----2--2p0-|------------------7------|
f|-----2h3-----5--5--3--|-5--3--5--3--2--0--|-----------------|--3----------------------|
D|-3--------------------|-------------------|-3---------------|-------------------------|
A|----------------------|-------------------|-------4---------|--------------4----------|
E|----------------------|-------------------|-----------------|--2----------------------|

D|-7-------7--7p6---6-----|4-4h6--7--------7-|-0------0--0-0-0-|-0---------0--0--0--|
B|----------------7--7h9-|-----------7--5----|----0h2====3-3-3-|----0h2--3-3--3--3--|
f|---7--7-----------------|-------------------|-----------------|--------------------|
D|-4----------------------|0------------------|-----------------|--------------------|
A|------------------------|--------------4====|=2---------0-----|--------------------|
E|------------0-----------|-------------------|-------------4-2-|-4---------2--4--2--|

D|--0--0--0--0--0--0-|----2p0---0-------------|----4p2-0-2p0--------------|
B|-3--3--3--3--3--3--|-2------2---2p0---2p0---|-0------------2p0-2p0------|
f|-------------------|----------------3-----3-|----------------------3----|
D|-------------------|------------------------|-0-------------------------|
A|-------------------|-0----------------------|---------------------------|
E|-0--2--4--2--4--0--|------------------------|---------------------------|
2 1 1 2 1 4 1 1 1 1 2

D|---------------------------|----------------------------|----------------------------|
B|----0---0------------------|----------------------------|----------------------------|
f|--2---3---2-3-2p0---0------|-----3--------3--------3----|------2--------2--------2---|
D|------------------2---2p0--|---2---2----2---2----2---2--|----2---2----2---2----2---2-|
A|---------------------------|----------4--------4--------|-----------2--------2-------|
E|--0------------------------|-0--------------------------|--0-------------------------|

C II---------------------- *** Cuidar el color ***


D|---------------------------|----------0-----------------|-----------------2--2h4--|
B|-2--------5--------2-------|-0-----------------0--------|--2-------22h3----------|
f|---3h2p3----3h2p3----3h2p3-|----2p0-2---2p0-2----2p0-2--|-----3h5-----------------|
D|---------------------------|----------------------------|-------------------------|
A|-0-------------------------|----------------------------|--0----------------------|
E|---------------------------|-0--------------------------|-------------------------|

C II -------------------
D|--5---5---5---5---5---5--|--4p0---0--4p0---0--4p0---0--|--2-------2-------2-------|
B|-------------------------|------3--------3--------3----|--------------------------|
f|------3---3---3---3---3--|-----------------------------|----3p2-3---3p2-3---3p2-3-|
D|-------------------------|--0--------------------------|--------------------------|
A|------0---4---0---4---0--|-----------------------------|--0=======================|
E|-------------------------|-----------------------------|--------------------------|
4 2 4 2 4 2

D|-2--------2--------2-------|-0--------0--------0-------|---------------------------|
B|---2---2----2---2----2---2-|---0---0----0---0----0---0-|-2p0---0--2p0---0--2p0---0-|
f|-----0--------0--------0---|-----4--------4--------4---|-----4--------4--------4---|
D|---------------------------|---------------------------|---------------------------|
A|-2=========================|---------------------------|---------------------------|
E|---------------------------|-2=========================|-2=========================|

D|---------------------------|-0--------2--------4-------|-6p4---4--6p4---4--6p4---0-|
B|-0--------0--------2-------|---------------------------|-----5--------5--------5---|
f|---0---0----0---0----0---0-|---0---0----0---0----0---0-|---------------------------|
D|-----4--------4--------4---|-----4--------4--------4---|---------------------------|
A|---------------------------|---------------------------|---------------------------|
E|-2=========================|-2-------------------------|-0=========================|
2 3 1 4 4 2 3 2 4 2 3 2 4 2 3 2
In Crescendo<<<<<<<<<<<<<<< ______
|2da Vez|
D|----0-2p0------0p2-0------0------|---------------------2p-----0-2p0----|----------0--------------|
B|--2----------2----------2---2p0--|----0-----------------------------2--|----0__0-----2-----------|
f|---------------------------------|--3---3-2p-----0-2p0-----------------|--Ligadura---- Mordente--|
D|---------------------------------|---------------------2p-----0-2p0----|-------------------------|
A|---------------------------------|----------------------------------4--|-2-----------------------|
E|--0------------------------------|--2----------------------------------|-------2-----------------|
1 2 1 2 1 2
D|-----------------------------------|-----------------------------------|----------||
B|----0---0-------0---0-------0---0--|----0---0-------0---0-------0---0--|---0======||
f|--5---5-------5---5-------5---5----|--5---5-------5---5-------5---5----|---0=====*||
D|-----------------------------------|--0---2-------0---2-------0---2----|---0=====*||
A|--2-----------2-----------2--------|-----------------------------------|---1======||
E|------2-----------2-----------2----|-----------------------------------|----------||
4 4 4 4 4 4 4 4 4 4 4 4
1 1 1 1 1 1 0 1 0 1 0 1