Sie sind auf Seite 1von 2

Es navidad

Intro: /LA RE MI LA/

LA RE MI LA
Un aire de paz corre por las calles
FA#m MI RE MI
pasa envolviendo cada corazn
FA#m MI RE LA
y la ciudad se viste de luces
SOL MI
celebrando la estacin.

Por todas partes la gente comparte


un sentimiento de hermandad
y las familias unidas festejan
bajo el calor de cada hogar.

CORO:
LA MI RE LA
/Es Navidad, la tierra celebra
FA#m MI RE MI
El rico y el pobre compartirn
LA MI RE LA
la dicha y el gozo que en aquel da
FA#m MI RE MI
Cristo Jess nos vino a dar/ La

/LA RE MI LA/

Este es un tiempo anticipado


que grandes y chicos anhelan vivir:
La alegra de todos los pueblos
el jbilo eterno de compartir.

SOL RE
Nos une la paz, la fe, la esperanza
FA#m MI
nos une el amor la felicidad.
SOL RE
pinta a tu vida con estas palabras
FA#m RE MI FA#
son los colores de la navidad

CORO:
SI FA# MI SI
/Es navidad, la tierra celebra.
SOL#m FA# MI FA#
El rico y el pobre compartirn
SI FA# MI SI
La dicha y el gozo que en aquel da
SOL#m FA# MI FA#
Cristo Jess nos vino a dar./

SI SOL#m FA#
//////Es Navidad
MI SI FA#
Es Navidad//////
SI
Fiesta hay en el corazn
Am F E
//Oh,oh,oh,oh,oh,oh,oh,oh//
Am E Am
Fiesta hay en el corazon
Fm E Am
de los que suben al monte de Sin
Dm Am Dm
fiesta tienes los hijos del Rey
B7 E
cuando cantan al Dios de Israel
Am
En medio de ti esta tu Dios Poderoso Salvador
Dm
se gozara y se alegrara con canticos de amor
E7 F
canta hija de Sin, celebra, alza tu voz
G E4 E
grita con jubilo a Cristo tu Rey
Derrama de tu fuego
:ESTROFA: :CORO:
E------------------1-1| E-----------------------|
A-3-3-3-3---3-1-1----| A-3-3-3--3---3----------|
D----------1----------| D----------1---1-1-3---3|
G---------------------| G--------------------1--|
La siguiente es la base pero con los arreglos
(Despus de la Intro la primer vez que canta la estrofa no hay bajo,
(donde la batera marca con el bombo) a partir de la segunda vez,
cuando la batera ya entra con el ritmo hay entra el bajo)
:INTRO: (x2):ESTROFA: (x4)
E--------------------------1-1| ---------------------------1-1|
A-31-3h1-3h-3---3-1-1-3-----| -s31-3h1-3h-3---3-1-1-3-----|
D---------------1-------------| ----------------1-------------|
G-----------------------------| ------------------------------|
:CORO: (x3) Derrama de tu gloria
E------------------------------| --------------------------|
A-31-3h1-3h-3---3------------| -31-3h1-3h-3---3--------|
D---------------1---1-1-3-3--3-| ----------------1---1-1-3-|
G--------------------------1---| --------------------------|
Anhelamos ms (x4)
E--------------------------1-1|
A-31-3h1-3h-3---3-1-1-3-----|
D---------------1-------------|
G-----------------------------|
:INTRO:(x4)
:CORO:(Termina en C)
:SOLO:
E---------------|
A-3s-10-8-6s-10s|
D---------------|
G---------------|
(x2)
E-------------------------------------------------------|
A-3-3-3-1---3-1-3-3-------3-1-3-3-3-1---3-1-3----------1|
D---------1---------0-1-0-------------1-------1---------|
G-----------------------------------------------0-3-2-0-|

E------------------||
A-3-----6-3------6||
D---5-3------5-3---||
G------------------||
:CORO:
:INTRO:(x2)(Termina en C)