Sie sind auf Seite 1von 6

Maroon 5 - Sugar

Introduo:

D7M/A F#m7

P.M. . . . . . . . . . . . . . .
E|-0--------------------0-------------------|
B|-1--1-1-----1-1--1-1--1--1-1----1-1--1-1--|
G|-2--2-2--2--2-2--2-2--0--0-0-0--0-0--0-0--|
D|-3--3-3--3--3-3--3-3--2--2-2-2--2-2--2-2--|
A|-3-------3------------0------0------------|
E|------------------------------------------|

Bm7 A

P.M. . . . . . . . . . . . . . .
E|-1--------------------0-------------------|
B|-1--1-1--1--1-1--1-1--1--1-1-----1-1--1-1-|
G|-2--2-2--2--2-2--2-2--0--0-0--0--0-0--0-0-|
D|-0--0-0--0--0-0--0-0--2--2-2--2--2-2--2-2-|
A|----------------------3-------3-----------|
E|------------------------------------------|

D7M/A F#m7 Bm7 A (2x)

Primeira Parte:

D7M/A F#m7
E|------------------------------------------|
B|-1--1----1------------1--1---1------------|
G|-2--2-x--2-------x----0--0-x-0-------x----|
D|-3--3-x--3----x--x----2--2-x-2----x--x----|
A|-3--3-x--3--x----x-x--0--0-x-0--x----x-x--|
E|------------------------------------------|

Bm7 A
E|-1--1----1------------0--0----0-----------|
B|-1--1-x--1-------x----1--1----1-----------|
G|-2--2-x--2----x--x----0--0-x--0-------x---|
D|-0--0-x--0--x----x-x--2--2-x--2----x--x---|
A|----------------------3--3-x--3--x----x-x-|
E|------------------------------------------|

D7M/A
I'm hurting, baby
F#m7
I'm broken down
Bm7 A
I need your loving, loving

I need it now
D7M/A
When I'm without you
F#m7
I'm something weak
Bm7 A
You got me begging, begging

I'm on my knees
D7M/A
I don't wanna be needing your love
F#m7
I just wanna be deep in your love
Bm7 A
And it's killing me when you're away
D7M/A
Ooh, baby 'cause I really

Don't care where you are


F#m7
I just wanna be there where you are
Bm7 A
And I gotta get one little taste

Refro:

D F#m7
E|--------------1-------------------0-------|
B|-1--1----1----1--1----1--1---1----1--1----|
G|-2--2-x--2----2--2----0--0-x-0--0-0--0-0--|
D|-3--3-x--3--3-3--3-3--2--2-x-2--2-2--2-2--|
A|-3----x--3--3----x-3--0----x-0--0----x-0--|
E|-1-------1--1----x-1-----------------x----|

Bm7 A
E|-1--1----1----1--1----0--0---------0------|
B|-1--1-x--1--1-1--1-1--1--1----1----1--1---|
G|-2--2-x--2--2-2--2-2--0--0-x--0--0-0--0-0-|
D|-0----x--0--0----x-0--2--2-x--2--2-2--2-2-|
A|-----------------x----3----x--3--3----x-3-|
E|--------------------------------------x---|

D
Sugar
F#m7
Yes, please
Bm7 A
Won't you come and put it down on me
D F#m7
I'm right here, 'cause I need
Bm7 A
Little love and little sympathy
D
Yeah, you show me good loving
F#m7
Make it alright
Bm7 A
Need a little sweetness in my life
D
Sugar
F#m7
Yes, please
Bm7 A
Won't you come and put it down on me

Repete a Primera Parte:

D7M/A
My broken pieces
F#m7
You pick them up
Bm7 A
Don't leave me hanging, hanging

Come give me some


D7M/A
When I'm without ya
F#m7
I'm so insecure
Bm7 A
You are the one thing, one thing

I'm living for


D7M/A
I don't wanna be needing your love
F#m7
I just wanna be deep in your love
Bm7 A
And it's killing me when you're away
D7M/A
Ooh, baby 'cause I really

Don't care where you are


F#m7
I just wanna be there where you are
Bm7 A
And I gotta get one little taste

Repete o Refro:

D
Sugar
F#m7
Yes, please
Bm7 A
Won't you come and put it down on me
D F#m7
I'm right here, 'cause I need
Bm7 A
Little love and little sympathy
D
Yeah, you show me good loving
F#m7
Make it alright
Bm7 A
Need a little sweetness in my life
D
Sugar
F#m7
Yes, please
Bm7 A
Won't you come and put it down on me

Segunda Parte:

Yeah
D7M/A
I want that red velvet
F#m7
I want that sugar sweet
Bm7
Don't let nobody touch it
A
Unless that somebody is me
D7M/A
I gotta be a man
F#m7
There ain't no other way
Bm7
'Cause, girl, you're hotter than the
A
Southern California bae
D7M/A
I don't wanna play no games
F#m7
I don't gotta be afraid
Bm7
Don't give all that shy shit
A
No make up on

That's my

Repete o Refro:

D
Sugar
F#m7
Yes, please
Bm7 A
Won't you come and put it down on me
D F#m7
I'm right here, 'cause I need
Bm7 A
Little love and little sympathy
D
Yeah, you show me good loving
F#m7
Make it alright
Bm7 A
Need a little sweetness in my life
D
Sugar
F#m7
Yes, please
Bm7 A
Won't you come and put it down on me

D
Sugar
F#m7
Yes, please
Bm7 A
Won't you come and put it down on me
D F#m7
I'm right here, 'cause I need
Bm7 A
Little love and little sympathy
D
Yeah, you show me good loving
F#m7
Make it alright
Bm7 A
Need a little sweetness in my life
D
Sugar
F#m7
Yes, please
Bm7 A
Won't you come and put it down on me

Down on me, Down on me

Variao da Primeira Parte:

D7M/A F#m7
E|------------------------------------------|
B|-1--1----1------------1--1---1------------|
G|-2--2-x--2-------x----0--0-x-0-------x----|
D|-3--3-x--3----x--x----2--2-x-2----x--x----|
A|-3--3-x--3--x----x-x--0--0-x-0--x----x-x--|
E|------------------------------------------|

Bm7 A
E|-1--1----1------------0--0----0-----------|
B|-1--1-x--1-------x----1--1----1-----------|
G|-2--2-x--2----x--x----0--0-x--0-------x---|
D|-0--0-x--0--x----x-x--2--2-x--2-------x---|
A|----------------------3--3-x--3-------x---|
E|------------------------------------------|

D7M/A F#m7 Bm7 A

----------------- Acordes -----------------


F#m7 = 2 X 2 2 2 X
A = X 0 2 2 2 0
Bm7 = X 2 4 2 3 2
D = X X 0 2 3 2
D7M/A = 5 5 4 2 2 2

Verwandte Interessen