You are on page 1of 33

Fun people

Barefoot
Enviado por gustavo
AUTOR: Fun people corregir
ALBUM: Kum Kum fpeo0781

E B
All my hopes (are in this field now)
E B
with pattence dont hurry wait (for the fruits)
A B E A B E
and never an encourange but theres always someone
A B E
to mark the mistakes...
A B C A
and I barefoot and away of thorns and my wounds
C B
and my wounds never heal, never heal, never heal
E
its another year linig wild!

E B
All my hopes (are in this field now)
E B
with pattence dont hurry wait (for the fruits)
A B E A B E
and never an encourange but theres always someone
A B E
to mark the mistakes...
A B C A
and I barefoot and away of thorns and my wounds
C B
and my wounds never heal, never heal, never heal
C
its another year linig wild!
B
I barefoot and away of thorns and my wounds
C B
never heal never heal never heal
c
In this world Im living wild! wooh oh oh oh ...

Fun people
Boxing bear
(TAB)
Enviado por Pablo
AUTOR: Nekro
ALBUM: Kum kum fpeo0541

.Intro
-------0-0-------------------5--5p3-0------------------------------2--2-0-0---
----2--2-2-----2---2----3-3--3--3---3---0-0-0---------0-0----2h3-3-3--3-3-3---
-2--2--2-2--2--4p2-4p2--4-4--4--4---4---2-2-4p2--2-2--2-2-2--2---2-2--2-2-2---
-2--2--2-2--2--2---2----5-5--5--5---5---4-4-4----3-3--3-3-3--0---0-0--0-0-----
-0--0----0--0-----------5---------------0-0-0----0-0----0-0-------------------
------------------------------------------------------------------------------
A G F#m F D

A
The boxing bear eyes died sad
G
stick of beats tired and fed up
F#m F
with the bear circus
D
that been in town!

-------0-0--------------------------------------------------------------------
----2--2-2-----2---2---- repite este simpatico riff unas ---------------------
-2--2--2-2--2--4p2-4p2-- cuantas veces con pequenias variaciones -------------
-2--2--2-2--2--2---2----------------------------------------------------------
-0--0----0--0-----------------------------------------------------------------
----------------------*3p0--3p0-----------------------------------------------
A
Boxing Bear

A
I could see that afternoom
G
trought the bars before the act
F#m F
t was the impotencia
D
that woke up your angry
A
against the human race

-------0-0--------------------------------------------------------------------
----2--2-2-----2---2---- repite este simpatico riff unas ---------------------
-2--2--2-2--2--4p2-4p2-- cuantas veces con pequenias variaciones -------------
-2--2--2-2--2--2---2----------------------------------------------------------
-0--0----0--0-----------------------------------------------------------------
-----------------------*3p0-3p0-----------------------------------------------
A
Boxing Bear

A G
Hematomas are over hurt ignorance is over
F#m F
cruel fun is over...
D
covered in blood!!

A G F#m F D
the day of the boxing bear died ...

-------0-0--------------------------------------------------------------------
----2--2-2-----2---2---- repite este simpatico riff unas ---------------------
-2--2--2-2--2--4p2-4p2-- cuantas veces con pequenias variaciones -------------
-2--2--2-2--2--2---2----------------------------------------------------------
-0--0----0--0-----------------------------------------------------------------
-------------------------*3p0-3p0---------------------------------------------
A
Boxing Bear .. uhuhuhuhuuhuh!

PD: que temazo,no?!... un consejo utilisimo... en el riff principal de la cancion


hacer
el acorde A (LA) con cejilla en el segundo traste, osea no usen los tres dedos , de
esta
manera podran aser bien el punteito , al tener el dedo anular libre!... que barbaro
no!...
ahora si !...disfrunten el ritmo!

PD:otra cosa denle enfasis para que suene bien el (--4p2-4p2--) que es
definitivamente bello
cuando sale bien... (segun dicen)

PD:me olvidaba... la 'p' del ya famoso punteito '(--4p2-4p2--)' significa pull, en


espaniol
'tirar', osea que la ases sonar (4), la tiras un poco para abajo (OJO QUE NO ES UN
BEND!!!)
un poco nomas y la soltas para que suene la nota que tenias presionada con el
acorde de la
con cejilla (2)...

PD: que carajo, me arme tremendo quilombo para esplicarles... no me agan caso,
ustedes dejense
llevar, y toquen lo que sientan, nada mas

Fun people
Bad man
Enviado por Aaron
AUTOR: Fun people corregir
ALBUM: desconocido fpeo0431

Introduccin: D-Dsus4-D-D2 x 2 C

D-Dsus4-D-D2 x 2 C

D-Dsus4-D-D2

Its a bad end to the bad man

Its all right Its OK!!

D-Dsus4-D-D2

Its a bad end to the bad man


A

Its all right Its OK!!

Con G-Em

for you...bad man,

for you...policeman

for you...bad man,

for you...hunter

for you...bad man,

for you...goverment

for you...bad man,

for you...'teacher'

For you...Bad Man!!

dudas o konsultas muejeje@speedy.com.ar

Este fichero es trabajo propio de su transcriptor y representa su interpretacin


personal de la cancin. El material contenido en

Fun people
Bad influence
Enviado por Tanopipol
AUTOR: Nekro
ALBUM: Anesthesia fpeo0511

Introduccin: Am-F-C-G 2 Veces

Todo con Am-F-C-G

Disappear my days
Disappear my nights
Disappear my smile disappear
My love
I don't wanna be victim of a Bad Influence
I don't wanna be victim of a Bad Influence
Because I wanna run to the hills to see
With the sun the born of our flower, my love.
I don't wanna be victim of a Bad Influence
I don't wanna be victim of a Bad Influence
Bad World, Bad, Bad Influence
Bad World, Bad, Bad Influence
Bad World, Bad, Bad Influence
Bad World, Bad, Bad Influence

Solo

Con A5-F5-C5-G5

Because I wanna run to the hills to see


With the sun the born of our flower, my love.
I don't wanna be victim of a Bad Influence
I don't wanna be victim of a Bad Influence

Fun people
Animo
Enviado por marcelo
AUTOR: Fun peolpe (nekro-lucas)
ALBUM: desconocido fpeo0021

Transcripcin: Marcelo Villar (Ro Cuarto, Crdoba)

ACORDES: G 355433
F 133211
E 022100

NOTA: Para las partes hardcore los acordes son:


G5 355XXX, F5 133XXX y Em5 022XXX

INTRODUCCIN: Con guitarra o bajo (es el mismo ritmo en toda la cancin)

1|--------------------------------------------------------------
2|--------------------------------------------------------------
3|--------------------------------------------------------------
4|--------------------------------------------------------------
5|-----5-----5--------3-----3--------2-----2--------2-----2-----
6|--3-----3-----3--1-----1-----1--0-----0-----0--0-----0-----0--

G F
No puedes caer tan bajo nuevamente
E E
Estas atrapado tan lejano
G F
No puedes caer tan bajo nuevamente
E E
Estas atrapado tan lejano
G F
Tan lejano, tan lejano
E
Debes volver!!!
G F E E
Oooohhh Ooouuhhoohh

G F
No puedes caer tan bajo nuevamente
E E
Estas atrapado tan lejano
G F
No puedes caer tan bajo nuevamente
E E
Estas atrapado tan lejano
G F
Tan lejano, tan lejano
E
Debes volver!!! Por favr!!!
G F E E
Oooohhh Ooouuhhoohh

Fun people
Break your obsesions
Enviado por gustavo
AUTOR: Fun people corregir
ALBUM: Anesthesia fpeo0801

A5 C5 A5 C5 G5
e|--------------------------------------------|
B|--------------------------------------------|
G|---------5--------5-------------------------|
D|---7--7--5--7--7--5--5-5-5-5-5-4-4-2-2-0-0--|
A|---7--7--3--7--7--3--5-5-5------------------|
E|---5--5-----5--5-----3-3-3------------------|

A5 G5
Break your obsesions! Break your obsesions! aaaaaah
A5 G5
Break your obsesions! Break your obsesions! aaaaaah

A5
Your obsesions, your obsesions
G5
is the war, what war?
A5
Your obsesions, your obsesions
G5
is the peace, what peace?

A5 G5
Break your obsesions! Break your obsesions! aaaaaah
A5 G5
Break your obsesions! Break your obsesions! aaaaaah

A5
Your obsesions, your obsesions
G5
obsesion obsesion obsesion
A5 G5 A5 G5
uuuuuuuuuuuuhh obsesions obsesions...

Fun people
Burning hearts
Enviado por Andrs
AUTOR: Nekro
ALBUM: desconocido fpeo0121

B
Sleeping a veces en plazas, extrao en cualquier almohada...
G F# B
Durmiendo casi en cualquier lugar.
B
Knocking doors que Jamas open, knocking hearts que jamas open...
G F# B
y muerdo mis ojos pra no llorar.

B B G
When you get up, and see the sun
B G F# B
smile please, don`t burning, don't burning your heart!!!

B
eating la humedad de un pueblo, Living romanticamente viviendo.
G F# B
Buscando lo que nadie va a regalar!!
B
Feeling the streets dolor ever, feeling the streets pain ever,
G F# B
see me tirando siempre pa no aflojar,
E B
Dont burnig, dont buirning you heart
E
Dog, doggy don't burning your heart

E B
Dont burnig, dont buirning you heart
D
Dog, doggy don't burning your heart

Fun people
Cada vez ms
(TAB)
Enviado por Skate_ezeiza
AUTOR: Nekro
ALBUM: Anesthesia fpeo0621

-0-
-0-
-2-
-2-
-2-
-0-
Esus4*

Esus4 E x2

E
hoy me siento a tu lado
cada vez mas, cada vez mas!
y te quiero a mi lado
cada vez mas, cada vez mas!
sentimientos que me impulsan
a vivir mejor, vivir mejor!
el mal tiempo no me importa
contigo es mejor, se que es mejor!

Esus4
cuando el silencio aprieta mis sentidos
E
no hay escape, no hay salida Uho!

Te abrazo tomo tu mano para seguir caminando


Esus4
rumbo a lo desconocido
E
con temor pero contigo! es mejor!

----------------------------
----------------------------
--9-8-----------------------
------11-9-7-9-11-9-7-7-6-7-
----------------------------
----------------------------

-------------------------------------------------------
-------------------------------------------------------
--9-8--------------------------------------------------
------11-9-7-9-11-9-7-7-6--9-7-9-11-9-7-9-7-9-11-9-7-7-6--
-------------------------------------------------------
-------------------------------------------------------

----------------------------------
----------------------------------
----------------------------------
--9-7-9-11-9-7-9-7-9-11-9-7-7-6--
----------------------------------
----------------------------------
Cada vez mas contigo!!!!

*Ese acorde no estoy seguro de que se llame asi, pero asi se pone los dedos
espero que disfruten esta bella cancion.

Skate 4 life!

Fun people
Cancion de Amor
(TAB)
Enviado por nicolas
AUTOR: Nekro
ALBUM: Toda ni~o sensible sabra de que estamos hablando. fpeo0291

Intro: F#5 A5 G5 A5 C5 A5
E5
Love, Love Song,
B5 A5
en busqueda nuevamente
E5
Love, Love Song y ya quiero
B5 A5
encontrar a alguien
C#5
Love, Love Song,
E5 B5
que me quiera por mas de una noche,
E5 Eb5 C#5 B5
porque no es sexo lo que busco
E5 Eb5 C#5 B5
sino una mujer para toda la vida!!
E5 B5
toda la vida...
A5 E5 B5 A5
mi dura vida, si?

Love, Love Song, en busqueda nuevamente


Love, Love Song, nesesito encontrar a alguien
Love, Love Song, sinceramente algo de verdad
que aunque no sea mi esposa
me acompae...toda la vida...
mi dura vida, si?
E5 B5 A5 Repite
E5 Eb5 C#5 B5
Love, Love
E5 Eb5 C#5 B5
Love, Love Song!

Fun people
Dear
Enviado por Pablo
AUTOR: Pepe muleiro
ALBUM: desconocido fpeo0261

.DEAR
.Fun People

.Intro:

e:------------------------------------------------------------------------------
B:------------------------------------------------------------------------------
G:------------------------------------------------------------------------------
D:----7----------7----------9---------------------------------------------------
A:-5----5-5---5----5-5---7----7-7----9------------------------------------------
E:---------------------------------7---7-7--------------------------------------
D Em Bm
D Em Bm
Hey my son I dreamed for you
a world, a world pacific and green
that smell peace until the end of the time
that smell peace until the end of the time
until the end of the time
until the end of the time
until the end of the time

D Em Bm
Sorry, sorry, sorry, my son the world,
your world is not like a dreamed
when you open your eyes
you will see that lies and hate
are controlling the world
the world, the world
sorry my son

D G
I dont wanna suffer in this world
I dont wanna suffer in this world
I help you, You help me?
I dont wanna cry in this world
I dont wanna cry in this world
I smile at you, you smile to me?
I dont wanna suffer in this world
I dont wanna suffer in this world
I love to you, You love me, Son!
Sorry my son!

Fun people
Easy to come
Enviado por Nicolas
AUTOR: Fun people corregir
ALBUM: Kum kum fpeo0642

intro
E--0--3--0 A5

d--7---5---4---2

verso:
a e bm d
now is easy to come, daddy your girl dont have anything
inside her belly, and the happy people of this town
a e bm
dont talk bad things about us.
Now its easy to come, daddy is full or pride,
and I got a hole in my heart!

E--0--3--0 A5
a e bm d
And now its easy to come, what about me,
Im too cold in this room but I dont want
to go outside,
a e bm
easy to come daddy is full or pride
I WANTED TO HAVE MY BABY.
E--0--3--0 A5 y termina

Fun people
Esos dias
Enviado por Aaron
AUTOR: Fun people corregir
ALBUM: desconocido fpeo0471

G5 A5
Woman in these days
G5 E5
Los sintomas empiezan creo asi...
Con A5-G5-E5
woman in these days se te inchan la panza y las tits, woman...
y te duelen los ovarios tambien, woman...
en esos dias estas sensible, tan sensible!!!

A5-G5-D5

I try, I try, I try to make feel, feel better


I feel, I feel desesperado
e impotente, I try, I try, I try.
Con mi cario y mis abrazos,
crees que podre hacerte sentir mejor?

A5-G5-D5

en esos dias woman in these days.


y finalmente el
da llego woman...
estas incomoda y molesta, woman...
queres estar conmigo pero no,
woman in these days
en estos dias estas sensible, tan sensible !

A5-G5-E5

I try, I try, I try to make feel, feel better


I feel, I feel desesperado
e impotente, I try, I try, I try.
Con mi cario y mis abrazos,
crees que podre hacerte sentir mejor?
D5 C5 A5
Woman in these days, ooh, ooh!
D5 C5 A5
Woman in these days, ooh, ooh!

A-Asus4-A-Asus4-A-A2-F5 G5 A-Asus4-A-Asus4-A-A2 F5 G5

Fun people
Fcil Venir
(TAB)
Enviado por Maxi
AUTOR: Nekro
ALBUM: Toda ni~o sensible... fpeo0561

Intro:
Se puede hacer de 2 formas

Primera
A
e:------------------------
B:------------------------
G:------------------------ X 4
D:---------7-7--7-7-7-7-7-
A:---------7-7--7-7-7-7-7-
E:--0-3-0--5-5--5-5-5-5-5-

e:------------------
B:------------------
G:------------------
D:--4/6-4-----------
A:--------7-5-------
E:------------------
Segunda

e:--------------------------
B:--------------------------
G:-------------------------- X 4
D:-----5-----7-7--7-7-7-7-7-
A:---7---7---7-7--7-7-7-7-7-
E:-----------5-5--5-5-5-5-5-

e:------------------
B:------------------
G:------------------
D:--4/6-4-----------
A:--------7-5-------
E:------------------

Versos

A E
Ahora te es facil venir papi
B A
tu nena no tiene ms nada en su panza

Final :A

aca va la letra del tema

Ahora te es facil venir, papa


tu nena no tiene nada dentro de su panza
y la gente del barrio no hablara mal de nosotros
, ya no (humm...)
Ahora te es facil venir,
tu orgullo esta a salvo y yo tengo un agujero
en mi corazon.
Ahora te es facil venir
pero, que hay de mi?
tengo mucho frio en esta oscura pieza
, pero no tengo ganas de salir,
yo queria tener a mi bebe...

Fun people
Leave me alone
Enviado por ivan
AUTOR: Fun people corregir
ALBUM: The Art(e) of Romance fpeo0132

LEAVE ME ALONE

Introduccin:

1--------5-4--------------5-4----------
2--5--7------7-5-4-2--5-7-----7-5-4-2--
3--4------------------4----------------
4--------------------------------------
5--------------------------------------
6--------------------------------------

E A-A2

Leave me alone,

E A-A2

I understand all,

G#m7 A

oh my girlfriend die,

F#m

please leave me alone, leave me alone

Repite primera estrofa

D B

la suma era demasiado, para vos

D B

y decidiste hacerlo sola mujer!!!

E A-A2

Leave me alone,

E A-A2

I understand all,

G#m7 A

oh my girlfriend die,

F#m E E5 Eb5 D5

please leave me alone, leave me alone

D B

la suma era demasiado, para vos

D B

y decidiste hacerlo sola mujer!!!


[Tablaturas y Acordes para Guitarra] calidad: [9.67 (6 votos)]
Fun people
Leave me alone
Enviado por Mariano
AUTOR: Fun people corregir
ALBUM: The Art(e) of Romance fpeo0131

Intro: riff x2

E D A
Leave me alone,
E D A E
I understand all,
G#m A F#m
oh! My girlfriend died, please,
E
leave me alone, leave me alone.

Leave me alone,
I understand all,
oh! My girlfriend died, please,
leave me alone, leave me alone.

Estribillo:
D E
La suma era demasiado para ambos,
D B
y decidiste hacerlo sola, mujer!

Leave me alone,
I understand all,
oh! My girlfriend died, please,
leave me alone, leave me alone.

Estribillo.

Final: E

riff:
1: 0---3---6---5---3-------------------------
2: -----------------------5---3---0----------
3: ------------------------------------------
4: ------------------------------------------
5: ------------------------------------------
6: ------------------------------------------
Fun people
Lady
Enviado por ivan
AUTOR: Fun people
ALBUM: desconocido fpeo0111

D
Honey! Honey! Honey! Honey!
Con G - D
Yo lo s, no es tan fcil
Lady! no estas preparada, no tienes el dinero
Lady! no estas sana para tener un bebe
Vos no querias abortar, pero no tenias opcion!!!
Estribillo:
Con E
You did took care but it didnt work out!!!
Te cuidaste, pero eso no funciono!
You did took care but it didnt work out!!!
Te cuidaste, pero eso no funciono!
Con G - D
Lady vos no sos una mala mujer no!
por haber quedado embarazada
Lady! y haber pensado en abortar,
vos no sos la culpable
vos no tenias opcion!!
Repite Estribillo
Te vas a quedar as?

Solo:
1----0-5-0-5-0-5----------------------------------
2-------------------------------------------------
3----------------------------------------7-9-9-7--
4----------------------9-7-5--------7-------------
5----------------------------5-6-7----------------
6-------------------------------------------------
Con G - D
Si tuvieran en cuenta
nuestros reclamos
las cosas serian muy distinas
Lo sabias? Lo sabes? Lady!
Honey no llores...Pelea!!
Fun people
Libre al fn
(TAB)
Enviado por tikitakfire
AUTOR: Joe Strummer
ALBUM: Desarme y Desabores fpeo0671

Intro: G-C-Bm-Am

G Bm Am
Te conoc en una escuela nacional
G Bm Am
no comamos mierda de nadie y al final
Am Bm G Em
El director firm la hoja de expulsin
C Bm C
le dijimos adis...
C Bm C
y a la mierda !

Repite Intro

Despus de un tiempo la cosa no fue mal


Los fines de semana salamos a bailar
Cmo me hacas reir toda la noche en cualquier bar
jugando al billar smoking menthol

Repite Intro

Yo ensayaba en mi habitacin
y tu preparabas mientras tu proxima accion
y en un momento dado, el tipo equivocado
cae empapelado,y a la carcel ! (porque a vos te abandon)

Repite Intro

Hice lo que pude pa escribir


como la has pasado, honey ? te dieron mucho ah ?
cuando te vea venir vamos a convertir
toda esta ciudad (toda Buenos Aires)
en cenizas ! (porque ellos se lo merecen)

Bm Em
Aunque pasen los aos y todo haya cambiado
C D
yo me quiero ir de aqu
Bm Em
Nunca olvidar lo que sent
C G
cuando saliste libre al fin

Nunca olvidar lo que sent


cuando saba dnde ibas a ir
y si ests hoy ah hecho un trapo?
hecho entrar? por mi
desde aqu lo har por t...
C
Tranquilo...
Bm
con cuidado...
Am
Libre al fin

e:---------------------------------------------------------------
B:-/15~-15~-15~-15~-15-13-12-13~-13~-13~-13-12-10-12~-12~-12~-10-
G:---------------------------------------------------------------
D:---------------------------------------------------------------
A:---------------------------------------------------------------
E:---------------------------------------------------------------

e:-----------------------------------------------------------
B:-12-10/8-8~-10-8-7-8-7---7---------------------------------
G:-----------------------9---9-7-9-7-6-7-6---6---------------
D:-----------------------------------------9---9-7-9-7-6-7-6-
A:-----------------------------------------------------------
E:-----------------------------------------------------------

e:----------------------------
B:---------------------------- Repite esta parte
G:---------------------------- como unas 10 veces
D:---6-7-7-9-7-6-7~-9-7-6-7-6-
A:-9--------------------------
E:----------------------------

El punteo va sobre los acordes la introduccion

Fun people
Lolita
Enviado por hugo
AUTOR: Boom Boom Kid
ALBUM: desconocido fpeo0092

ESTA CANCION SE LA DEDICO A MI HERMANA NATALIA

INTRO (en rasgueo)

A A9* Asus A
1----- ----- ----- -----
2--2-- --0-- --3-- --2--
3--2-- --2-- --2-- --2-- 2 veces
4--2-- --2-- --2-- --2--
5----- ----- ----- -----
6----- ----- ----- -----

*asi se toca pero no se si la nombr bien con A9

A A9 Dsus D A A9
LOLITA my soul get filled when I talk about you
Dsus D A A9
cause being so woman makes you so special

CORO:
D E A F#m
I NEED YOUR LOVE TO LIVE RISING FROM THE SEA
D E 2 VECES
I WANT TO BE TO BLAME FOR YOUR SMILE

A A9 Dsus D A A9
LOLITA Ive been wrong with you my sweet lolita
Dsus D A A9
and Im afraid of losing your heart for ever

-CORO-

A A9 Dsus D A A9
LOLITA I'll give my whole life to be with you SWEET LOLITA
Dsus D A A9
I want to fuse our hearts to make one and write THE LOVE WORD

-CORO-

A A9 Dsus D
lolita, believe me believe me 4 VECES

TERMINA CON A

Fun people
Lolita
Enviado por Andrs
AUTOR: Boom Boom Kid
ALBUM: desconocido fpeo0091
A E D A
Lolita, mi alma se llena tan solo con nombrarte

porque ser tan mujer te hace especial

estribillo:

Necesito que tu amor renazca desde el ocano

quiero ser culpable de tu sonrisa

(El resto sigue con las mismas secuencias)

Lolita, me siento mal por todo lo que te hice


y tuve miedo de perder tu amor forever

Estribillo

Lolita, preciento que tu alma ya no esta


mi corazn se perdi, mas vale dejarlo as

Estribillo

Fun people
Mala influencia
Enviado por marcelo
AUTOR: Nekro-lucas
ALBUM: desconocido fpeo0031

Transcripcin: Marcelo Villar (Ro Cuarto, Crdoba)

ACORDES: Am 577555 o 002210


F 133211
C 335553 o 032010
G 355433 o 320003
A5 577XXX
F5 133XXX
C5 0355XX
G5 355XXX

INTRODUCCIN: Am F C G con guitarra acustica

Am F
Disappear my days
C G
Disappear my lights
Am F C
Disappear my smile disappear
G
My love
Am F C G
I don't wanna be victim of a Bad Influence
Am F C G
Because I wanna run to the hills to see
Am F C G
With the sun the born of our flower, my love.
Am F C G
I don't wanna be victim of a Bad Influence
Am F C G
Bad World, Bad, Bad Influence

SOLO DE GUITARRA:
1|-5------------------------------------------------
2|-8/10-5-6--8-8-6-5---5/6-5--5-5-5----6-5--6-5---5-
3|---------------------7-------------5-----------7--
4|--------------------------------------------------
5|--------------------------------------------------
6|--------------------------------------------------

1|-------------------------------------------
2|-------------------------------------------
3|-7-5-7-5-4-5-4-----------------------------
4|------------------7-5-3-2------------------
5|--------------------------5-7-5-3-2-3-2----
6|-----------------------------------------5-

MALA INFLUENCIA (traduccin)

Desaparecen mis dias, desaparecen mis noches,


deseparece mi sonrisa, desaparece mi amor,
no quiero ser una victima de una mala influencia,
porque yo quiero correr por las praderas
para ver junto al sol el nacimiento de nuestra flor, mi amor.
Fun people
Masticar
Enviado por marcelo
AUTOR: Nekro-lucas
ALBUM: desconocido fpeo0041

Transcripcin: Marcelo Villar(Ro Cuarto, Crdoba)

INTRODUCCIN:

1|--5-5-5-5-5-5-5-5/2-2-2/4-4-4-4----------
2|--5-5-5-5-5-5-5-5/3-3-3/5-5-5-5----------
3|-----------------------------------------
4|-----------------------------------------
5|-----------------------------------------
6|-----------------------------------------

A F#m E D
Yo amo MASTICAR, MASTICAR QUESO EN SABADO,
A F#m E D
EN SABADO NO ME IMPORTA MI SILUETA,
A F#m E D A
YO CUIDO MI CUERPO TODA LA SEMANA,
F#m E D A
PERO EL SABADO NO ME IMPORTA NADA
F#m E D
No, No, No, No quiero ser una(un)
A F#m E D
TWIGGY*, quiero ser como soy

Letra original en ingles:

I love chewing, chewing cheeze in sabaro (do)


In sabado I dont care my silouette,
and take care of my body all the week,
but in sabado I dont care about my siluoette,
no, no, no, no gonna be twiggy* I gonna be as I am.

(*Persona muy delgada)

Fun people
Middle Of The Rounds
Enviado por ivan
AUTOR: Fun People
ALBUM: The art(e) of romance fpeo0151
Intro: C5

C5

Maybe if you go daddy is you best choice

G5

Maybe if you go I feeling good, so good

C5

Maybe if you go estara todo bien

G5

Maybe if you go sera lo mejor, adis!

Con C5 F5 C5 G5 C5 F5 G5 C5

Middle of the Rounds, Uh!

Rounds at rounds, round!

Middle of the Rounds, Uh!

Oh so much!, for my I so much!

Repite todo

Middle of the Rounds, Uh!

Rounds at rounds, round!

Middle of the Rounds, Uh!

Oh so much!, for my I so much!

C5 G5 F5 G5

Ooohhh, sick of rounds!

C5 - G5 - Bb5

Ooohhh, sick of rounds!

C5 G5 F5 G5

Ooohhh, sick of rounds!

C5 - G5 - Bb5 - C5
Ooohhh, sick of rounds!

F.M.S.

E5

You don't understand!

you don't understand!

you don't understand!!!

Esto siempre fue as

y seguira as!

Con F#5 A5 G5 B5 E5

When I look in the past gig, we gotta now again!

why woman in the back and mens in the front again!

everybody go among with it? again!

why woman in the back and men in the front?!

E5

fuck male supremacy!

Repite Todo

WHAT WILL WE GONNA PAY?

Todo el tema con D5 G5 D5 A5

What will we gonna pay for peace?

What will we gonna pay for freedom?

What will we gonna pay for justice?

What will we gonna pay

for the rest of our days?

What will gonna pay for your rights?

I never loose my faith for throught,

throught all this time

But, what will gonna pay for our rights,

for your rights?


Fun people
Never knows (it's obvio)
Enviado por Maxi
AUTOR: Nekro
ALBUM: Gori y Nekro Golden Hits fpeo0371

Intro: D D F G

D F G
Yo preferia jugar siempre a ser varon
D F G
a pesar de lo que insististe hacerme un varon
D F G
Mujer de noche - hombre de dia, es algo que vos
D F G
mientras dormias, jamas pudiste controlarme
E
Never knows (es obvio)
D F G
Yo preferia jugar siempre a ser varon
D F G
a pesar de lo que insististe hacerme nia
D F G
mujer de dia hombre a escondidas?. Es lo que soy?
D F G
Sin genero. Esta es mi historia, asi es mi vida
E
Never knows (es obvio)

Final: E E F G F E G G F E X2 todo el final(ecepto el


priemer E)

Cunado pasen de F a G o de G a F haganlo deslizando para que quede mejor

Acordes:

D
e:--2-
B:--3-
G:--2-
D:--0-
A:--x-
E:--x-

F
e:--1-
B:--1-
G:--2-
D:--3-
A:--3-
E:--1-

G
e:--3-
B:--3-
G:--4-
D:--5-
A:--5-
E:--3-

E
e:--0-
B:--0-
G:--1-
D:--2-
A:--2-
E:--0-

Fun people
Si Pudiera
Enviado por federico
AUTOR: Fun people
ALBUM: desconocido fpeo0061

G
Hay si pudiera mi amor
Bm
encontrarte otra vez

en el lugar de siempre
D
a la hora de siempre
C
talvez me entenderias lo se
G
Hay si pudiera talvez
Bm
encontrarte otra vez

y contarte las cosas


D C
que un dia calle,por el bien de ambos

ESTRIBILLO
D
Si pudiera mi amor
C
explicarte el porque
D
fui solo esa noche
C G
a donde ambos soliamos ir
D
sabes donde estoy
C G
donde estoy ahora, talvez

sige todo con G Bm D C

Sabes amor no todo es eterno como mi amor por ti, tenia

un presentimiento y te menti, yo no queria

involucrarte ni llevarte a donde vos no debias ir

no me escape de ti, estoy tras las rejas y ellas me

separan de vos.

Fun people
Spiritu del 77
(TAB)
Enviado por nicolas
AUTOR: Fun people corregir
ALBUM: Toda ni~o sensible sabra de que estamos hablando. fpeo0301

ESPIRITU DEL 77

Con D5 F#5 G5 A5

Entrometidos por money,


hicieron de esto algo so boring, so boring
Y me siento aqui, so lonely, so lonely
Perdiendo la frescura que hay dentro de mi!!!

Estribillo:

D5 G5 F#5
Es el Spirit del Seventy-Seven
D5 F#5 G5 A5
Do It, Do It Yourself!
D5 G5 F#5
Es el Spirit del Seventy-Seven
D5 F#5 G5 A5
Do It, Do It Yourself!
Con D5 F#5 G5 A5
Quiero divertirme, estoy aburrido,
pero no quiero emborracharme
para conseguirlo o cambio esta noche,
tan aburrida o vivo y muero asi!!! Auuhh!!
Repite Estribillo
Con D5 F#5 G5 A5
Calling all the new generation!

Repite varias veces


Do It, Do It Yourself!!

Hagnalo ustedes mismos!!!!do it your self


dudas a fun people77@hotmail.com

Fun people
Stay free
Enviado por Aaron
AUTOR: Fun people corregir
ALBUM: desconocido fpeo0461

Intro: G-C-Bm-Am

G Bm Am
Te conoc en una escuela nacional
G Bm Am
no comamos mierda de nadie y al final
Am Bm G Em
El director firm la hoja de expulsin
C Bm C
le dijimos adis...
C Bm C
y a la mierda !

Repite Intro

Despus de un tiempo la cosa no fue mal


Los fines de semana salamos a bailar
Cmo me hacas reir toda la noche en cualquier bar
jugando al billar smoking menthol

Repite Intro

Yo ensayaba en mi habitacin
y tu preparabas mientras tu proxima accion
y en un momento dado, el tipo equivocado
cae empapelado,y a la carcel ! (porque a vos te abandon)

Repite Intro

Hice lo que pude pa escribir


como la has pasado, honey ? te dieron mucho ah ?
cuando te vea venir vamos a convertir
toda esta ciudad (toda Buenos Aires)
en cenizas ! (porque ellos se lo merecen)

Bm Em
Aunque pasen los aos y todo haya cambiado
C D
yo me quiero ir de aqu
Bm Em
Nunca olvidar lo que sent
C G
cuando saliste libre al fin

Nunca olvidar lo que sent


cuando saba dnde ibas a ir
y si ests hoy ah hecho un trapo?
hecho entrar? por mi
desde aqu lo har por t...
C
Tranquilo...
Bm
con cuidado...
Am
Libre al fin

Termina con acordes de introducci

Fun people
Take Over
(TAB)
Enviado por KODYAK!!!-
AUTOR: Nekro (me parece)
ALBUM: desconocido fpeo0081

intro:
traste/cuerda. 2/5,0/4,2/5,0/4...}5 veces
0/5,2/4...}5 veces
2/5}6,0/4

LA CANCION ES EN QUINTAS
si#
Nadie podra detenerme
Mim sol fa# si#
Nadie pudo oirme (a lo largo de esos aos)
si#
Lo que necesitas es afecto
MIm sol fa#
Cuanto lo necesito ,oh yea

EST:
re do# do si#
Take over, take over, taking it allupon me }2

Nadie podra detenerme


nadie pudo oirme (a lo largo de esos aos)
por que papa si lo sabias
vos no viniste hacia mi

estribillo }4

2/5 3/2}3,3/5 5/2}3,5/5 7/2}3 }todo 4 veces

hey, marcelo, soy papa, esta ahi?

re do#
sienteme como un padre
sol
como un amigo

you show me, dad,

yuo show me now.

LETRA ORIGINAL (ingles)

Nobody can stop me


nobody cuold hear me
(along these years)
What you need is affection
How much i need it,oh,yeah
Take over,take over
(taking it all upon me)
nobody can stop me
nobody could hear me
(along these years)
Why father if you knew it
you didn't come to me?
take over......
Hey,marcelo/jose, soy papa, estas ahi?
feel me like a father
like a friend
you show me,dad
you show me now
Fun people
Touch Me
Enviado por gustavo
AUTOR: Fun people corregir
ALBUM: Angustia no no fpeo0761

INTRO

C5 B5 F5 C5 B5 F5
e|---------------------------------------------------------------|
B|---------------------------------------------------------------|
G|------------4--4-4--3-3-3-3------------------4--4-4--3-3-3-3---|
D|---x-x-2-2--4--4-4--3-3-3-3-3-2-0---x-x-2-2--4--4-4--3-3-3-3---|
A|---x-x-3-3--2--2-2--1-1-1-1-------3-x-x-3-3--2--2-2--1-1-1-1---|
E|---------------------------------------------------------------|

C5 B5 F5
Oh touch me 'cause I dont wanna make
C5 B5 F5
Oh touch me 'cause I dont wanna say
C5 B5 F5
Oh touch me 'cause I dont wanna make
C5 B5 F5
Oh touch me 'cause I dont wanna say

C5 D5
zero one zero zero, zero one zero zero
F5
zero one zero zero and count again
C5 D5
zero one zero zero, zero one zero zero
F5
zero one zero zero and count again

C5 D5 F5
Uooooh oooh oho uooh
C5 D5 F5
Uooooh oooh oho uooh

C5 B5 F5
And I feel alright with you
C5 B5 F5
but depending so much of you
C5 B5 F5
and I feel alright with you
C5 B5 F5
but depending so much of you

Fun people
Vientos
Enviado por ivan
AUTOR: Fun people corregir
ALBUM: The art(e) of romance fpeo0201

Introduccin: D-Dsus4-D

D5 A5

Sopla bien fuerte porque no me vas a tirar,

C5 D5

I wanna control myself, you cant catch me again.

D5 A5

Pero a los vientos de odio yo me quiero enfrentar,

G5 D5

el amor es ese escudo 'dido' contra maldad.

Repite Todo

We work for a better world.