You are on page 1of 5

Undertale (by Toby Fox)

Arrangement by Justin Ly

Capo 1st fret, Standard tuning (EADGBE)


https://youtu.be/WQTPxrDeqTg

My arrangement is somewhat simplified compared to the original song, but I


enjoyed how it sounded. I hope these tabs help you out!

x2
e|----0--------------------------------|
B|------3---2---2---3-----3---2--2--3--|
G|--2-----2-------------2---2----------|
D|----0---0---0-----0---0---0--0----0--|
A|-------------------------------------|
E|-------------------------------------|

e|----0---------------------2--0-----0---|
B|------3---2---2---3-----3-------3------|
G|--2-----2-------------2----------------|
D|----0---0---0-----0---0---0---0----0---|
A|---------------------------------------|
E|---------------------------------------|

x2
e|----0------------------------------------|
B|------3---2---2---3-----3----2---2---3---|
G|--2-----2-------------2---2--------------|
D|----0---0---0-----0---0---0----0-----0---|
A|-----------------------------------------|
E|--3---3---3-----3---3---3----3-----3-----|

e|----0---------------------2--0-------0---|
B|------3---2---2---3-----3--------3-------|
G|--2-----2-------------2------------------|
D|----0---0---0-----0---0---0----0-----0---|
A|-----------------------------------------|
E|--2---2---2-----2---2---2----2-----2-----|
e|----0------------------------------------|
B|------3---2---2---3-----3----2---2---3---|
G|--2-----2-------------2---2--------------|
D|----0---0---0-----0---0---0----0-----0---|
A|-----------------------------------------|
E|--3---3---3-----3---3---3----3-----3-----|

e|----0---------------------2--0-------0---|
B|------3---2---2---3-----3--------3-------|
G|--2-----2-------------2------------------|
D|----2---2---2-----2---0---0----0-----0---|
A|--0---0---0-----0---2---2----2-----2-----|
E|-----------------------------------------|

x1
e|----------5-------0-----------------|
B|------------------------------------|
G|--2-------2-------2-----------------|
D|----0---0---0---0---0---0---0---0---|
A|------------------------------------|
E|--3---3---3---3---3---3---3---3-----|

e|----------5-------------------------|
B|--3-------3-------------------------|
G|--2-------2-------2-----------------|
D|----0---0---0---0---0---0---0---0---|
A|------------------------------------|
E|--2---2---2---2---2---2---2---2-----|

e|------------------5-----------7-----|
B|----------3-------3-----------------|
G|--2---------------2-----------------|
D|----0---0---0---0---0---0---0---0---|
A|------------------------------------|
E|--3---3---3---3---3---3---3---3-----|
e|--5-------0----------10-9--------------|
B|--3----------------------10-7----------|
G|------------------7-----------9-7s2----|
D|----0---0---0---0----------------------|
A|---------------------------------------|
E|--2---2---2---2---7--------------------|

e|------5-2-0---------0---9---p8p7------|
B|------------3-2-3---2-----------10----|
G|--2-----------------2-----------------|
D|----0---------------------------0-----|
A|--------------------0-----------------|
E|--3-----------------------------------|

e|-------5-2-0---0-2-------0--0-------|
B|--0----0-----3------2-------3-3-2-3-|
G|--0----0------------2-------2-------|
D|----0--0------------2---------------|
A|--------------------0-------2-------|
E|--3---------------------------------|

e|---------52---0---------------9-p8p7----|
B|---------3--------3-2-3--2-----------10--|
G|--2---2--2-----2-----------2-------------|
D|----0----0-------0--------2----------0---|
A|-------------------------0---------------|
E|--3------------3-------------------------|

e|--------5--2--0-------------0----0-------|
B|--0-----0-------3-2-3--2---------3-3-2-3-|
G|--0--0--0-----0-----------2------2-------|
D|----0---0-------0--------2-------0-------|
A|-----------------------0---------2-------|
E|--3-----------3--------------------------|
(2:16)
e|-----------5-------0--------------0------5-------|
B|-----------3-------2--------------3------3-------|
G|--2----------------2--------------2--------------|
D|----0---0----0---0---0---0--0--0----0--0---0--0--|
A|-------------------0---0---0--0------------------|
E|--3---3----3---3------------------2---2--2---2---|

e|----------------------------------5------------|
B|-------------------------3--------2------------|
G|--2----------------2-----2--------2------------|
D|----0---0---0--0----0--0---0---0----0---0---0--|
A|--2---2---2---2-------------------0---0---0----|
E|-------------------3--3--3---3-----------------|

e|-7---5-------0-----------------------|
B|-----3---------------3---------------|
G|---------------------2---------------|
D|---0---0---0---0---0---0---0---0---0-|
A|-0-------------------2---2---2---2---|
E|-----2---2---2---2-------------------|

(2:34)
e|----0------------------------------------0---------|
B|------3---2---2---3-----3----2---2---3-----3---2---|
G|--2-----2-------------2---2--2---2-----2-----2-----|
D|----0---0---0-----0---0---0----0-----0---2---2---2-|
A|--------------------0---0--------------0---0---0---|
E|--3---3---3-----3------------2-----3---------------|

e|-------------2-0------0----0-----------------------|
B|-2---3-----3------3----------3----3--3---3----3----|
G|---------2---------------2-----2------------2---2--|
D|-----2---0---0---0----0----0---0--4--4---2--2---2--|
A|---0---2---2---2----2------------------------------|
E|-------------------------3---3----3----3--2---2----|
e|-------------0----------------------2--0-------0---|
B|-2--2---3------3---2---2---3------3--------3-------|
G|--2--------2-----2--------------2------------------|
D|--2-----2----0---0---0-----0----4---4----4-----4---|
A|-----------2---2---2-----2----0---0----0-----0-----|
E|-2----2--------------------------------------------|

e|----0--------------------------------|
B|------3---2---2---3-----3---2--2--3--|
G|--2-----2-------------2---2----------|
D|-------------------------------------|
A|--------------------0----------------|
E|--3----------------------------------|

e|----0---------------------2--0-----0---|
B|------3---2---2---3-----3-------3------|
G|--2-----2-------------2----------------|
D|--------------------0------------------|
A|--2------------------------------------|
E|---------------------------------------|

e|----0----------------------------------|
B|------3---2---2---3-----3---2--2--3----|
G|--2-----2-------------2---2------------|
D|---------------------------------------|
A|---------------------------------------|
E|---------------------------------------|

e|----0---------------------2--0-----0---|
B|------3---2---2---3-----3-------3------|
G|--2-----2-------------2----------------|
D|---------------------------------------|
A|---------------------------------------|
E|---------------------------------------|