You are on page 1of 5

g uitar tabs / news / reviews / les s o ns / fo rums / wiki / pers o nal tabs new T ab Pro

Welc o me ho me, S t ranger


Pleas e Sign in o r Sign up
you ca n a lso use

Fa cebook Goog le
No w And Fo rever s o lo t ab by Richard Marx, added: March 31s t , 2003

TAB S S EAR C H S U B MI T ...

F R ES H T AB S 0-9 A B C D E F G H I J K L M N O P Q R S T U V W X Y Z T O P 10 0
TAB S

Now And Forever solo tab version 1 x4 1 comment 48,968 views


re a d comme nt 39 this we e k
by Richard Marx
We have C ho rd Pro vers io n o f No w And Fo rever.

It's the c lo s es t thing yo u c an get to the o riginal s o ng and it has interac tive parts . Chec k o ut the tab
add to favo rites
Song : Now & Forever
Artist : Richard Marx
s ave as pers o nalnew!
I've tabbed only the solo part. The song has been already tabbed beautifully by shaharizal.
launc h auto s c ro ll ... and i've taken abstract of the same for the sake of solo.
When the solo is played the chord (tabbings) is bieng played similarly
as from the very first word of the song.
fo nt s iz e
I've included both the chord tabbings and the solo ...so that you get the timing bothways.
ho w to read this tab h : hammer-on
p : pull-off
/ : slide up
\ : slide down

Solo alongwith Chords:

...Now I can rest my worries


and always be sure
that I won't be alone anymore,
if I'd only Kno..
..own you were there all the ti...m...e all this t...
|----------3-------|----------2-------|-----------h--3---|------------------|
|----------0-------|----------3-------|----------0/1-----|------------------|
|------0-------0---|------2-------2---|------------------|------------------|
|------------------|--0---------------|------2-----------|----------2-------|
|------------------|------------------|--0---------------|------0-------0---|
|--3---------------|------------------|------------------|------------------|
1 . 2 . 3 . 4 . 1 . 2 . 3 . 4 . 1 . 2 . 3 . 4 . 1 . 2 . 3 . 4 .

.......i...............m...........e.
|--3---------------|------------------|
|----------4-------|------------------|
|------------------|--5---------------|
|------------------|----------5-------|
|------3-------3---|------3-------3---|
|------------------|------------------|
1 . 2 . 3 . 4 . 1 . 2 . 3 . 4 .

======================================================================================

(Chord-tabs)
|----------3-------|------------------|--------------0---|
|--0---------------|----------3-------|--------------0---|
|------------------|------2-----------|------------------|
|------0-----------|------------------|----------2-------|
|------------------|------------------|------2-----------|
|--3-----------3---|--2-----------2---|--0---------------|
1 . 2 . 3 . 4 . 1 . 2 . 3 . 4 . 1 . 2 . 3 . 4 .

(Solo)
e|---------------------------------------------------------
B|---------------------------------------------------------
G|---------------------------------------------------------
D|--5-----------5h7p5--4-----5-----7------7/9------9-------
A|---------------------------------------------------------
T ab Pro t ools E|---------------------------------------------------------

play this tab

|------------------|------------------|------------------|------------------|
tempo c o ntro l
|--------------0---|----------1-------|--------------0---|----------3-------|
|----------0-------|--------------2---|----------2-------|------2-------2---|
c hange ins trument |------2-----------|------2-----------|------0-----------|------------------|
|------------------|--0---------------|------------------|------------------|
s ho w fretbo ard |------------------|------------------|--3---------------|--2---------------|
1 . 2 . 3 . 4 . 1 . 2 . 3 . 4 . 1 . 2 . 3 . 4 . 1 . 2 . 3 . 4 .
metro no me
e|----------------------------------------------------------------------------
B|-----------4--5---4--5-----------5h7p5--4-----------------------------------
G|----------------7-------------------------------5----------7----------------
D|----------------------------------------------------------------------------
A|----------------------------------------------------------------------------
E|----------------------------------------------------------------------------
|--0---------------|----------3-------|------------------|--------------0---|
|----------3-------|--0---------------|----------3-------|--------------0---|
|--------------2---|------------------|------2-----------|------------------|
|------------------|------0-----------|------------------|----------2-------|
|------------------|------------------|------------------|------2-----------|
|------2-----------|--3-----------3---|--2-----------2---|--0---------------|
1 . 2 . 3 . 4 . 1 . 2 . 3 . 4 . 1 . 2 . 3 . 4 . 1 . 2 . 3 . 4 .

e|--------------------------------------------------------------------7-------
B|-----------------------------8------------------7--7h8p7--------------------
G|-----------------4h7-4---------------4---------------------9----------------
D|--------4--5--7-------------------------7-----------------------------------
A|----5-7---------------------------------------------------------------------
E|----------------------------------------------------------------------------

|------------------|------------------|------------------|------------------|
|--------------0---|----------1-------|--------------0---|----------3-------|
|----------0-------|--------------2---|----------2-------|------2-------2---|
|------2-----------|------2-----------|------0-----------|------------------|
|------------------|--0---------------|------------------|------------------|
|------------------|------------------|--3---------------|--2---------------|
1 . 2 . 3 . 4 . 1 . 2 . 3 . 4 . 1 . 2 . 3 . 4 . 1 . 2 . 3 . 4 .

e|--7h8-7-7h8p7------------9--------------------------------------------------
B|--------------10----10-----8----------------8-8------------8/10-------------
G|-------------------------------------7--7---------------7-------------------
D|----------------------------------------------------------------------------
A|----------------------------------------------------------------------------
E|----------------------------------------------------------------------------

...Until the day ......the ocean...


|--0--------------------------|---------------0---|------------------|
|---------------------3-------|-------------------|----------1-------|
|-------------------------2---|-----------0-------|--------------0---|
|-----------------------------|-------2-----------|------2-----------|
|-----------------------------|---3---------------|--3---------------|
|---------2-------------------|-------------------|------------------|
1 . 2 . 3 . 4 . 1 . 2 . 3 . 4 . 1 . 2 . 3 . 4 .

e|----------------------------------------------
B|---------8-7h8p7------------------------------
G|------------------9--7\5\4\2----4---5---------
D|----------------------------------------------
A|----------------------------------------------
E|----------------------------------------------

Thats all i've got. I hope its right.


And if there are mistake(s)....then please do tell me.
======================================================================================

Solo (only) :

e|-------------------------------------------------------------------
B|----------------------------------4--5---4--5----5h7p5--4----------
G|---------------------------------------7-------------------5----7--
D|-5--5h7p5--4---5---7---7/9---9-------------------------------------
A|-------------------------------------------------------------------
E|-------------------------------------------------------------------

e|--------------------------------------------------7----------------
B|--------------------------8---------7----7h8p7---------------------
G|-----------------4h7--4------4-----------------9-------------------
D|--------4--5--7-----------------7----------------------------------
A|----5-7------------------------------------------------------------
E|-------------------------------------------------------------------

e|--7h8-7-7h8p7---------9--------------------------------------------
B|--------------10--10-----8----------8-8------8/10------------------
G|-------------------------------7-7--------7------------------------
D|-------------------------------------------------------------------
A|-------------------------------------------------------------------
E|-------------------------------------------------------------------

e|-------------------------------------------------------------------
B|---------8-7h8p7---------------------------------------------------
G|------------------9--7\5\4\2----4---5------------------------------
D|-------------------------------------------------------------------
A|-------------------------------------------------------------------
E|-------------------------------------------------------------------

TABBED BY
shaharizal a.k.a SLASH!

Suggest correction What's this ?


comments print repo rt bad tab

1 comment t ot al.

jeke 10 May 28, 2006 01:19 AM reply 0

misplaced...

Wanna po s t a c o rrec tio n fo r this tab?


Sugges t c o rrec tio n

gues t

Submit

Click to play
Now And Forever
Ab o ut | Sit e r ules | T O S | Pr ivac y | Ad ver t is e | Sup p o r t 2 0 17 Ultimate - G uitar.co m. All rig h ts re se rve d