Sie sind auf Seite 1von 4

NOEL CABANGON - KANLUNGAN (ARRANGED BY JORELL PROSPERO)

TUNING: DADGBe

Capo: 2nd fret

INTRO:

e-------------------------------------------------------------------
B-------------------2---2--3---------3---0-----3--------3-----------
G-------0-----0-------2------------2-------------2--------0---------
D-0---0-----0---0----------------4----------0---------0-------------
A---0---------------0---------2-------------------------------------
D-0-----5--------------------------------5----------4---------------

e-------------------------------------------------------------------
B---------2---------------------------------------------------------
G-----0---2---------------------------------------------------------
D---0-----2---------------------------------------------------------
A---------0---------------------------------------------------------
D-2-----------------------------------------------------------------

VERSE:

e--------------------------------------------------------------------
B------------3-------------------------------------------------------
G-------0--2-----------------------------------0-2--0----------------
D-2s4-4-----------4-4-4-----2--0--2-----2s4--4-----------------------
A-----0--------2--------------------0--------0-----------------------
D-----0------------------5-------------------0---------5-------------

e-------------------2--------------------------------0----------------
B-------------------3-3-----0-----3-------3----------2----------------
G-----------------2----2-----------2--------0------0-2----------------
D--4--2----0----4-------4------0--------0--------0---2----------------
A-------0-----2--------------------------------------0----------------
D---------------------------5---------4--------2----------------------

e-------------------------------2--------------------------------------
B-------------------------------3-3--------------------0---------------
G---------------------0-2-----2-----2--------------------2-------------
D-----0-0-0-0--2----4-------4---------4---0-0-0--2---2--------4-2------
A-0---2----------0--------2---------------2--------0-------------------
D-----4-----------------------------------4----------------0-----------

e--------------------------------2-------------------------------------
B-------3--------------0---------3-3----------------0-2-2h3------------
G-----2----0-0-0---------2-----2----2----0-0-0-------------------------
D---4------0-----2---2-------4--------4--0------2-------------0-0-0----
A-2----------------0-------2----------------------0--------------------
D----------5-----------------------------5------------------0----------

e------------------------------------2----------------------------------
B--------------------------0---------3-3--------------------------------
G----4-----0-0-0-0-----------2-----2----2----0-0-0----------------------
D----4-4---0--------2---2--------4--------4--0-----2---0---0------------
A--2------------------0--------2---------------------0---4--------------
D----------5---------------------------------5--------------------------

e--------------2--------------------------------0----------------
B--------------3-3-----0-----3-------3----------2----------------
G------------2----2-----------2--------0------0-2----------------
D----------4-------4------0--------0--------0---2----------------
A-------2---------------------------------------0----------------
D----------------------5---------4--------2----------------------

REPEAT VERSE.. THEN BEFORE CHORUS, DO THIS ONE..

STRUM..

e---------------------------------------------------------------------
B-3-------------------------------------------------------------------
G-2-------------------------------------------------------------------
D-0-------------------------------------------------------------------
A-0-------------------------------------------------------------------
D-0-------------------------------------------------------------------

FIRST CHORUS..

e---------------------------------------------------------------------
B--3-2-3-----0---------0------------0---------------0-----------------
G------------0---2---2---2--------2-2--2-------0--2---2---------------
D---------------------------4---4---4----4--4--0----------2--0--2s4---
A------------------0--------0h2-----2-------------------0-------------
D---------5------------------------------------5----------------------

e---------------------------------------------------------------------
B---------------------------0-------2--3---2--3-------2--3------------
G-----------------0--2------0-2---------------------------------------
D------4-T-4----4-----------------2----------------0------------------
A----0---A-0--------------------0--------2----------------------------
D--0-----P-0-------------5-----------------------5----------2---------

e---------------------------------------------------------------------
B-2--3-----2--0-------------------------------------------------------
G------------------2--2-----------------------------------------------
D---------------------2-----------------------------------------------
A----------------0----0-----------------------------------------------
D-------2-------------------------------------------------------------

e---------------------------------------------------------------------
B------------3---------------------------------------2-0--------------
G-------0--2---------------------------------------0------------------
D-2s4-4-----------4-4-4-----2--0--2---------0h2--4--------4--2--------
A-----0--------2--------------------0---0h2---------------------------
D-----0------------------5-----------------------0-----5--------------

e--------------------2------------------------------------------------
B----0---2--3--------3-3----------------------------------------------
G------------------2-----2--------------------------------------------
D----------------4---------4------------------------------------------
A-0--2---4-----2------------------------------------------------------
D---------------------------------------------------------------------

BACK TO INTRO:

e---------------------------0-----------------------------------------
B--0----4-------2-----------2-----------------------------------------
G---------2-------0------0--2-----------------------------------------
D----0--------0--------0----2-----------------------------------------
A---------------------------0-----------------------------------------
D--5--------4--------2------------------------------------------------

SAME VERSE AGAIN..

THEN 2ND CHORUS..

e---------------------------------------------------------------------
B--3-2-3-----0---------0------------0---------------0-----------------
G------------0---2---2---2--------2-2--2-------0--2---2---------------
D---------------------------4---4---4----4--4--0----------2--0--2s4---
A------------------0--------0h2-----2-------------------0-------------
D---------5------------------------------------5----------------------

e------------------------------------------------------------------0-----
B---------------------------0-------2--3----0----2-3----2--3---0---2-----
G-----------------0--2------0-2-------------0--------------------2-2-----
D------4-T-4----4-----------------2--------------------------------2-----
A----0---A-0--------------------0--------2-----0-------------------0-----
D--0-----P-0-------------5----------------------------5------2-----------

BACK TO PANA-PANAHON ..

THEN SOLO PART..

e-----5h7-0------5----------------------------------0-2------5--0h2--------
B--------------5----3---2--0----------3--3--2--2--3------------------------
G------------------------------2-------------------------------------------
D----------------------------------------------------------0---------------
A------------0------0-2----2-0-----------------0---------------------------
D--5------5------------------------5---------------------0------0----------

e----5h7--7----7--9--10----10-9-------------------0------------------------
B--------------------------------10---------0--3----3--2--3--(strum)-------
G---------------------------------------0h2---------------2----------------
D---------------------------------------------------------0----------------
A-----------0---------------------0---------------0-------0----------------
D-5-------5-------------9-------------5-------------------0----------------
CHORUS AGAIN..

THEN

OUTRO,

e--2--0----2----0-----4-----2-0-2---0--0H2---------------------------------
B-------3----------3------------------------3------------------------------
G-------------------------------------------2------------------------------
D-------------------------------------------0------------------------------
A-----------------------------------0-------0------------------------------
D--5-------5--4-------4--2------2-----------0------------------------------

That's all! If you have any questions regarding this tab, Please send me a pm.
GodBless you all and goodluck! :)

- Jorell Prospero