You are on page 1of 8

TheDay thatnever comes (Metallica)

----------------------
Intro

Guitar 1 (Clean guitar w/Chorus)

1st:-------12----------12----------12----------12----|
2nd:----13----13----13----13----12----12----12----12-|
3rd:-14----------14----------12----------12----------|
4th:-------------------------------------------------|
5th:-------------------------------------------------|
6th:-------------------------------------------------|

1st:-------14----------14----------12----------12----|
2nd:----15----15----15----15----13----13----13----13-|
3rd:-12----------12----------14----------14----------|
4th:-------------------------------------------------|
5th:-------------------------------------------------|
6th:-------------------------------------------------| x2

Guitar 2 (Lead electric w/overdrive)

1st:-----------------------------------------|
2nd:-----------------------------------------|
3rd:-7--7/9-------------7--7/9---------------|
4th:--------7-7-7/9-5~----------7-7-7/9--7~--|
5th:-5--5/7-------------5--5/7---------------|
6th:--------5-5-5/7-3-----------5-5-5/7--5---| x2

1st:---------------------------------------------------------|
2nd:---------------------------------------------------------|
3rd:-7--7/9--------------------------------------------------|
4th:--------7-7-7/9-5--5-5/7-7-7/9-9-9/10-9-5/7--7h9-10-9p7--|
5th:-5--5/7--------------------------------------------------|
6th:--------5-5-5/7-3--3-3/5-5-5/7-7-7/8--7-3/5--------------|

| 3 | | 3 | | 3 | | 3 |
1st:----------------------------------------------------|
2nd:----------------------------------------------------|
3rd:-------------------5---5-7-5----5---------7-9-7-----|
4th:-5-7-7---5-7-9-7-9---9--------9---9/-9-10-------10--|
5th:----------------------------------------------------|
6th:----------------------------------------------------|

1st:------------------------|
2nd:-----------------8--10~-|
3rd:-7--9--10--9--10--------|
4th:------------------------|
5th:------------------------|
6th:------------------------|

Verse 1

Guitar 1 (clean)

1st:-----------------------------------------------------------------|
2nd:-----1---0--------------------------1---0-----1-----1---0--------|
3rd:---2-------2---0------0-------0-----------2-------0-------0---2--|
4th:--------------------0-------0------------------------------------|
5th:-0-----0-----0----2-------2-------2-------------3-----3-----3----|
6th:----------------3---------------0-----------0--------------------| x8

Chorus 1

Guitar 3 (rhythm w/distortion)

1st:------------------------------------0-------------|
2nd:------------------------------------0-------------|
3rd:-2---2-2---------0----0-0-----------0-------------|
4th:-2---2-2---------0----0-0--------2--2---5-5--5-5--|
5th:-0---0-0-xx-3-2--x----x-x--------2------3-3--2-2--|
6th:-----------------3----3-3-xx-5-3-0----------------| x4

Guitar 2 (lead w/overdrive)

1st:---------------------------------------------------|
2nd:---------------------------------------------------|
3rd:-5~------5-5h7-5-4~------4-4h5-4--------5-5--5-5---|
4th:---------------------------------5-----------------|
5th:---------------------------------------------------|
6th:---------------------------------------------------| x2

1st:----------------------------|
2nd:----------------------------|
3rd:-------------------0-1-2-1--|
4th:-------------0-2-3----------|
5th:-------0-2-3----------------|
6th:-0-3-4----------------------|

Verse 2

Guitar 2 (lead w/overdrive)

1st:-----------------------------------------|
2nd:-----------------------------------------|
3rd:-7--7/9-------------7--7/9---------------|
4th:--------7-7-7/9-5~----------7-7-7/9--7~--|
5th:-5--5/7-------------5--5/7---------------|
6th:--------5-5-5/7-3-----------5-5-5/7--5---| x2

1st:---------|
2nd:---------|
3rd:---------|
4th:-7h9p7~--|
5th:---------|
6th:---7-5---|

Guitar 1 (clean)

1st:-----------------------------------------------------------------|
2nd:-----1---0--------------------------1---0-----1-----1---0--------|
3rd:---2-------2---0------0-------0-----------2-------0-------0---2--|
4th:--------------------0-------0------------------------------------|
5th:-0-----0-----0----2-------2-------2-------------3-----3-----3----|
6th:----------------3---------------0-----------0--------------------| x4

Chorus 2
Guitar 3 (rhythm w/distortion)

1st:------------------------------------0-------------|
2nd:------------------------------------0-------------|
3rd:-2---2-2---------0----0-0-----------0-------------|
4th:-2---2-2---------0----0-0--------2--2---5-5--5-5--|
5th:-0---0-0-xx-3-2--x----x-x--------2------3-3--2-2--|
6th:-----------------3----3-3-xx-5-3-0----------------| x4

Guitar 2 (lead w/overdrive)

1st:---------------------------------------------------|
2nd:---------------------------------------------------|
3rd:-5~------5-5h7-5-4~------4-4h5-4--------5-5--5-5---|
4th:---------------------------------5-----------------|
5th:---------------------------------------------------|
6th:---------------------------------------------------| x2

1st:----------------------------|
2nd:----------------------------|
3rd:-------------------0-1-2-1--|
4th:-------------0-2-3----------|
5th:-------0-2-3----------------|
6th:-0-3-4----------------------|

Bridge

1st:-------------------------------------------------|
2nd:-------------------------------------------------|
3rd:----------------------------2--------5--------4--|
4th:-------------5--------------2--------5--------4--|
5th:-------0-2-3-5--------0-2-3-0--------3--------2--|
6th:-0-3-4-------3--0-3-4----------0-3-4----0-3-4----|

1st:----------------------------|
2nd:----------------------------|
3rd:-------------------0-1-2-1--|
4th:-------------0-2-3----------|
5th:-------0-2-3----------------|
6th:-0-3-4----------------------|

1st:---------------------------------|
2nd:---------------------------------|
3rd:---------------------------------|
4th:-5---2---4---2---5---2---4---2---|
5th:-3---2---2---2---3---2---2---2---|
6th:-----0-------0-------0-------0/--|

1st:---------------------------------------------------------------------|
2nd:---------------------------------------------------------------------|
3rd:---------------------------------------------------------------------|
4th:---------------------------------------------------------------------|
5th:-7-7---10-7-10--7-7---10-7-10--7-7---10-7-10---9-8-------------------|
6th:-0-0---0--0-0---0-0---0--0-0---0-0---0--0-0----7-6-0-0-0-0-0-0-3-0-2-| x4

1st:--------------------------------------------------------------------------|
2nd:--------------------------------------------------------------------------|
3rd:--------------------------------------------------------------------------|
4th:-----------------------------------------2-4---4-6-2-6-7-4--7-7-7--7-7-7--|
5th:-4-4----------4-4----------4-4-----------0-2-6-2-4-0-4-5-2--5-5-5--5-5-5--|
6th:-2-2---5-2-5--2-2---5-2-5--2-2---5-2-5-------4----------------------------|

1st:----------------------------|
2nd:----------------------------|
3rd:-------------------0-1-2-1--|
4th:-------------0-2-3----------|
5th:-------0-2-3----------------|
6th:-0-3-4----------------------| x2

(drums)

1st:-------------------------------------------------------------------------------
-----------|
2nd:-------------------------------------------------------------------------------
-----------|
3rd:-------------------------------------------------------------------------------
-----------|
4th:-------------------------------------------------------------------------------
--------1~-|
5th:-------------------------------------------------------------------------------
-----------|

x3

(harmonies)

1st:---------------------------------|
2nd:---------------------------------|
3rd:---------------------------------|
4th:-5---2---4---2---5---2---4---2---|
5th:-3---2---2---2---3---2---2---2---|
6th:-----0-------0-------0-------0/--|

1st:-------------------------------------------------------------------------------
--------|
2nd:-------------------------------------------------------------------------------
--------|

3rd:-------------------------------------------------------------------------------
--------|
4th:-------------------------------------------------------------------------------
--------|
5th:-------------------------------------------------------------------------------
--------|

x4

1st:-0h5h8-0h5h8-0h5h8-0h5h8-0h5h8-0h5h8-0h5h8-0h5h8-0h5h7-0h5h7-0h5h7-0h5h7-0h4h7-
0h4h7-0-|
2nd:-------------------------------------------------------------------------------
--------|
3rd:-------------------------------------------------------------------------------
--------|
4th:-------------------------------------------------------------------------------
--------|
5th:-------------------------------------------------------------------------------
--------|
x2

1st:--------------------7-7------|
2nd:------------5-8-8-5-----8----|
3rd:-----------------------------|
4th:-5---2---4-------------------|
5th:-3---2---2-------------------|
6th:-----0-----------------------|
(below is the harmony part)
1st:-----------------------------|
2nd:------------0-5-5-0-8-8-5----|
3rd:-----------------------------|
4th:-----------------------------|
5th:-----------------------------|
6th:-----------------------------|

1st:---
2nd:---
3rd:---
4th:-2-
5th:-2-
6th:-0-

(drums)

---

1st:--------------------------------------|
2nd:--------------------------------------|
3rd:-----------------------7--------------|
4th:-4-2-----4-2-----2-4-7-5-7/9-7--------|
5th:-2-0-5-2-2-0-5-2-0-2-5---5/7-5-7/9-7--|
6th:-----3-0-----3-0---------------5/7-5--|

1st:----------------------------------|
2nd:----------------------------------|
3rd:-----------------------7----------|
4th:-4-2-----4-2-----2-4-7-5-----4----|
5th:-2-0-5-2-2-0-5-2-0-2-5---2-5-2-5--|
6th:-----3-0-----3-0---------0-3---3--| x2

Solo

1st:---------------------------------------------------------------|
2nd:---------------------------------------------------------------|
3rd:----------------------------------------------7----------7-----|
4th:-9///^(12)---10^(12)-10^(12)-10^(12)9p----7/9---9-9/-7-9---9-9-|
5th:---------------------------------------9-----------------------|
6th:---------------------------------------------------------------|

1st:-------------------------------------------|
2nd:-------------------------------8--10--12~/-|
3rd:-----7-----7-9^(11)-7---7-9-11-------------|
4th:-7/9---9-9------------9--------------------|
5th:-------------------------------------------|
6th:-------------------------------------------|

1st:/17p15p14-------17p14p12-------15p14p12----------15p14p12----------|
2nd:----------17p15----------15p12----------15p14p12----------15p14p12-|
3rd:-------------------------------------------------------------------|
4th:-------------------------------------------------------------------|
5th:-------------------------------------------------------------------|
6th:-------------------------------------------------------------------|

1st:----------------------------------------------------------|
2nd:-15p14p12----------15p14p12----------15p14p12-------------|
3rd:----------14p12p11----------14p12p11----------14p12----12-|
4th:----------------------------------------------------14----|
5th:----------------------------------------------------------|
6th:----------------------------------------------------------| ???

1st:-----------------------------------------|
2nd:-----------------------------------------|
3rd:-12----11----10----9----8----7---6---5---|
4th:----14----13----12---11---10---9---8---7-|
5th:-----------------------------------------|
6th:-----------------------------------------|

1st:-------------------------8-------10------------|
2nd:------------8-----10--10---10-10-----10---11---|
3rd:-7-----9--9---9-9--------------------12^--13^--|
4th:---9-9-----------------------------------------|
5th:-----------------------------------------------|
6th:-----------------------------------------------|

---

1st:-14----------14----------14----------14----------|
2nd:----12-10-12----12-10-12----12-10-12----12-10-12-|
3rd:-------------------------------------------------|
4th:-------------------------------------------------|
5th:-------------------------------------------------|
6th:-------------------------------------------------|

1st:-15----------15----------15----------15----------|
2nd:----13-12-13----13-12-13----13-12-13----13-12-13-|
3rd:-------------------------------------------------|
4th:-------------------------------------------------|
5th:-------------------------------------------------|
6th:-------------------------------------------------|

1st:-17----------17----------17----------17----------|
2nd:----15-13-15----15-13-15----15-13-15----15-13-15-|
3rd:-------------------------------------------------|
4th:-------------------------------------------------|
5th:-------------------------------------------------|
6th:-------------------------------------------------|

1st:-19----------17----------19----------17----------|
2nd:----17-15-17----17-15-17----17-15-17----17-15-17-|
3rd:-------------------------------------------------|
4th:-------------------------------------------------|
5th:-------------------------------------------------|
6th:-------------------------------------------------| x2

---

1st:-24-22-21-23-21-20-22-20-19-21-19-18-20-18-17-19-17-16-18-16-15-17-15-14-|
2nd:-------------------------------------------------------------------------|
3rd:-------------------------------------------------------------------------|
4th:-------------------------------------------------------------------------|
5th:-------------------------------------------------------------------------|
6th:-------------------------------------------------------------------------|

1st:-16-14-13-15-13-12-14-12-11-13-11-10-12-10-9-11-9-8-10--8--7---------------|
2nd:--------------------------------------------------------------10--8--7-----|
3rd:------------------------------------------------------------------------7~-|
4th:---------------------------------------------------------------------------|
5th:---------------------------------------------------------------------------|
6th:---------------------------------------------------------------------------|

1st:------------------------------------------15-17-19-20-22^(24)--|
2nd:-----------10^---------------15^-------17----------------------|
3rd:-------7h9-------------12h14--------16-------------------------|
4th:-7/--9---------12/--14-----------14----------------------------|
5th:---------------------------------------------------------------|
6th:---------------------------------------------------------------|

Ending

1st:-------------------------------------------------------------------------------
--------|
2nd:-------------------------------------------------------------------------------
--------|
3rd:-------------------------------------------------------------------------------
--------|
4th:-------------------------------------------------------------------------------
--------|
5th:-------------------------------------------------------------------------------
--------|

x4

1st:-0h5h8-0h5h8-0h5h8-0h5h8-0h5h8-0h5h8-0h5h8-0h5h8-0h5h7-0h5h7-0h5h7-0h5h7-0h4h7-
0h4h7-0-|
2nd:-------------------------------------------------------------------------------
--------|
3rd:-------------------------------------------------------------------------------
--------|
4th:-------------------------------------------------------------------------------
--------|
5th:-------------------------------------------------------------------------------
--------|

x2

1st:------------------------------------------------------------------------|
2nd:------------------------------------------------------------------------|
3rd:------------------------------------------------------------------------|
4th:-5-------4-------5-------4------------------5-------4-------------------|
5th:-3---2---2---2---3---2---2------------------3---2---2-------------------|
6th:-----0-------0-------0------3-2-0-0-3-2-0-0-----0------3-2-0-0-3-2-0-0--|

1st:-------------------------------------------|
2nd:-------------------------------------------|
3rd:-------------------------------------------|
4th:-5--4--10-9--------2--5--4--10-9--------2--|
5th:-3--2--8--7--5--4--2--3--2--8--7--5--4--2--|
6th:-------------3--2--0--------------3--2--0--|

1st:----------------------|
2nd:----------------------|
3rd:----------------------|
4th:-0---4----------------|
5th:-0---4---5-4-3-5-4-3--|
6th:-----2---5-4-3-5-4-3--| x2

1st:----------------------|
2nd:----------------------|
3rd:----------------------|
4th:-5--4--10-9--------2--|
5th:-3--2--8--7--5--4--2--|
6th:-------------3--2--0--|

1st:-0h5h8-0h5h8-0h5h8-0h5h8-0h5h8-0h5h8-0h5h8-0h5h8-0h5h7-0h5h7-0h5h7-0h5h7-|
2nd:-------------------------------------------------------------------------|
3rd:-------------------------------------------------------------------------|
4th:-------------------------------------------------------------------------|
5th:-------------------------------------------------------------------------|
6th:-------------------------------------------------------------------------|

1st:-------------------------------------------------------------------------------
-----|
2nd:-------------------------------------------------------------------------------
-----|
3rd:-------------------------------------------------------------------------------
-----|
4th:-------------------------------------------------------------------------------
-----|
5th:--------------------------------------------------------------------------8-8-
8-8-7-|
6th:-0h5h8-0h5h8-0h5h8-0h5h8-0h5h8-0h5h8-0h5h8-0h5h8-0h5h7-0h5h7-0h5h7-0h5h7--8-8-
8-8-7-|

| / slide up
| \ slide down
| h hammer-on
| p pull-off
| ~ vibrato
| + harmonic
| x Mute note