Sie sind auf Seite 1von 2

ENGLISERA

[Verse 1](G-Bm-C-D)
Aduna koy nabantayan
Nausab na ang akong sinultian
May sagol nang inegles
Like 'whatever' and 'well'
Em D C
Sukad nga nakaila tika

[Refrain 1](G-Bm-C-D)
Giingnan ko sa imong friends
Nga you find kuno baduy
Ang bisayang pinulongan
Manlimbawot imong balhibo
Kung makadungog nag
Em D C
Pulong sama sa gugma

[Chorus 1](G-Bm-C-D)
So I say i love you
Is it okey with you
Bahala nag makahilak
Ang lolo kong magbabalak
I'll tell him 'well my lolo I'm in love not like you
Em D C
I'm not too old to learn an english word or two

[Verse 2](same chords lang po sa verse 1)


Nagkuyog ta sa sinehan
Gikataw-an mo ang trailer ni Piolo ug judy ann
way laing naingon kundi 'whatever' and 'well'
Dayong gawas sa pultahan

[Refrain 2](same chords lang po refrain 1)


Giingnan ko sa imong friends
nga you find kuno baduy
Mga pelikulang pinoy
Bahala nag luod basta gikan sa hollywood
Always makes you feel so good

[Chorus 1](G-Bm-C-D)
So I say i love you
Is it okey with you
Bahala nag makahilak
Ang lolo kong magbabalak
I'll tell him 'well my lolo I'm in love not like you
Em D C
I'm not too old to learn an english word or two

here's the solo:


e|--------------------------------------------------------------------|
B|-----------------7-7/9-8-7-7/9-8-7-8-7-------7-8-8/9--8-7-8-7-------|
G|-------------5h7-----------------------7-9-------------------7-9----|
D|---------5h7--------------------------------------------------------|
A|------5h7-----------------------------------------------------------|
E|--3-5---------------------------------------------------------------|
e|----------------------------------------------------------------------
---------------------|
B|--8-7-8-7------8-7-8-8/9-8-7-8---12-12-12\10-10-10\8-8-8\7---7/9-8-7-
8-7-----8-7-7/8-------|
G|----------7-9--------------------12-12-12\11-11-11\9-9-
9\7--------------7-9---------9-11---|
D|----------------------------------------------------------------------
---------------------|
A|----------------------------------------------------------------------
---------------------|
E|----------------------------------------------------------------------
---------------------|
| / slide up
| \ slide down
| h hammer-on

[Bridge]
Unya kalit kang nawala
Wa ka nagpahibalo
Niining bisdak nga na-in love kanimo
I thought kitang duha together forever
Ako imo diayng gipasakitan

[Refrain 3](G-Bm-C-D)
Giingnan ko sa imong friends
Ga nikuyog ka kuno sa imong ka-textmate na kano
Nanlimbawot akong balahibo sa nasayran ko nga
Em D C
Ang kano otsenta na

[Chorus 2](G-Bm-C-D)
Still I say I love you though youre hurting me so
Bahala nag makahilak ang lolo kung magbabalak
I'll tell him well my lolo i'm your stupid apo
Em D C
Naminaw lang unta ako sa tambag mo
Em D C
Now I'm too hurt to learn an english word or two