You are on page 1of 11

Led Zeppelin - Babe I'm Gonna Leave You

WARNING: If you really want to learn this music, watch out


all minor changes in the main verse, and if I did any error,
please contact me in my e-mail TheLizzard_Hendrix@hotmail.com.
P.S.: The lirics are not 100% right (the music too, thought),
cause I'm lazzy and dont want to look for the lirics, but...
wathever, whats real matter is the music anyway, in any case
I hope you enjoy it...
Iguana

Notation for solos:


(R) - Rake
h - Hammer on
p - Pull off
~ - Tremolo pickin
hb - Half bend
fb - full bend

Intro: (Without vocals)

|-------0----------------------------------------------------------|
|---------------1-------3-------1-------3-------1-------1-------0--|
|-----2-------2-------0-------0-------2-------2-------2-------1----|
|---2-------2-------2-------2-------0-------0-------3-------2------|
|-0-------0--------------------------------------------------------|
|-----------------3-------3-------2-------2-------1-------0--------|

|-------3-------0-------3-------0----------------------------------|
|---------------------------------------3-------1-------1-------0--|
|-----2-------2-------0-------0-------2-------2-------2-------1----|
|---2-------2-------2-------2-------0-------0-------3-------2------|
|-0-------0--------------------------------------------------------|
|-----------------3-------3-------2-------2-------1-------0--------|

Verse 1:

|-------3-------0--------------------------------------------------|
|-----------------------3-------1-------3-------1-------1-------0--|
|-----2-------2-------0-------0-------2-------2-------2-------1----|
|---2-------2-------2-------2-------0-------0-------3-------2------|
|-0-------0--------------------------------------------------------|
|-----------------3-------3-------2-------2-------1-------0--------|

Baby... ...baby baby I´m gonna...

|-------3-------0--------------------------------------------------|
|-----------------------3-------1-------3-------1-------1-------0--|
|-----2-------2-------0-------0-------2-------2-------2-------1----|
|---2-------2-------2-------2-------0-------0-------3-------2------|
|-0-------0--------------------------------------------------------|
|-----------------3-------3-------2-------2-------1-------0--------|

...live you... I say...


|-------3-------0--------------------------------------------------|
|-----------------------3-------1-------3-------1-------1-------0--|
|-----2-------2-------0-------0-------2-------2-------2-------1----|
|---2-------2-------2-------2-------0-------0-------3-------2------|
|-0-------0--------------------------------------------------------|
|-----------------3-------3-------2-------2-------1-------0--------|

Baby... ...you know I´m gonna...

|-------3-------0-------3-------0----------------------------------|
|---------------------------------------3-------1-------1-------0--|
|-----2-------2-------0-------0-------2-------2-------2-------1----|
|---2-------2-------2-------2-------0-------0-------3-------2------|
|-0-------0--------------------------------------------------------|
|-----------------3-------3-------2-------2-------1-------0--------|

...leave you... ... I'm ...

|------------------------------------------------------------------|
|-------3-------1-------3-------0-------3-------1-------3-------0--|
|-----2-------2-------1-------1-------2-------2-------1-------1----|
|---3-------3-------2-------2-------3-------3-------2-------2------|
|------------------------------------------------------------------|
|-1-------1-------0-------0-------1-------1-------0-------0--------|

leave you when the summertime... ...leave you when the summer

|-------0-------0-------3-------0----------------------------------|
|---------------------------------------1-------1-------1-------0--|
|-----2-------2-------0---------------2-------2-------2-------1----|
|---2-------2-------2-------2-2-----0-------0-------3-------2------|
|-0-------0--------------------------------------------------------|
|-----------------3-------3-------2-------2-------1-------0--------|

...comes alone... ...leave you when the summer comes alone...

Chorus 1:

|---------0-----0--0--------------|
|-1-11-0--1-----8--6--------------|
|-2-22-0--2-----9--7--------------|
|-2-22-0--2-----7--7--2-2-2-2-2-2-| 4x
|-0-00----0-----0--0--0-0-0-0-0-0-|
|---------------------------------|

Verse 2:

|------------------------------------------------------------------|
|---------------1-------3-------1-------1-------1-------1-------0--|
|-----2-------2-------0-------0-------2-------2-------2-------1----|
|---2-------2-------2-------2-------0-------0-------3-------2------|
|-0-------0--------------------------------------------------------|
|-----------------3-------3-------2-------2-------1-------0--------|

...Baby baby baby baby baby baaby I wont...

|-------3-------0--------------------------------------------------|
|-----------------------3-------1-------3-------1-------1-------0--|
|-----2-------2-------0-------0-------2-------2-------2-------1----|
|---2-------2-------2-------2-------0-------0-------3-------2------|
|-0-------0--------------------------------------------------------|
|-----------------3-------3-------2-------2-------1-------0--------|

... leeave you... ...I aint joke woman I got to ...

|-------3-------0--------------------------------------------------|
|-----------------------3-------1-------3-------1-------1-------0--|
|-----2-------2-------0-------0-------2-------2-------2-------1----|
|---2-------2-------2-------2-------0-------0-------3-------2------|
|-0-------0--------------------------------------------------------|
|-----------------3-------3-------2-------2-------1-------0--------|

..ramble... ...ooooh yeah...

|-------3-------0--------------------------------------------------|
|-----------------------3-------1-------3-------1-------1-------0--|
|-----2-------2-------0-------0-------2-------2-------2-------1----|
|---2-------2-------2-------2-------0-------0-------3-------2------|
|-0-------0--------------------------------------------------------|
|-----------------3-------3-------2-------2-------1-------0--------|

... Baby baby I'll leave the ^ really got

riff 1:-------------------------------> ^

Acustic guitar 2 as riff 1;

|-10-12-10-12--x-8h10p8-8--------|
|-x-----x-----------------1010~~-|
|-x-----x------------------------|
|(R)---(R)-----------------------|
|--------------------------------|
|--------------------------------|

|------------------------------------------------------------------|
|-------3-------1-------3-------0-------3-------1-------3-------0--|
|-----2-------2-------1-------1-------2-------2-------1-------1----|
|---3-------3-------2-------2-------3-------3-------2-------2------|
|------------------------------------------------------------------|
|-1-------1-------0-------0-------1-------1-------0-------0--------|

...ramble... ...I can hear a call in me the way


|-------0-----------------------------------------------0----------|
|---------------1-------3-------1-------1-------1---------------0--|
|-----2-------2-------0-------0-------2-------2-------2-------1----|
|---2-------2-------2-------2-------0-------0-------3-------2------|
|-0-------0--------------------------------------------------------|
|-----------------3-------3-------2-------2-------1-------0--------|

...you used to do... ...I can hear a call in me back...

Chorus 2:

|---------0-----0--0--------------|
|-1-11-0--1-----8--6--------------|
|-2-22-0--2-----9--7--------------|
|-2-22-0--2-----7--7--2-2-2-2-2-2-| 4x
|-0-00----0-----0--0--0-0-0-0-0-0-|
|---------------------------------|

Bridge:

|------------------------------------|
|-------5-------8-------8-------6----|
|-----4-------9-------7-------7------|
|---2-------9-------7-------7--------|
|-0-------0-------0-------0----------| 4x
|------------------------------------|

Eletric / Acoustic riff:

This part off music is made by a acoustic and eletric guitar at same time,
the first time enters just eletric guitar, in second time, enters the
acoustic:

First part: (just eletric guitar)

|--------------------------------------------------|
|--------------------------------------------------|
|--------------------------------------------------|
|-7-7---5-7-7---5-5-0-4-5---4-4---3-4-4--333-0-2-2-|
|-----7-5-7-7-------0-----------0-3----------0-2-2-|
|-5-5-5-3-5-5---3-3---2-3---2-2---1-2-2--111-0-0-0-|

Second part: eletric & acoustic guitars: (3x)


Eletric guitar:

|-------------------------------------------------|
|-------------------------------------------------|
|-------------------------------------------------|
|7-7---5-7-7--5-5-0-4-5-5--4-4---3-4-4--333-0-2-2-|
|----7-5-7-7------0-----5------0-3----------0-2-2-|
|5-5-5-3-5-5--3-3---2-3-3--2-2---1-2-2--111-0-0-0-|

Acoustic guitar:

|--------0----3-3-3---3----2-2-2---2-2--111---0-0-|
|1-1-1-0-1-1--1-1-1---1-1--1-1-1---1-1--111-0-0-0-|
|2-2-2-0-2-2--2-2-2-0-2-2--2-2-2-0-2-2--222-0-1-1-|
|2-2-2-0-2-2--x-x-x-0-x-x--0-0-0-0-0-0--333-0-2-2-|
|0-0-0---0-0--0-0-0---0-0--x-x-x-0-x-x--333-0-2-2-|
|-------------3-3-3---3-3--2-2-2---2-2--111---0-0-|

Final part: eletric & acoustic guitars: (2x)

Eletric guitar:

|-------------------------------------------------------|
|-------------------------------------------------------|
|-------------------------------------------------------|
|-3-3-0---3-3---2-2-2-0-2-2---3-3-0---3-3---2-2-2-0-2-2-|
|-----0---------2-2-2-0-2-2-------0---------2-2-2-0-2-2-|
|-1-1---0-1-1---0-0-0---0-0---1-1---0-1-1---0-0-0---0-0-|

Acoustic guitar:

|-111----1-1------------0-0---111----1-1------------0-0-|
|-111-0--1-1----0-0-0-0-0-0---111-0--1-1----0-0-0-0-0-0-|
|-222-0--2-2----1-1-1-0-1-1---222-0--2-2----1-1-1-0-1-1-|
|-333-0--3-3----2-2-2-0-2-2---333-0--3-3----2-2-2-0-2-2-|
|-333----3-3----2-2-2---2-2---333----3-3----2-2-2---2-2-|
|-111----1-1----0-------0-0---111----1-1----0-------0-0-|

Chorus 3: (Just acoustic guitar)

|---------0-----0--0--------------|
|-1-11-0--1-----8--6--------------|
|-2-22-0--2-----9--7--------------|
|-2-22-0--2-----7--7--2-2-2-2-2-2-| 4x
|-0-00----0-----0--0--0-0-0-0-0-0-|
|---------------------------------|

Verse 3: All the back solos off third verse are made by a second acoustic guitar:
First acoustic guitar:

|-------0----------------------------------------------------------|
|-----1----------1-------3-------1-------3-------1-------1-------0-|
|---2----------2------0-------0-------2-------2-------2-------1----|
|-----------2-------2-------2-------0-------0-------3-------2------|
|-0-------0--------------------------------------------------------|
|-----------------3-------3-------2-------2-------1-------0--------|

Second acoustic guitar:


|--------------------------------------------------------------------|
|-------------------------------------------5-6-8-6------5-----------|
|---------------------------------------------------9p7p5-5-7h9p7p5--|
|------------------------------------------------------------------7~|
|--------------------------------------------------------------------|
|--------------------------------------------------------------------|

First acoustic guitar:

|-------3-------0--------------------------------------------------|
|-----------------------3-------1-------3-------1-------1-------0--|
|-----2-------2-------0-------0-------2-------2-------2-------1----|
|---2-------2-------2-------2-------0-------0-------3-------2------|
|-0-------0--------------------------------------------------------|
|-----------------3-------3-------2-------2-------1-------0--------|

Second acoustic guitar:

|---------------------------------------------------------------------------|
|-------------------------------1-3-5----------35---------------------------|
|--------------------2--5~--2-5------5p4p25p4p2-----------------------------|
|------------------------------------------------3p2p03p2p00h2p0-3----------|
|-----------------------------------------------------------------33h5p3-2--|
|-------------------------------------------------------------------------5~|

|-------3-------0-------1-------0-------0---------------0----------|
|-----------------------------------------------3---------------0--|
|-----2-------2-------0-------0-------2-------2-------2-------1----|
|---2-------2-------2-------2-------0-------0-------3-------2------|
|-0-------0--------------------------------------------------------|
|-----------------3-------3-------2-------2-------1-------0--------|

I know... I know... ...I know I nevernevernevernevergonna live


you...

|------------------------------------------------------------------|
|-------1-------1-------1-------1-------1-------1-------1-------0--|
|-----2-------2-------0-------0-------2-------2-------2-------1----|
|---2-------2-------2-------2-------0-------0-------3-------2------|
|-0-------0--------------------------------------------------------|
|-----------------3-------3-------2-------2-------1-------0--------|

baby... ... I gotta go off this place...

|-------3-------1-------0-------1-------0--------------------------|
|-----------------------------------------------3-------3-------0--|
|-----2-------2-------0-------0-------2-------2-------2-------1----|
|---2-------2-------2-------2-------0-------0-------3-------2------|
|-0-------0--------------------------------------------------------|
|-----------------3-------3-------2-------2-------1-------0--------|

...ooh I gotta get you yeah ooooooooh baby

|------------------------------------------------------------------|
|-------1-------1-------1-------1-------1-------1-------1-------0--|
|-----2-------2-------0-------0-------2-------2-------2-------1----|
|---2-------2-------2-------2-------0-------0-------3-------2------|
|-0-------0--------------------------------------------------------|
|-----------------3-------3-------2-------2-------1-------0--------|

...Baby baby baby baby

Eletric riff:

This time, Mr. Page just do 2 times and without acoustic guitar, just eletric:

|--------------------------------------------------|
|--------------------------------------------------| (2x)
|--------------------------------------------------|
|-7-7---5-7-7---5-5-0-4-5---4-4---3-4-4--333-0-2-2-|
|-----7-5-7-7-------0-----------0-3----------0-2-2-|
|-5-5-5-3-5-5---3-3---2-3---2-2---1-2-2--111-0-0-0-|

Now, back again to the acustic guitar, but the back solos this time
are made by an eletric guitar:

Acoustic guitar( just acoustic)

|-------0----------------------------------------------------------|
|---------------1-------3-------1-------1-------1-------1-------0--|
|-----2-------2-------0-------0-------2-------2-------2-------1----|
|---2-------2-------2-------2-------0-------0-------3-------2------|
|-0-------0--------------------------------------------------------|
|-----------------3-------3-------2-------2-------1-------0--------|

... woman...
Acoustic guitar

|-------3-------1-------0-------1-------0---------------0-------0--|
|-----------------------------------------------3------------------|
|-----2-------2-------0-------0-------2-------2-------2-------1----|
|---2-------2-------2-------2-------0-------0-------3-------2------|
|-0-------0--------------------------------------------------------|
|-----------------3-------3-------2-------2-------1-------0--------|

...Woman I know I know


Eletric guitar

|--------------17hb17hb17hb----------------------------------------------------|
|------------------------------------------------------------------------------|
|-----------------------------------------------------12fb12fb12fb12fb12fb12fb~|
|------------------------------------------------------------------------------|
|------------------------------------------------------------------------------|
|------------------------------------------------------------------------------|

Acoustic guitar

|-------3-------1-------1-------0-------0---------------0-------0--|
|-----------------------------------------------3------------------|
|-----2-------2-------0-------0-------2-------2-------2-------1----|
|---2-------2-------2-------2-------0-------0-------3-------2------|
|-0-------0--------------------------------------------------------|
|-----------------3-------3-------2-------2-------1-------0--------|

...Isgoodto haveyouback again andIknowthat onedaybaby its allright


Eletric guitar

|-----------------------------------------------------------------------|
|-----------------------------------------------------------------------|
|---------------------------------------------------14fb~~~~14fb14fb~~~~|
|-----------------------------------------------------------------------|
|-----------------------------------------------------------------------|
|-----------------------------------------------------------------------|

Acoustic guitar( just acoustic)

|-------3-------1-------0-------1-------0--------------------------|
|-----------------------------------------------3-------1-------0--|
|-----2-------2-------0-------0-------2-------2-------2-------1----|
|---2-------2-------2-------2-------0-------0-------3-------2------|
|-0-------0--------------------------------------------------------|
|-----------------3-------3-------2-------2-------1-------0--------|

Eletric/ acoustic riff:

Eletric & acoustic guitars together: (2x)


Eletric guitar:

|-------------------------------------------------|
|-------------------------------------------------|
|-------------------------------------------------|
|7-7---5-7-7--5-5-0-4-5-5--4-4---3-4-4--333-0-2-2-|
|----7-5-7-7------0-----5------0-3----------0-2-2-|
|5-5-5-3-5-5--3-3---2-3-3--2-2---1-2-2--111-0-0-0-|

Acoustic guitar:

|--------0----3-3-3---3----2-2-2---2-2--111---0-0-|
|1-1-1-0-1-1--1-1-1---1-1--1-1-1---1-1--111-0-0-0-|
|2-2-2-0-2-2--2-2-2-0-2-2--2-2-2-0-2-2--222-0-1-1-|
|2-2-2-0-2-2--x-x-x-0-x-x--0-0-0-0-0-0--333-0-2-2-|
|0-0-0---0-0--0-0-0---0-0--x-x-x-0-x-x--333-0-2-2-|
|-------------3-3-3---3-3--2-2-2---2-2--111---0-0-|

Final verse: This part is made by 2 acoustic guitars to:

First acoustic guitar:

|-------0----------------------------------------------------------|
|---------------1-------3-------1-------3-------1-------1-------0--|
|-----2-------2-------0-------0-------2-------2-------2-------1----|
|---2-------2-------2-------2-------0-------0-------3-------2------|
|-0-------0--------------------------------------------------------|
|-----------------3-------3-------2-------2-------1-------0--------|

Second acoustic guitar:


|------------------8108--7-8-10-8-7-------------------------------------|
|------------------x---------------10-7-9-10-77~---x--------------------|
|------------------x-------------------------------5h7-5-454---4--------|
|-----------------(R)----------------------------------------7---7------|
|------------------------------------------------------------------7~---|
|-----------------------------------------------------------------------|

First acoustic guitar:

|-------3----------0------1-------0-------0---------------0-------0-|
|-------------------------------------------------3-----------------|
|-----2---------2-------0-------0-------2-------2-------2-------1---|
|---2---------2-------2-------2-------0-------0-------3-------2-----|
|-0---------0-------------------------------------------------------|
|-------------------3-------3-------2-------2-------1-------0-------|

Second acoustic guitar:

|----------------------------------------------------------------------|
|----------------------------------------------------------------------|
|-------------------------8hb8hb-7~7~-----8hb7~7~-7p5h7~p5-87~---------|
|----------------------------------------------------------------------|
|-------------------------------------------------------------7~7~-----|
|----------------------------------------------------------------------|

First acoustic guitar:

|-------3----------0------1-------0-------0---------------0---------|
|-------------------------------------------------3---------------0-|
|-----2---------2-------0-------0-------2-------2-------2-------1---|
|---2---------2-------2-------2-------0-------0-------3-------2-----|
|-0---------0-------------------------------------------------------|
|-------------------3-------3-------2-------2-------1-------0-------|

Second acoustic guitar:

|----------------------------------------------------------------------|
|----------------------------------------------------------------------|
|-----------------------------0---0---------------------0----0---------|
|-----------------------0--0h2-0h2-0h2~-------------00h2--0h2---1-0-2--|
|-------------------00h2---------------------------------------------00|
|------------------3---------------------------------------------------|

First acoustic guitar:

-------------------------------------------------------------------|
|-------1-------1-------1-------1-------1-------1-------3-------0--|
|-----2-------2-------0-------0-------2-------2-------2-------1----|
|---2-------2-------2-------2-------0-------0-------3-------2------|
|-0-------0--------------------------------------------------------|
|-----------------3-------3-------2-------2-------1-------0--------|

Second acoustic guitar:

|-----------------------10-10-10-10-10-10-10-108--810877~~-----------|
|-----------------------x--x--x--x--x--x--x--x------------810877~~---|
|-----------------------x--x--x--x--x--x--x--x-----------------------|
|----------------------(R)(R)(R)(R)(R)(R)(R)(R)----------------------|
|--------------------------------------------------------------------|
|--------------------------------------------------------------------|

First acoustic guitar:

|--------------------------------------------------------------------|
|-------1---------1-------3-------1-------1-------1-------1-------0--|
|-----2---------2-------0-------0-------2-------2-------2-------1----|
|---2---------2-------2-------2-------0-------0-------3-------2------|
|-0---------0--------------------------------------------------------|
|-------------------3-------3-------2-------2-------1-------0--------|

Second acoustic guitar:

|---------------------------------|
|--------------------101010~~-----|
|---------------------------------|
|---------------------------------|
|---------------------------------|
|---------------------------------|

Eletric & acoustic guitars together (last time, thank God) : (4x)
Eletric guitar:

|-------------------------------------------------|
|-------------------------------------------------|
|-------------------------------------------------|
|7-7---5-7-7--5-5-0-4-5-5--4-4---3-4-4--333-0-2-2-|
|----7-5-7-7------0-----5------0-3----------0-2-2-|
|5-5-5-3-5-5--3-3---2-3-3--2-2---1-2-2--111-0-0-0-|

Acoustic guitar:

|--------0----3-3-3---3----2-2-2---2-2--111---0-0-|
|1-1-1-0-1-1--1-1-1---1-1--1-1-1---1-1--111-0-0-0-|
|2-2-2-0-2-2--2-2-2-0-2-2--2-2-2-0-2-2--222-0-1-1-|
|2-2-2-0-2-2--x-x-x-0-x-x--0-0-0-0-0-0--333-0-2-2-|
|0-0-0---0-0--0-0-0---0-0--x-x-x-0-x-x--333-0-2-2-|
|-------------3-3-3---3-3--2-2-2---2-2--111---0-0-|

On the last time, the eletric guitar just end with a F5,
and its played with the first F on the final part:

Final: just acoustic

|--1----------------------------0-|
|--1----------------------------0-|
|--2----------------------------1-|
|--3----------------------------2-|
|--3----------------------------2-|
|--1----------------------------0-|
...Thats when you call'me...

|--1---------------------------------0--------------------|
|--1---------------------------------0--------------------|
|--2---------------------------------1--3h4~~~~p3h4p3h4p3-|
|--3---------------------------------2--------------------|
|--3---------------------------------2--------------------|
|--1---------------------------------0--------------------|

...I sai'd Thats when you call'me...

|--------5--------5---------5--------5--------------0------------0-------5~~-|
|------5--------4---------3------------------0------------0-------------5----|
|----2--------2---------2----------6-------5------5-----5------5-------5-----|
|-------------------------------7--------7------7-----7------7--------7------|
|--4--------3-------2------------------------------------------------7-------|
|-----------------------------6-------------------------------------5--------|

----------------- Acordes -----------------


F = 1 3 3 2 1 1
F5 = 1 3 3 X X X