Sie sind auf Seite 1von 4

Raul Seixas - Maluco Beleza

(intro)

Am G C
E|-0--------1-0-----------X---------X-------
B|---3-1--------3-0-1-3-1-X-1-----1-X-------
G|-------2------0-------0-X-0-----0-X-------
D|-------2------0-------2-X-2-----2-X-------
A|-------0------2-------3-X---3-3---X-------
E|--------------3---------X---------X-------

E|-5-3---X---------X------------------------
B|-----1-X-1-----1-X-1----------------------
G|-----0-X-0-----0-X-0----------------------
D|-----2-X-2-----2-X-2----------------------
A|---3---X---3-3---X---3--------------------
E|-------X---------X------------------------

(parte 1)

C G/B
Enquanto você se esforça pra ser
Am F
Um sujeito normal
G C G
E fazer tudo igual
C G/B
Eu do meu lado aprendendo a ser louco
Am F
Um maluco total
G C Am
Na loucura real

(parte 2)
Dm G
Controlando a minha maluquez
Dm G
Misturada com minha lucidez

(refrão)
C E7
Vou ficar
F G
Ficar com certeza maluco beleza
C E7
Eu vou ficar
F G G7
Ficar com certeza maluco beleza

(parte 1a)
C G/B
Esse caminho que eu mesmo escolhi
Am F
É tão fácil seguir
G C Am
Por não ter onde ir

(parte 2)
Dm G
Controlando a minha maluquez
Dm G
Misturada com minha lucidez

(solo base) C E7 F G C Am

(solo)
C E7
E|-12/15\8~---8----10/12-12-12--------------
B|----------8---9~--------------------------
G|------------------------------------------
D|------------------------------------------
A|------------------------------------------
E|------------------------------------------

F
E|---13\12----------------------------------
B|---------13\10----------------------------
G|------------------------------------------
D|------------------------------------------
A|------------------------------------------
E|------------------------------------------

G C Am
E|-------13/15~\13-13-13-13\12\10-----------
B|-10/12------------------------------------
G|------------------------------------------
D|------------------------------------------
A|------------------------------------------
E|------------------------------------------

Am Dm
E|------------5~----------------------------
B|-13~-13\3/5----5\2/3~---------------------
G|------------------------------------------
D|------------------------------------------
A|------------------------------------------
E|------------------------------------------

(parte 2)
Dm G
Controlando a minha maluquez
Dm G
Misturada com minha lucidez

(refrão)
C E7
Vou ficar
F G
Ficar com certeza maluco beleza
C E7
Eu vou ficar
F G
Ficar com certeza maluco beleza

( C E7 F G )
eu vou ficar...

(tabs e dicas)

(ritmo parte 1)

C G/B
E|-----X---------X---------X---------X------
B|---1-X-1-----1-X-1-----3-X-3-----3-X-3----
G|---0-X-0-----0-X-0-----0-X-0-----0-X-0----
D|---2-X-2-----2-X-2-----0-X-0-----0-X-0----
A|-3---X---3-3---X---3-2---X---2-2---X---2--
E|-----X---------X---------X---------X------

Am F
E|-----X---------X---------X---------X------
B|---1-X-1-----1-X-1-------X---------X------
G|---2-X-2-----2-X-2-----2-X-2-----2-X-2----
D|---2-X-2-----2-X-2-----3-X-3-----3-X-3----
A|-0---X---0-0---X---0---3-X-3-----3-X-3----
E|-----X---------X-----1---X---1-1---X---1--

G C
E|-----X---------X---------X---------X------
B|---0-X-0-----0-X-0-----1-X-1-----1-X-1----
G|---0-X-0-----0-X-0-----0-X-0-----0-X-0----
D|---0-X-0-----0-X-0-----2-X-2-----2-X-2----
A|-----X---------X-----3---X---3-3---X---3--
E|-3---X---3-3---X---3-----X---------X------

G
E|-----X---------X--------------------------
B|---0-X-0-----0-X-0------------------------
G|---0-X-0-----0-X-0------------------------
D|---0-X-0-----0-X-0------------------------
A|-----X---------X--------------------------
E|-3---X---3-3---X---3----------------------

C G/B
E|-----X---------X---------X---------X------
B|---1-X-1-----1-X-1-----3-X-3-----3-X-3----
G|---0-X-0-----0-X-0-----0-X-0-----0-X-0----
D|---2-X-2-----2-X-2-----0-X-0-----0-X-0----
A|-3---X---3-3---X---3-2---X---2-2---X---2--
E|-----X---------X---------X---------X------

Am F
E|-----X---------X---------X---------X------
B|---1-X-1-----1-X-1-------X---------X------
G|---2-X-2-----2-X-2-----2-X-2-----2-X-2----
D|---2-X-2-----2-X-2-----3-X-3-----3-X-3----
A|-0---X---0-0---X---0---3-X-3-----3-X-3----
E|-----X---------X-----1---X---1-1---X---1--

G C
E|-----X---------X---------X---------X------
B|---0-X-0-----0-X-0-----1-X-1-----1-X-1----
G|---0-X-0-----0-X-0-----0-X-0-----0-X-0----
D|---0-X-0-----0-X-0-----2-X-2-----2-X-2----
A|-----X---------X-----3---X---3-3---X---2--
E|-3---X---3-3---X---3-----X---------X------

Am
E|-----X---------X--------------------------
B|---1-X-1-----1-X-1------------------------
G|---2-X-2-----2-X-2------------------------
D|---2-X-2-----2-X-2------------------------
A|-0---X---0-0---X---0----------------------
E|-----X---------X--------------------------

----------------- Acordes -----------------


Am = X 0 2 2 1 0
C = X 3 2 0 1 0
Dm = X X 0 2 3 1
E7 = 0 2 2 1 3 0
F = 1 3 3 2 1 1
G = 3 2 0 0 0 3
G/B = X 2 0 0 3 3
G7 = 3 5 3 4 3 3