Sie sind auf Seite 1von 3

[Intro]

G|----------------------------------------------------------------|
D|-----------------5---4---3--/9----------------------------------|
A|----------------------------------------------------------------|
E|----------------------------------------------------------------|
1 + 2 + 3 + 4 + 1 + 2 + 3 + 4 + 1 + 2 + 3 + 4 + 1 + 2 + 3 + 4 +

G|----------------------------------------------------------------|
D|----------------------------------------------------------------|
A|-7-------------5-7-7-------------7-------------5-7-7------------|
E|----------------------------------------------------------------|
1 + 2 + 3 + 4 + 1 + 2 + 3 + 4 + 1 + 2 + 3 + 4 + 1 + 2 + 3 + 4 +

G|----------------------------------------------------------------|
D|-------------------------------------------------5---4---3---/9-|
A|----------------------------------------------------------------|
E|-5-------------3-5-5-------------5-------------3----------------|
1 + 2 + 3 + 4 + 1 + 2 + 3 + 4 + 1 + 2 + 3 + 4 + 1 + 2 + 3 + 4 +

[Chorus]
When the girls...
G|----------------------------------------------------------------|
D|----------------------------------------------------------------|
A|-7-------------5-7-7-------------7-------------5-7-7------------|
E|----------------------------------------------------------------|
1 + 2 + 3 + 4 + 1 + 2 + 3 + 4 + 1 + 2 + 3 + 4 + 1 + 2 + 3 + 4 +

G|----------------------------------------------------------------|
D|-------------------------------------------------5---4---3---/9-|
A|----------------------------------------------------------------|
E|-5-------------3-5-5-------------5-------------3----------------|
1 + 2 + 3 + 4 + 1 + 2 + 3 + 4 + 1 + 2 + 3 + 4 + 1 + 2 + 3 + 4 +

[Verse]
When you’re talking...
G|--------------------------------------------------------4-----4-|
D|----------------------------------------------------------7-5--|
A|-7-------------5-7-7-------------7--------------5-7-7-----------|
E|----------------------------------------------------------------|
1 + 2 + 3 + 4 + 1 + 2 + 3 + 4 + 1 + 2 + 3 + 4 + 1 + 2 + 3 + 4 +

G|----------------------------------------------------------------|
D|----------------------------------------------------------------|
A|----------------------------------------------------------------|
E|-5-------------3-5-5-------------5-------------3----------------|
1 + 2 + 3 + 4 + 1 + 2 + 3 + 4 + 1 + 2 + 3 + 4 + 1 + 2 + 3 + 4 +

[Pre-Chorus]
Cause every...
G|----------------------------------------------------------------|
D|----------------------------------------------------------------|
A|-7-------------5-7-7-------------7-------------5-7-7------------|
E|----------------------------------------------------------------|
1 + 2 + 3 + 4 + 1 + 2 + 3 + 4 + 1 + 2 + 3 + 4 + 1 + 2 + 3 + 4 +

G|----------------------------------------------------------------|
D|-------------------------------------------------5---4---3---/9-|
A|----------------------------------------------------------------|
E|-5-------------3-5-5-------------5-------------3----------------|
1 + 2 + 3 + 4 + 1 + 2 + 3 + 4 + 1 + 2 + 3 + 4 + 1 + 2 + 3 + 4 +

[Bridge]

No bass for 8 measures

No, no...
G|----------------------------------------------------------------|
D|-----------------5-------------------------------5--------------|
A|-3-----------------------5-------3-----------------------5------|
E|----------------------------------------------------------------|
1 + 2 + 3 + 4 + 1 + 2 + 3 + 4 + 1 + 2 + 3 + 4 + 1 + 2 + 3 + 4 +

G|----------------------------------------------------------------|
D|-----------------5-------------------------------5---4---3---/9-|
A|-3-----------------------5--------------------------------------|
E|---------------------------------5------------------------------|
1 + 2 + 3 + 4 + 1 + 2 + 3 + 4 + 1 + 2 + 3 + 4 + 1 + 2 + 3 + 4 +

[Chorus]
When the girls...
G|----------------------------------------------------------------|
D|----------------------------------------------------------------|
A|-7-------------5-7-7-------------7-------------5-7-7------------|
E|----------------------------------------------------------------|
1 + 2 + 3 + 4 + 1 + 2 + 3 + 4 + 1 + 2 + 3 + 4 + 1 + 2 + 3 + 4 +

G|----------------------------------------------------------------|
D|-------------------------------------------------5---4---3---/9-|
A|----------------------------------------------------------------|
E|-5-------------3-5-5-------------5-------------3----------------|
1 + 2 + 3 + 4 + 1 + 2 + 3 + 4 + 1 + 2 + 3 + 4 + 1 + 2 + 3 + 4 +

[Verse]
When you’re talking...
G|---------------------------------------------------------4-----4-|
D|-----------------------------------------------------------7-5---|
A|-7-------------5-7-7-------------7--------------5-7-7------------|
E|-----------------------------------------------------------------|
1 + 2 + 3 + 4 + 1 + 2 + 3 + 4 + 1 + 2 + 3 + 4 + 1 + 2 + 3 + 4 +

G|-----------------------------------------------------------------|
D|-----------------------------------------------------------------|
A|-----------------------------------------------------------------|
E|-5-------------3-5-5-------------5-------------3-----------------|
1 + 2 + 3 + 4 + 1 + 2 + 3 + 4 + 1 + 2 + 3 + 4 + 1 + 2 + 3 + 4 +

[Pre-Chorus]
Cause every night...
G|-----------------------------------------------------------------|
D|-----------------------------------------------------------------|
A|-7-------------5-7-7-------------7-------------5-7-7-------------|
E|-----------------------------------------------------------------|
1 + 2 + 3 + 4 + 1 + 2 + 3 + 4 + 1 + 2 + 3 + 4 + 1 + 2 + 3 + 4 +

G|-----------------------------------------------------------------|
D|-------------------------------------------------5---4---3---/9--|
A|-----------------------------------------------------------------|
E|-5-------------3-5-5-------------5-------------3-----------------|
1 + 2 + 3 + 4 + 1 + 2 + 3 + 4 + 1 + 2 + 3 + 4 + 1 + 2 + 3 + 4 +

[Bridge]

No bass for 8 measures

No,no...
G|-----------------------------------------------------------------|
D|-----------------5-------------------------------5---------------|
A|-3-----------------------5-------3-----------------------5-------|
E|-----------------------------------------------------------------|
1 + 2 + 3 + 4 + 1 + 2 + 3 + 4 + 1 + 2 + 3 + 4 + 1 + 2 + 3 + 4 +

G|-----------------------------------------------------------------|
D|-----------------5-------------------------------5---4---3---/9--|
A|-3-----------------------5---------------------------------------|
E|---------------------------------5-------------------------------|
1 + 2 + 3 + 4 + 1 + 2 + 3 + 4 + 1 + 2 + 3 + 4 + 1 + 2 + 3 + 4 +

[Chorus]
When the girls...
G|-----------------------------------------------------------------|
D|-----------------------------------------------------------------|
A|-7-------------5-7-7-------------7-------------5-7-7-------------|
E|-----------------------------------------------------------------|
1 + 2 + 3 + 4 + 1 + 2 + 3 + 4 + 1 + 2 + 3 + 4 + 1 + 2 + 3 + 4 +

G|-----------------------------------------------------------------|
D|-------------------------------------------------5---4---3---/9--|
A|-----------------------------------------------------------------|
E|-5-------------3-5-5-------------5-------------3-----------------|
1 + 2 + 3 + 4 + 1 + 2 + 3 + 4 + 1 + 2 + 3 + 4 + 1 + 2 + 3 + 4 +

[Outro]
Talk, talk...
G|-----------------------------------------------------------------|
D|-----------------------------------------------------------------|
A|-7-------------5-7-7-------------7-------------5-7-7-------------|
E|-----------------------------------------------------------------|
1 + 2 + 3 + 4 + 1 + 2 + 3 + 4 + 1 + 2 + 3 + 4 + 1 + 2 + 3 + 4 +

G|-----------------------------------------------------------------|
D|-------------------------------------------------5---4---3---/9--|
A|-----------------------------------------------------------------|
E|-5-------------3-5-5-------------5-------------3-----------------|
1 + 2 + 3 + 4 + 1 + 2 + 3 + 4 + 1 + 2 + 3 + 4 + 1 + 2 + 3 + 4 +

G|-----------------------------------------------------------------|
D|-----------------------------------------------------------------|
A|-7---------------------------------------------------------------|
E|-----------------------------------------------------------------|
1 + 2 + 3 + 4 + 1 + 2 + 3 + 4 + 1 + 2 + 3 + 4 + 1 + 2 + 3 + 4 +

************************************
| / Slide up
************************************