Sie sind auf Seite 1von 49

Libro de Acordes

Génesis ©
Acordes Básicos

“El principio de una larga aventura”


Dios es tu fuerza, Sabiduría y amor
1

Partes de la Guitarra
2
Simbolos
C Do Mayor
D Re Mayor
E Mi Mayor
F Fa Mayor
G Sol Mayor
A La Mayor
B Si Mayor

m Menor
+ Aumentativo
o
Disminuido
add2 Segundo
add4 Cuarto
sus4 Cuato suspendido
add5 Quinto
add6 Sexto
7 Setima
^7 Septima Maj
add9 Noveno
^9 Noveno Maj
/ Para Usar el termino agregado Ej: “C/B = Do mayor con Si Agregada”
X La “X”al lado del mastil significa que la cuerda no se toca
O El circulo al aldo del mastil significa que la cuerda se toca

Tono
Escala

Do – Do# / Re – Re# / Mi / Fa – Fa# / Sol – Sol# / La – La# / B

De Do a Re, hay un tono


De Re a Mi, hay un tono
De Mi a Fa, hay un tono
Medio Tono
De Fa a Sol, hay uh tono
De Sol a La, hay un tono
De La a Si, hay un tono
3
Notas sostenidos y Bemoles (#, b)
De las siete notas de la escala, como se ve en la ilustracion, salen cinco notas màs, èstas cinco
notas son llamadas “Medios tonos”, estas son: “Do#, Re#, Fa#, Sol#, La#”

De Do a Do#, hay medio tono


De Re a Re#, hay medio tono
de Fa a Fa#, hay medio tono
de Sol a Sol#, hay medio tono
de La a La#, hay medio tono

En el caso de las Notas “Mi y Si”, no tiene sostendo

Notas bemoles

Do# es llamado Re bemol


Re# es llamado Mi bemol
Fa# es llamado Sol bemol
Sol# es llamado La bemol
La# es llamado Si bemol

No existe, en la escala , Do bemol, ni Fa bemol, ya que las Notas “Si” y “Mi”, no tienen
sostenido. Pero en la Escala de Sol bemol, se utiliza “Si bemol menor” y “Si mayor”; En esta
escala se cambia el nombre de la nota “Si mayor” a “Do bemol”, porque no pueden haber dos
Notas “Si” en la misma escala. Es parecido como la escala de “Fa mayor” que tiene una
“La menor” y un “La #” no pueden haber dos notas iguales con el mismo nombre, por eso, a la
nota “La#” es llamada “Si bemol”. Si una cancion empieza con “Mi bemol” y la cancion pide la
nota “Mi mayor”, a èsta nota “Mi mayor” se le llamarà “Fa bemol”.

Acordes Setima “7”


Se Utilizan estos acordes Setima “7” como un puente, para cambiar a una nota màs alta
dentro de la escala; si la cancion la pide este acorde: en este caso se les llaman “Dominante”:

Do mayor Setima “7” es llamado “Dominante de Fa Mayor”, en la escala de Do mayor


Re mayor Setima “7” es llamdo “Dominante de Sol Mayor”, en la escala de Re mayor
Mi mayor Setima “7” es llamado “Dominante de La mayor”, en la escala de Mi mayor
Fa mayor Setima “7” es llamado “Dominante de Si bemol”, en la escala de Fa mayor
Sol mayor Setima “7” es llamado “Dominante de Do mayor”, en la escala de Sol mayor
La mayor Setima “7” es llamado “Dominante de Re mayor”, en la escala de La mayor
Si mayor Setima “7” Es llamado “Dominante de Mi mayor”, en la escala de Si mayor
4
Nombre de las notas de cada trasto
Nombre de cada cuerda

Las seis cuerdas de la guitarra tienen su nombre, estos son:

E Mi
A La
D Re
G Sol
B Si
E Mi

Se puede afinar la Guitarra medio tono mas bajo, la nota de las cuerdas cambiarian:

Eb
Ab
Db
Gb
Bb
Eb

No se puede subir a las cuerda un medio tono mas alto, porque corre el riesgo de estirar la
parte de enfrente de la guitarra, o que las cuerdas se podrian rebentar. Por eso, se puede usar
el capodrastro para utiliar notas mas alta; sin rebentar las cuerdas, sin cansar la manos, y sin
estirar la guitarra. Tambien se pueden afinar la guitarra de una forma personalizada.

Dios es tu Razòn de vivir, a èl le debes todo


5
Acordes C

Acordes “Cm”

9
6

Acordes “C con agregada”

Acordes “Co y C+”


7
Acordes “C en diferente posiciòn”

En esta posiciònes tambien se hacen: add2, sus4, add4, add5, add6, 7, ^7, add9, ^9, etc.

Acordes “D”

Dios te ama
8

Acordes “Rm”

Acordes “D con agregada”

“Todo lo que se hace para Dios, fructificará”


9

Acordes “Do y D+”

“toda buena obra que se hace ahora, tiene sus buenos frutos en el futuro”
10

Acorde “D en otras posiciones”

Acordes “E”

Jesús es tu Amigo Feil / El Espíritu Santo es tu Gran Consolador


11
Acordes “Em”

Acordes “E con agregada”

“Solo el Amor de Dios Sana y da consuelo al corazón”


12

Acordes “Eo y E+”

Acordes “E en diferente posicion”

“Todo lo puedo en Cristo que me fortalece” Felipenses: 4; 13


13
Acordes “F”

Acorde “Fm”

“El Espíritu Santo es tu Guia, tu amor, tu Verdad, tu Libertdad. Clamale, y el te responderà”


14
Acordes “F con agregada”

Acordes “Fo y F+”

“Santo, Santo, Santo, es el Señor Dios Todopoderoso”


15
Acordes “F en otras posiciones”

Acordes “G”

Acordes “Gm”

“El que pierda la vida por mí, la tendrá”, dice Jesús


16

Acordes “G con agregada”

Acordes “Go y G+”

“Que el sabio escuche, y ganarà en saber,..” Probervios: 1; 5


17

Acordes “G en otra posiciòn

Acordes “A”

“confia en el Señor con todo el corazón, y no te fies de tu propia sabiduría.”: Proverbios: 3: 3


18

Acordes “Am”

Acordes “A con agregada”

“Escucha, hijo mío, los consejos de tu padre, no rechaces las advertencia de tu madre:
Será una hermosa corana para tu cabeza, un collar para tu cuello.” Proverbios: 1: 8-9
19

Acordes “Ao y A+”

Acordes “A en otras posiciones”

“El comienzo del Saber es el temor a Yahvé,…” Proverbios: 1: 7


20

Acordes “B”

Acordes “Bm”

“El justo recibe lo que merece en esta tierra, y más todabia el malvado y el pecador.”
Pro: 11: 31
21
Acordes “B con agregada”

Acordes “Bo y B+”

“Feliz El hombre que confia en el Señor, y que pone en él su confianza!


Es como un árbol plantado a la orilla del rio, dará su fruto a tiempo y su
hoja no cae,….” Jeremias: 17; 7-8
22
Acordes “B en otra posicione”

Circular De “C"

Circular de “D”

“El Señor es mi Pastor nada me Falta” Salmo 23: 1


23
Circular de “E”

Cm#

Circular de “F”

Circular de “G”

“El Señor es mi Luz y mi Salvación, ¿a quién he de temer?...” Salmo: 27; 1


24

Circular de “A”

Circular de “B”

“¡Alabe al Señor Todo Ser que respire! ¡Aleluya!” Salmo: 150; 6


25

Escalas

Escala de “C”

Escala de “D”

“Te doy gracias por tantas maravillas , admirables son tus obras y mi alma bien lo sabe.”
Salmo: 139: 14
26

Escala “E”

Gm#

Cm#

“Con la boca de los niños pequeños afimas tus Gloria, ¡oh Señor!...” Salmo: 8; 3
27
Escala de “F”

Escala de “G”

“No deja que tu pie de un paso en falso, no duerme tu Guardian;…” Salmo: 121; 3
28
Escala de “A”

Escala de “B”

“Jesús es tu Señor, Alabale que vive. ¡Viva Cristo Jesús por siempre!”
29
Los acordes

¿Qué es un acorde?
El acorde es el elemento básico de la armonía, formado por la suspensión de tres o má sonidos
simultanios, es decir, un acorde esta formado de intervalos armonicos.

Construccion de un acorde, denominacion de sus notas:

Los acordes se construyen superponiendo intervalos de 3a sobre una base que llamamos
Fuandamental

El resto de las notas del acorde se denominan según el intervalo que formen con la nota
fundamental,es decir 3a, la 5a la 7a …. Del acorde.
Otras veces el cuarto sonido que no es repeticion del sonido fundamental, si no que se agrega
otra 3a superior con la que tenemos 4 sonidos de diferente denominacion y sonido. A estos
acordes se les llama Cautriadas, Poliacordes.

La Clave Sol

Las claves musicales son unos simbolos que está, al principio de cada linea del pentagrama.
Nos sirve para tener una referencia (de ahí el nombre del Clave)
La fusión de éstas es la de servir como referencia para relacionar la ubicación de las notas del
pentagrama con los sonidos musicales.

Es decir, dicho de una manera más sencillas: nos dan la clave entre una ubicación en el
pentagrama y un sonido musical.
Por ejemplo: la clave de Sol en 2da. Linea del pentagrama es el sonido Sol.

Las lineas y los espacios del pentagrama de una partitura musical se nombran de abajo a arriba
La Clave de Sol es la mas usada, es la que vemos en un tema escrito para guitarra.

“Mi socorro me viene del Señor que hizo el cielo y la tierra.” Salmo: 121; 2
30
Circulares Bemoles “b”

Circular de “Db”

Circular de “Eb”

Circular “Gb”

“Bendiciré al Señor en todo Tiempo, no cesará mi boca de alabarlo.” Salmo: 34: 1


31

Circular de “Ab”

Circular de “Bb”

“Pide al Señor, a tu Padre Celestial, que derrame Sobre ti El Espíritu Santo, para que
vivas la Vida en el Esíritu, vida a la que toda persona está llamada”
32

Acordes Disminuidos
Éstos acordes reciben cuatro nombres; son las notas que forman el acorde, para diferentes
escalas, o dependiendo la cancion.

Ejemplo:
La escala de “D” tiene un “C#O” para cambiar a un “Bm”; pero si la Cancion lleva la escala de
“D” y pide un acorde “D#O” para cambiar a “Em”, se puede usar el acorde “D#O” en la escala de
“D”.

Nota “G#o”

Nota “Do”

Nota “Bo”

Nota “Fo”
33
Acordes Disminuidos y sus nombres
“BO” para la escala de C
“G#O” para la escala de A
“DO” para la escala de Eb
“FO” para la escala de Gb

“DO#” para la escala de E


“AO” para la escala de Bb
“CO” para la escala de Db
“FO# para la escala de G

“EO” para la escala de F


“AO# para la escala de B
“CO#” parala escala de D
“GO” para la escala de Ab

Escala Menores

1. Cuando un Cancion empienza con la nota “Am”, la escala es de “C”, solo que se agrega
la nota “E”, o, “E7”.
2. Cuando una Cancion empieza con la nota “Bm” la escala es de “D”, solo que se agrega
la nota “F#”, “F7#”.
3. Cuando una cancion empieza con la nota “Cm#”, la escala es de “E”, solo que se agrega
la nota “G#”, “G7#”.
4. Cuando una Cancion empieza con la nota “Dm”, la escala es de “F”, solo que se agrega
la nota “A”, o , “A7”.
5. Cuando una cancion empieza con la nota “Em”, la escala es de “G”, solo que se agrega
la nota “B”, o, “B7”.
6. Cuando una cancion empieza con la nota “Fm#”, la escala es de “A”, solo que se agrega
la nota “C#”, o, “C7#”.
7. Cuando una cancion empieza con la nota “Gm#”, la escala es de “B”, solo que que se
agrega la nota “D#”, o, “D7#”.

“El que no vive para Servir, no sirve para vivir”


34
Escalas bemoles menores
1. Cuando una cancion empieza con la nota “Bbm”, la escala es de “Db”, solo que se
agrega la nota “F”, o, “F7”.
2. Cuando una cancion empieza con la nota “Cm”, la escala es de “Eb”, solo que se agrega
la nota “G”, o, “G7”.
3. Cuando una cancion empieza con la nota “Ebm”, la escala es de “Gb”, solo que se
agrega la nota, “Bb”, o, “Bb7”.
4. Cuando una cancion empieza con la nota “Fm” la escala es de “Ab”, solo que se agrega
la nota “C, o, “C7”.
5. Cuando una cancion enpieza con la nota “Gm”, la escala es de “Bb”, solo que se agrega
la nota “D”, o, “D7”.

Escalas Bemoles

Escala de Db

“El que vive para servir, sirve para vivir”


35
Escala de Eb

Escala de Gb

“La misericordia de Dios es Grande, confia en Él, como el bebé en brazos de su madre”
36
Escala de Ab

Escala de Bb

“Honra a tu Padre y a tu Madre, para que prolongue tu vida sobre la tierra que Yavé, tu Dios,
te da.” Exodo: 20; 12
37
Ritmos

“¡Canten al Señor un canto nuevo, cante al Señor toda la tierra!” Salmo: 96; 1
38

La Guitarra
La guitarra es un instrumento musical de cuerda pulsada, compuesto de una caja de
madera, un mástil sobre el que va adosado el diapasón o trastero, generalmente con un
agujero acústico en el centro de la tapa y seis cuerdas. Sobre el diapasón van
incrustados los trastes, que permiten los diferentes tonos.
Es el instrumento más utilizado en géneros como blues, rock y flamenco. También es
utilizada en géneros tales como rancheras y gruperas, además del folclore de varios
países.

Cuando el instrumento es más pequeño que una guitarra se denomina requinto y


cuando es más grande guitarrón.
La guitarra se toca apoyando la caja armónica sobre el regazo, con el mástil o diapasón
hacia la izquierda. Esto hace que las cuerdas más graves queden arriba y las más agudas
abajo.

Para tocar la guitarra se apoyan los dedos de la mano izquierda (para la gente que
toque la guitarra como diestro) sobre algunas cuerdas, oprimiéndolas contra el mástil o
diapasón justamente entre los trastes1 de manera que a las cuerdas les quede la
longitud libre correspondiente a la altura o sonido deseada.
Una vez que se ha fijado de esta manera la longitud de todas las cuerdas o de las
cuerdas que se desea pulsar, la mano derecha las rasguea, puntea o arpegia, generando
una melodía si toca un sonido por vez, un acorde si se ejecutan dos sonidos o más, o
una armonía si se arpegia ese acorde.
Estructura de la Guitarra

“¡Que Grande eres, Señor, y que admirables son tus Obras!”


39
La tablatura

La tablatura es un método de representar la música por medio de diagramas que


muestran al intérprete dónde poner los dedos en el diapasón del instrumento, en lugar
de señalar el sonido y el ritmo que se producen como ocurre en la partitura.
Está integrada por 6 líneas que representa las seis cuerdas de la Guitarra. La línea de
arriba representa la sexta cuerda, o la más gruesa de la Guitarra, mientras que la línea
de abajo representa la primera, o la más delgada de la Guitarra. Una línea vertical indica
el principio o final de un compás y la doble línea vertical indica el final de la tablatura.
Como se puede ver en el ejemplo:

1ra. cuerda e |----------------------------------|| 2da. cuerda B |------------------------------||


3ra. cuerda G |----------------------------------|| 4ta. cuerda D |------------------------------||
5ta. cuerda A |----------------------------------|| 6ta. cuerda E |------------------------------||

Las letras e, B, G, D, A y E indican el nombre de la nota que produce la cuerda tocada al


aire, de la más delgada a la más gruesa. La 'e' minúscula es la nota de Mi pero más
aguda (dos octavas más). A veces se ven éstas letras en las tablaturas y otras veces no.
La razón de que no las lleva es que esta es la afinación estándar y se da por entendido
que es de esta forma.
Las Pisadas Los números que encontremos sobre cada línea indican el espacio en
donde se debe pisar la cuerda con los dedos de la mano izquierda, y tocarla con la mano
derecha.

La Tablatura – Simbología 5
ejemplo, si el número 3 ésta sobre la 2da. línea, significa que debemos tocar (hacer
sonar) la 2da. Cuerda pisada en el 3er. espacio (o traste). El "0" (cero) indica que se
debe tocar la cuerda al aire (sin pisarla).
A continuación un diagrama que muestra las notas correspondientes a cada cuerda al
ser presionada en determinado traste:

-------------------------------------------------------------------------------------------------------------|E
--------------------------------------------------------------------------------------------------------------|A
--------------------------------------------------------------------------------------------------------------|D
-------------------------------------------------------------------------------------------------5--4--2—0|G
--------------------------------------------------------------------------------------------------6--5--3--1|A
--------------------------------------------------------------------------------------------------------------|e

Este ejemplo nos enseña que, se toca la segunda cuerda, y se pone el dedo en el
primer, segundo, tercero, quinto, sexto trasto. Y en el “cero” significa que la cuerda se
toca la tercera cuerda al aire, despues se toca, segundo, cuarto, y quinto trasto.

“Jesús, Dios mio y Señor mio, gracias te doy, por hacerme hijo de tu Divino Padre”
40
La Tablatura – Simbología
La guitarra es un instrumento sumamente versátil y su ejecución permite lograr una
serie de efectos en los sonidos que produce los más comunes son:
SLIDE (arrastre) Se emplea un dedo para pasar de una nota a otra deslizándolo sobre la
cuerda. Se representa: ||---------3-s-1----------- |e o ||---------1/3----------- |e

PULL OFF (tirón) Se pulsa una nota y se hace sonar una o más notas en sentido
descendente jalando un poco la cuerda hacia abajo.
Se representa: e ||---------1-p-3-----------
VIBRATO Mueve el dedo de lado a lado en el mismo traste al sonar la cuerda, también
puedes mover el dedo arriba y abajo sin dejar de presionar la cuerda claro. Se
representa: B ||---------v-6------------
HAMMER (martillo) Se emplea un dedo para pasar de una nota a otra en la misma
cuerda Se representa: e ||---------3-h-1----------

Tablaturas de ejercicios
Escala Mayor de C

----------------------------------------------------8--10----------------------------------------------------|
------------------------------------------------------------7--8—10----------------------------------------|
------------------------------------------------------------------------7--9--10-----------------------------|
------------------------------------------------------------------------------------7---9--10----------------|
------------------------------------------------------------------------------------------------8--10--------|
--------------------------------------------------------------------------------------------------------7--8-|

Escala mayor de D

----------------------------------10--12----------------------------------------------------------------------
----------------------------------------------9--10--12------------------------------------------------------
-------------------------------------------------------------9---11--12--------------------------------------
------------------------------------------------------------------------------9--11--12----------------------
--------------------------------------------------------------------------------------------10--12-----------
-------------------------------------------------------------------------------------------------------9--10---

“Confía en Dios, que para él nada es imposible”


41

Escala mayor de E

---------------------------------------------------------0--2--4-----------------------------------------------
--------------------------------------------------------------------0--2--4-----------------------------------
-------------------------------------------------------------------------------1--2--4------------------------
-----------------------------------------------------------------------------------------1--2--4--------------
----------------------------------------------------------------------------------------------------2—4--5--
----------------------------------------------------------------------------------------------------------------

Escala mayor de F

------------------------------------------------------------1--3----------------------------------------------
-------------------------------------------------------------------0--1--3-------------------------------------
------------------------------------------------------------------------------0--2--3---------------------------
---------------------------------------------------------------------------------------0--2--3-----------------
-------------------------------------------------------------------------------------------------1--3----------
--------------------------------------------------------------------------------------------------------0--1---

Escala mayor de G

-------------------------------------------------------3--5----------------------------------------------------
---------------------------------------------------------------2--3-------------------------------------------
-----------------------------------------------------------------------0--2--4--------------------------------
-----------------------------------------------------------------------------------0--2--4-----------------------
----------------------------------------------------------------------------------------------1--3--5----------
---------------------------------------------------------------------------------------------------------2--3--

Escala mayor de A

-------------------------------------------------------5--7----------------------------------------------------
---------------------------------------------------------------4--6---------------------------------------------
-----------------------------------------------------------------------2--4-------------------------------------
------------------------------------------------------------------------------1--2--4-------------------------
------------------------------------------------------------------------------------------2--4--5--------------
-----------------------------------------------------------------------------------------------------2--4--5-----

“Dios es Amor” I Juan: 4; 8


42
Escala mayor de B

---------------------------------------------------------7--9-------------------------------------------------
----------------------------------------------------------------6--7--9--------------------------------------
---------------------------------------------------------------------------6--8--9---------------------------
--------------------------------------------------------------------------------------5--7--8------------------
--------------------------------------------------------------------------------------------------7--9-----------
---------------------------------------------------------------------------------------------------------6--7----

¡Aleluya! ¡Alaba al Señor, alma mía! Mientras viva yo quiero alabar al Señor,
Quiero Salmodiar para el Señormientras exista. Salmo: 146; 1-2
43
Tablatura / Solo Dios / Jesé
Introducción

-------------------------------3--------------------------1---------0-----------------------7-------------8--
-------------------------------------------3----------------------------------------0---------------------------
-------------------------------------------------------------------------------------------------------------------
--------------------0---0---0------0--------------3------------------------------------------------------------
-------------------------------3------1--------------2--------------------5--5---8--8------------8--8-----
------------------3—1--0---------------0--1----------0--0--5--5--5----------------8--8--8------------

----------------3-------------3--------------------------1---------0-----------------------7-------------8--
-------3----------------------------------3----------------------------------------0---------------------------
-------------------------------------------------------------------------------------------------------------------
------------------0--0--0--0------0---------------3---------------------------------------------------------
------------0-----------------3-------1----------2--2--------------------5--5---8--8------------8--8-----
-------1-------5--3---1--0--------------0--1----------0--0--5--5--5---------------8--8--8------------

Salmo 23

El Señor es mi Pastor, nada me falta;


En verdes pastos me hace reposar.
Y donde brota agua fresca,
Me conduce por amor de su Nombre.

Aunque pase por quebradas oscuras,


No temeré a ningun mal, porque tu estás conmigo
Tu bastón y tu vara me protegen.
Me sirves una mesa frente a mis adversarios,

Con aceite perfumas mi cabeza


Y rellenas mi copa.

Me acompaña tu Bondad y tu Favor


Mientras ture mi vida,
Mi mansion serña la casa del Señor
Por largo, largo tiempo.