You are on page 1of 4

I LIKE YOU SO MUCH, YOU'LL KNOW IT - A LOVE SO BEAUTIFUL OST

Tabbed and Arranged by: Abz Collado


Tuning: Standard
Capo: 3RD Fret

Legend:
X - tap/mute
h - hammer on
p - pull off
/ - slide up
\ - slide down

YouTube Link: https://www.youtube.com/watch?v=rWf30vzUeqw

Social Media Accounts:


YouTube: https://www.youtube.com/channel/UCRmt7gTri3SqdVMk4hR04zw
Facebook Page: https://www.facebook.com/abzcollado30
Instagram: @abzcollado
Twitter: @abzcollado

NOTE: If you're gonna use my tab for your videos or any other kind
of platforms, please don't forget to credit me. Thank you!

********PLEASE SUBSCRIBE SO I'D BE MOTIVATED TO DO MORE TABS IN THE FUTURE. :)

INTRO
C G
e|-----------------------------------|
B|--0h1----1-0-1-------3-1----0------|
G|-------------------------------0---|
D|-----------------------------------|
A|--3---X--3------X--------X-------X-|
E|------X---------X----3---X--3----X-|

Em Am
e|--------------------------------|
B|--------------3-2-3-3/5-5-------|
G|--1-2-2/4-----------------------|
D|--------------------------------|
A|----------X---0---X-0-----X-0---|
E|--0-0-0---X-------X-------X-----|

Dm G C strum down
e|--------------------------------------------------0-^-|
B|--5/6---3p1-1---0-5/6----3\1-1---0-0h1----1-1-----1-|-|
G|--------------------------------------------------0-|-|
D|--0-----------------------------------------------2-|-|
A|------X-------X-------X--------X---3---X--3---X-3-3-|-|
E|------X-------X---3---X--3-----X-------X------X-------|

FIRST VERSE:

I
C Am
e|--------0-0------------------------------|
B|--1-3-1-------3-1-------0-1-1h3-1-1------|
G|-----------------------------------------|
D|-----------------------------------------|
A|--------3---X-3---X-0---0---X--------X-0-|
E|------------X-----X---------X--------X---|

II

Dm G
e|---0h1------0h1-0-------------------------|
B|----------------------3-3-3/5\3---3-------|
G|------------------------------------------|
D|-0-----X--0-0----X-0----------------------|
A|-------X---------X--------X----------X----|
E|----------------------3---X---3------X-0--|

III

Em Am Dm
e|----2/3----3-3---------------------------0-1---1-0---------|
B|----2/3----3-3-------3-2-2-3-3/5---------------------------|
G|-----------------------------------------------------------|
D|-----------------------------------------0---X-0---X-0-----|
A|--------X------X-----0---X-0-----X-0---------X-----X-------|
E|--0-----X--0---X-0-------X-------X-------------------------|

IV

G
e|--------------------|
B|--0-----------------|
G|----2----2----------|
D|--------------------|
A|------X-------------|
E|--3---X--3----------|

*REPEAT I to III. After III, play this:

e|--3-3/5----------------|
B|-----------3-----------|
G|-----------------------|
D|-----------------------|
A|--------X-------X-X----|
E|--3-----X--3----X-X----|
CHORUS:

VI

C G
e|--0-1-0-1-0-1--0-----3-3---3/5-3---|
B|-----------------------------------|
G|-----------------------------------|
D|-----------------------------------|
A|--3---X-3-3-3--X---------X-------X-|
E|------X--------X-----3---X-------X-|

VII
Am Em
e|----------------------------------------|
B|----1-3-1--3-1-3-3---3/5----5/6\5-5-----|
G|----------------------------------------|
D|----------------------------------------|
A|----0---X--0-0-0-X--------X---------X---|
E|--------X--------X---0----X-0-------X-0-|

IX
F C Dm
e|-----------------------------------0h1----------|
B|-----------------------------------------0-1----|
G|--2-0-2-0-2-1-----0-3--1h3-0-3/5-------X-----X--|
D|--3---X-------X--------------------0---X-0---X--|
A|--3---X-3-3---X---3----X------------------------|
E|-----------------------X------------------------|

X
G
e|--------------------|
B|--3-3-3-3/5-3-------|
G|--------------------|
D|--------------------|
A|------X---------X---|
E|--3---X-----3---X---|

REPEAT VI to X. After X, play this:

XI
G strum down
e|-----------------0-^--|
B|--3-------1-0----1-|--|
G|-----------------0-|--|
D|-----------------2-|--|
A|------X-------X--3-|--|
E|--3---X---3---X-------|
*END*