Sie sind auf Seite 1von 3

Fernandinho - Eu Vou Subir a Montanha

Intro : Bb5 C#5 Bb5 E5 Bb5 C#5 Bb5 E5 Bb5

↓ ↓ ↓ ↑ ↓ ↓ ↓ ↓ ↑ ↓ ↓ ↓ ↓ ↑ ↓ ↓ ↓ ↓ ↑ ↓
B|-----------------------------------------------|
E|-----------------------------------------------|
G|---3-3-3-x-6-6-6-6-x-x-3-3-3-x-9-9-9-9-x-x-----|
D|---3-3-3-x-6-6-6-6-x-x-3-3-3-x-9-9-9-9-x-x-----| (2X)
A|---1-1-1-x-4-4-4-4-x-x-1-1-1-x-7-7-7-9-x-x-----|
E|-----------------------------------------------|

B|-----------------------------------------------|
E|-----------------------------------------------|
G|---3-------------------------------------------|
D|---3-------------------------------------------| (1X)
A|---1-------------------------------------------|
E|-----------------------------------------------|

G#5 F#5 Bb5


Eu já vi a sarça ardente
G#5 F#5 Bb5
Eu já vi o mar se abrir
G#5 F#5
Eu já vi os cavaleiros
G#5 Bb5
De Faraó se afogarem

G#5 Bb5
Eu já vejo os relâmpagos
G#5 Bb5
A trombeta a me chamar
G#5 F#5
É a voz do Meu amado
G#5 F#5 G#5 F#5
Me chamando pra subir subir subir
G#5
Eu vou...

Bb5 C#5 G#5


Vou me perder em meio à nuvem de glória
Bb5 C#5 Eb5
Me encontrar diante de tua face...ê
Bb5 C#5 G#5
Me perder em meio à nuvem de glória
Bb5 C#5 Bb5 Eb5
Me encontrar diante de tua face...ê

Refrão:

Bb5 C#5 Eb9 Bb5 C#5 Eb9


Eu........vou...ooo...oou vou subir a montanha...aaaaaaaaaaaaaaaa...

Bb5 C#5 Eb9 Bb5 C#5 Eb9


Eu........vou...ooo...oou vou subir a montanha...aaaaaaaaaaaaaaaa...

Intro : Bb5 C#5 Bb5 E5 Bb5 C#5 Bb5 E5 Bb5


↓ ↓ ↓ ↑ ↓ ↓ ↓ ↓ ↑ ↓ ↓ ↓ ↓ ↑ ↓ ↓ ↓ ↓ ↑ ↓
B|-----------------------------------------------|
E|-----------------------------------------------|
G|---8-8-8-x-6-6-6-6-x-x-8-8-8-x-9-9-9-9-x-x-----|
D|---8-8-8-x-6-6-6-6-x-x-8-8-8-x-9-9-9-9-x-x-----| (2X)
A|---6-6-6-x-4-4-4-4-x-x-6-6-6-x-7-7-7-9-x-x-----|
E|-----------------------------------------------|

B|-----------------------------------------------|
E|-----------------------------------------------|
G|---8-------------------------------------------|
D|---8-------------------------------------------| (1X)
A|---6-------------------------------------------|
E|-----------------------------------------------|

G#5 F#5 Bb5


Eu já vi a sarça ardente
G#5 F#5 Bb5
Eu já vi o mar se abrir
G#5 F#5
Eu já vi os cavaleiros
G#5 Bb5
De Faraó se afogarem

G#5 F#5 Bb5


Eu já vejo os relâmpagos
G#5 F#5 Bb5
A trombeta a me chamar
G#5 F#5
É a voz do Meu amado
G#5 F#5 G#5 F#5
Me chamando pra subir subir subir
G#5
Eu vou...

Bb5 C#5 G#5


Vou me perder em meio à nuvem de glória
Bb5 C#5 Eb5
Me encontrar diante de tua face...ê
Bb5 C#5 G#5
Me perder em meio à nuvem de glória
Bb5 C#5 Bb5 Eb5
Me encontrar diante de tua face...ê

Refrão:

Bb5 C#5 Eb9 Bb5 C#5 Eb9


Eu........vou...ooo...oou vou subir a montanha...aaaaaaaaaaaaaaaa...
Bb5 C#5 Eb9 Bb5 C#5 Eb9
Eu........vou...ooo...oou vou subir a montanha...aaaaaaaaaaaaaaaa... Bb5

Enquanto Fernandinho fica falando a guitarra segura no Bb5

dai vem o solo :

Refrão 2x:
Bb5 C#5 Eb9 Bb5 C#5 Eb9
Eu........vou...ooo...oou vou subir a montanha...aaaaaaaaaaaaaaaa...
Bb5 C#5 Eb9 Bb5 C#5 Eb9
Eu........vou...ooo...oou vou subir a montanha...aaaaaaaaaaaaaaaa... Bb5

↓ ↓ ↓ ↑ ↓ ↓ ↓ ↓ ↑ ↓ ↓ ↓ ↓ ↑ ↓ ↓ ↓ ↓ ↑ ↓
B|-----------------------------------------------|
E|-----------------------------------------------|
G|---8-8-8-x-6-6-6-6-x-x-8-8-8-x-9-9-9-9-x-x-----|
D|---8-8-8-x-6-6-6-6-x-x-8-8-8-x-9-9-9-9-x-x-----| (2X)
A|---6-6-6-x-4-4-4-4-x-x-6-6-6-x-7-7-7-9-x-x-----|
E|-----------------------------------------------|

B|-----------------------------------------------|
E|-----------------------------------------------|
G|---8-------------------------------------------|
D|---8-------------------------------------------| (1X)
A|---6-------------------------------------------|
E|-----------------------------------------------|

----------------- Acordes -----------------


Bb5 = X 1 3 3 X X
C#5 = X 4 6 6 X X
E5 = 0 2 2 X X X
Eb5 = X 6 8 8 X X
Eb9 = X 6 8 8 6 6
F#5 = 2 4 4 X X X
G#5 = 4 6 6 X X X

Verwandte Interessen