Sie sind auf Seite 1von 12

Devil May Cry - I'll Be Your Home (Ending Theme)

Sung by Oikawa Rin

Tabbed By: Francis Louwie Anthony A. Navos


Date: June 27, 2008

Any Comments or suggestions e-mail me at nagz06@yahoo.com

Standard Tuning

Intro: G,C 2x

Verse: G,C 4x; Am7, D 2x

E||----------------------|----------------------|----------------------|
B||------------3---------|------------3---------|------------3---------|
G||-------0---------0----|-------0---------0----|-------0---------0----|
D||----------------------|--4-------------------|----------------------|
A||----------------------|----------------------|--3-------------------|
E||--3-------------------|----------------------|----------------------|

-----------------0----|----------------------|----------------------|
------------3---------|------------3---------|------------3---------|
-------0--------------|-------0---------0----|-------0---------0----|
--4-------------------|----------------------|--4-------------------|
----------------------|----------------------|----------------------|
----------------------|--3-------------------|----------------------|

----------------------|-------0--------------||
------------3---------|------------3---------||
-------0---------0----|-----------------0----|| X2
----------------------|--4-------------------||
--3-------------------|----------------------||
----------------------|----------------------||

E||----------------------|----------------------|--------------0-----------|
B||------------0h--1-----|------------1---------|--------3-----------3-----|
G||-------------------0--|-----------------0----|-----2-----2-----2-----2--|
D||-------2--------------|-------2--------------|--0-----------------------|
A||--0-------------------|--0-------------------|--------------------------|
E||----------------------|----------------------|--------------------------|

----------------------|----------------------|----------------------|--2----||
------------0h--1-----|------------1---------|------------3---------|--3----||
-------------------0--|-----------------0----|-------2---------0----|--2----||
-------2--------------|-------2--------------|--0-------------------|--0----||
--0-------------------|--0-------------------|----------------------|-------||
----------------------|----------------------|----------------------|-------||
Chorus: C, G, D, F, C, Em, Bm-D then C, G, D, F, C, Em, Bm, C

-Harmonics-
E||----------------------|----------------------|--------|--------7----|
B||------------3---------|------------3---------|--------|---7---------|
G||-------0---------0----|-------0---------0----|--------|-------------|
D||----------------------|--4-------------------|--------|-------------|
A||----------------------|----------------------|--3-----|-------------|
E||--3-------------------|----------------------|--------|-------------|

(Repeat Verse)

(Repaet Chorus Chords)

Bridge: Bm, C, Bm, Am7, D, C, Em, D-Dsus-D7

(Repeat Chorus Chords) 2x

Verse: G,C 4x; Am7, D 2x

Don't look back


Don't regret
Time's falling out of these hands
I'll let you leave me

Chorus: C, G, D, F, C, Em, Bm-D then C, G, D, F, C, Em, Bm, C

Go on,
You know Home is always inside your soul
All the light to bless your way
Don't be afraid
And I'll be your home

Verse 2: G,C 4x; Am7, D 2x

In this time
In this place
This moment is all we have
And tomorrow we never know

Chorus: C, G, D, F, C, Em, Bm-D then C, G, D, F, C, Em, Bm, C

Every precious time


Let it go
Somewhere away
You will learn, And you'll love,
forgive the past and you can move on

Bridge: Bm, C, Bm, Am7, D, C, Em, D-Dsus-D7

All the distance


You've come to a place
Then you see that your home is away
Now the sun is rising
lighting up your sky again brightly

Chorus: C, G, D, F, C, Em, Bm-D then C, G, D, F, C, Em, Bm, C

Every precious time


Let it go
Somewhere away
You will learn, And you'll love,
forgive the past

Go on,
You know Home is always inside your soul
Where ever you go
Whatever you see
I'll be the place
And I'll be your home

SKY CHORD Otona Ni Naru Kun He


Shion Tsuji
Key: Eb
Arranged by Mike Tran (weksa)

http://www.youtube.com/watch?v=V7TBNjiUX0g

Note: This tab is slightly simplified. My fingers are chubby,


and I don't have long nails, so I often hit other strings
while picking, which gives the song a fuller sound. I may
also play hammer-ons and pull-offs randomly. It's hard to
tab because I don't play consistently.

Note: This tab is for the short TV version that's about 1:30 long.

Note: Tab notations are at the bottom.

Play relative to capo 3

Intro:
C F G C C F G C ^
e|-0---3-------3--------------------|-0---3---------3----------------------|
B|---------1-------0h1-3*-1-----3-1-|---------1---------0-1-3*-1---1-------|
G|---0---0---0---0-0----------0-0---|---0---0---0h2---0--------0-------0---|
D|--------------------------2-------|--------------------------2-----------|
A|-3----------------------3---------|-3------------------------3-----------|
E|---------1-------3----------------|---------1---------3------------------|

Verse:
C v F v G v C v C v F v G v C ^
e|---3-0-3-0-3-0-3---------0---------|-------0-1-0-------------------------|
B|---1-1---1---1-----3-1-3-------3-1-|-----1---1---3-1-0-----1---1---------|
G|-----0-------0---0-----0-----0-0---|---0-0-------0-----2-4---------0-----|
D|-----2-----------------0---2---2---|-----2-------0-------0---------------|
A|-3-----------------------3---------|-3---------------------3-------------|
E|---------1---------3---------------|---------1-------3-------------------|

C v F v G v C v C v F v G v C ^
e|---3-0-3-0-3-0-3---------0-----3-0-|-------0-1-0-------------------------|
B|---1-1---1---1-----3-1-3-------1---|-----1---1---3-1-0-----1---1---------|
G|-----0-------0---0-----0-----0-0---|---0-0-------0-----2-4---------0-----|
D|-----2-----------------0---2---2---|-----2-------0-------0---------------|
A|-3-----------------------3---------|-3---------------------3-----2-------|
E|---------1---------3---------------|---------1-------3-------------------|

Prechorus:
Am v v Em V v F v v G v v
e|-------------3/5-3---5-5---------------|-0h1-0-1-1-1/3---0-1-0---0-------------
--|
B|-----0---1---1---3---3-3-1h3-3/5-3-3-1-|-1---1-1-------3-0-------0-3p1-3/5-3-1-
--|
G|---2-2-2---2-2---------0-0---------0---|-------0---------0-------0---------0---
--|
D|-----2-------2---------------------0---|-------0---------------------------0---
--|
A|-0-------------------------------------|---------------------------------------
--|
E|-------------------0-------------------|-1-------------------3-----------------
--|

Am v v Em V v F v v G ^ v
e|-------------3/5-3---5-5---------------|-0h1-0-1-0-1-0-1-3*-5---5---3-3--------
--|
B|-----0---1---1---3---3-3-1h3-3/5-3-3-1-|-1---1-1-1-1-1-1-3*-3---3---3-3--------
--|
G|---2-2-2---2-2---------0-0---------0---|-------0-------0--------------0-0------
--|
D|-----2-------2---------------------0---|-------0-------0--------------0--------
--|
A|-0-------------------------------------|---------------------------------------
--|
E|-------------------0-------------------|-1---------1-----3*-----3--------------
--|

Chorus:
C v F v G v C v C v F v G v C
e|-3-----------5-------------------0-1-0-----|-------0-1-0----------------0h1-0--
---|
B|---1-1-------1---1---3p1-3p1-3-1-----1-3p1-|-----1---1---3-1-0-----1----------3
-1-|
G|-----0-0h2-------3-0-0-------0-------0-----|---0-0-------0-----2-4-------------
---|
D|-----2-----------x-----------0-------2-----|-----2-------0-------0-------------
---|
A|-3---------------2---------------3---------|-3------------------------3--------
---|
E|-----------1---------3---------------------|---------1-------3-----------------
---|

C v F v G v C v C v F v G v C ^
e|-3-----------5-------------------0-1-0-----|-------0-1-0-----------------------
--|
B|---1-1-------1---1---3p1-3p1-3-1-----1-3p1-|-----1---1---3-1-0-----1---1-------
--|
G|-----0-0h2-------3-0-0-------0-------0-----|---0-0-------0-----2-4---------0---
--|
D|-----2-----------x-----------0-------2-----|-----2-------0-------0-------------
--|
A|-3---------------2---------------3---------|-3---------------------3-----------
--|
E|-----------1---------3---------------------|---------1-------3-----------------
--|

Coda: slow down


C F G C C F G C
e|-3-----------5-----------------0-1-0-----|-------0-1p0-------------------------
--|
B|-----1---------1---3p1-3p1-3-1-------3p1-|-----1-------3-1-0-----1-------------
--|
G|---0---0h2-------0-----------------------|---0---------------2-4-0-------------
--|
D|-----------------------------------------|-----------------------2-------------
--|
A|-3-----------------------------3---------|-3---------------------3-------------
--|
E|-----------1-------3---------------------|---------1-------3-------------------
--|

/ slide up
\ slide down
h hammer-on
p pull-off
* staccato
^ Tap / slap
v down-strum

Ending solo at around 3:53 from the full version of the song

e|-----11---------------------------|----11-----------------------|
B|-/11----11-9-8-9-----8---8-9-9/11-|-11----11-9-8-9---8---9-8----|
G|-----------------------8----------|--------------------8-----8--|
D|----------------------------------|-----------------------------|
A|----------------------------------|-----------------------------|
E|----------------------------------|-----------------------------|

e|-----11---------------------------|----11-----------------------|
B|-/11----11-9-8-9---9-8---8-9-9/11-|-11----11-9-8-9---8---9-8----|
G|-----------------------8----------|--------------------8--------|
D|----------------------------------|-----------------------------|
A|----------------------------------|-----------------------------|
E|----------------------------------|-----------------------------|
Bleach Ending 18 - Sky Chord (Bleach) Guitar Tab
Submitted: Jul 06, 2009 by yoshistrings (Last updated: Sep 04, 2009)

 Login or register to post comments Download | Listen


.5
Average: 4.5 (8 votes)

Game: Bleach
Composer(s): Yoshiki Muzuo, Ikimono Gakar
Style: Arrangement, Fingerstyle
AutoScroll: Slow | Medium | Fast

Sky Chord

Composed by Tsuji Shion - Arranged by Jackson Walsh 'yoshistrings'


Track 1 (Capo 3)

E E E E E E E E E E E E E E E E
E||--------3-----------3-----|--------3-----------0-----|
B||--1-----1--1--1-----1--1--|--0-----0--0--1-----1--3--|
G||--0--0-----------0--------|--0--0--------0--0--------|
D||--------------3-----------|--------------------------|
A||--3-----------------------|--------------3-----------|
E||--------------1-----------|--3-----------------------|

E E E E E E E E E E E H E E E E E E E E E
--------3-----------3-----|--------3--0-----------|--3--0--3--0--3--0--0-----|
--1-----1--1--1-----1--1--|--0--1-----1-----------|--1--------1--------1--3--|
--0--0-----------0--------|--0--------------------|-----------------------0--|
--------------3-----------|-----------------------|--------------------------|
--3-----------------------|-----------3--------3--|--------------------------|
--------------1-----------|--3--------------------|-----------1-----------3--|

E E E E E E E E E E E E E E E E E E Q E E E E
--------0--0--------------|-----------1--0-----------|-------------------------|
--1--3-----1--------1-----|-----1--3--1-----3--1--0--|-----0--1----------1-----|
-----------------0--------|--0--------------------0--|--2-----0-------0--------|
--------------2-----------|--------------------------|-------------2-----------|
-----------3-----------3--|--------------------------|--------3-------------3--|
--------------------------|-----------1-----------3--|-------------------------|

E E E E E E E E E E Q E E E E E E E E E E E E
--3--0--3--0--3--0--0-----|--------0----0--3--0-----|-----------1--0-----------|
--1--------1--------1--3--|--1--3--1-------1--------|-----1--3--1-----3--1--0--|
-----------------------0--|-------------------------|--0--------------------0--|
--------------------------|-------------------------|--------------------------|
--------------------------|--------3-------------3--|--------------------------|
-----------1-----------3--|-------------------------|-----------1-----------3--|

E E Q E E E E E Q E E E Q Q Q E E E E
-------------------------|----------------5--3----|--5------------------1--|
-----0--1----------1-----|-----0----1--------3----|------------------0--1--|
--2-----0-------0-----2--|--L----------2----------|---------------0--------|
-------------2-----------|------------------------|------------0-----------|
--------3-------------0--|--L--0----0-------------|------------------------|
-------------------------|-------------------3----|-------3-------------1--|

E E E E E E E E E E S S E E E E E E Q E E E Q
--0--1--0--1--0--1--3--0--|--L--L---------0-----------|----------------5--3----|
--------------------------|--------3-1-3--------0-----|-----0----1--------0----|
--------------------------|------------------0-----2--|--L----------2----------|
--------------------------|---------------------------|------------------------|
--------------------------|---------------------------|------------------------|
-----------1-----------3--|--L--L------3-----------1--|--L--1----1--------3----|

Q Q E E E E E E E E E E Q E E Q Q. E
--5------------------1--|--0--1--0--1--0--1--3----|--5--0--5----3------3--|
---------------------1--|--------------------3----|--------------------1--|
---------------0--------|-------------------------|-----------------------|
------------0-----0-----|-------------------------|-----------------------|
------------------------|-------------------------|--------------------3--|
-------3-------------1--|-----------1--------3----|--------3----3---------|

E E Q Q. S S S T T E E E E E S S E
-------------5----------|--------------0--1--0---------|
--------1-----------3-1-|--3-1-L-3--1--1-----1--3-1----|
-----0--------------0---|------------------------------|
--2-----------------0---|------------------------------|
------------------------|--------------3-----3------3--|
-------------1------3---|------------------------------|

E E E E E E E E E E H E E E Q Q. S S S S
-----------1--0-----------|-----------------3-----|----------5--------------|
-----1--3--1-----3--1--0--|-----0--1--------1-----|-----1-----------3-1-3-1-|
--0--------------------0--|--2-----0--------------|--0--------------0-------|
--------------------------|--------------------2--|-----------------0-------|
--------------------------|--------3--------3-----|-------------------------|
-----------1-----------3--|-----------------------|----------1------3-------|

E E E E E S S E E E E E E E E E E E H Q.
--------0--1--0------------|--------1--0--------------|--------------3------|
--3--1--1-----1--3-1-------|--1--3--1-----3--1--0-----|--0--1--------1------|
------------------------0--|--------------------0--2--|-----0---------------|
---------------------------|--------------------------|---------------------|
--------3-----3------3-----|--------------------------|-----3--------3------|
---------------------------|--------1-----------3-----|---------------------|

E. Q. S S S S E S S E E E S S E E E S
--L---5-------------------|----0--1--0-----------------|
--L----------3-1-3-1-3--1-|--L-1-----1--3-1-------1--3-|
-------------0------------|--------------------0-------|
-------------0------------|----------------------------|
--L-----------------------|----3-----3------3----------|
------1------3------------|----------------------------|

S E E E E S E. E. Q Q S Q. S H S
----1--0------------------|------------------------|-------------||
--L-1-----3--1--L-0-------|--0----3s----L-1------L-|--L--------L-||
------------------0---2---|-------0-----L-L------L-|--L--------L-||
--------------------------|------------------------|-------------||
--------------------------|-------3-----L-L------L-|--L--------L-||
----1-------------3-------|------------------------|-------------||

Duration Legend
---------------
W - whole
H - half
Q - quarter
E - 8th
S - 16th
T - 32nd
X - 64th
. - note dotted
|-n-| - n-tuplets

Tablature Legend
----------------
L - tied note
x - dead note
g - grace note
(n) - ghost note
> - accentuded note
NH - natural harmonic
AH - artificial harmonic
TH - tapped harmonic
SH - semi harmonic
PH - pitch harmonic
h - hammer on
p - pull off
b - bend
br - bendRelease
pb - preBend
pbr - preBendRelease
brb - bendReleaseBend
\n/ - tremolo bar dip
\n - tremolo bar dive
-/n - tremolo bar Release up
/n\ - tremolo bar inverted dip
/n - tremolo bar return
-\n - tremolo bar Release down
S - shift slide
s - legato slide
/ - slide into from below or out of upwards
\ - slide into from above or out of downwards
~ - vibrato
W - wide vibrato
tr - trill
TP - tremolo picking
T - tapping
S - slap
P - pop
< - fade in
^ - brush up
v - brush down

Sky Chord chords


Bleach - Sky Chord

Difficulty: Expert
by adalgomes

chords ukulelecavacokeyboardtabbassdrumsharmonicsfluteGuitar Pro

Learn how to play Sky Chord exaclty like Bleach

Sky Chord
Key: D

G#

A#

B
C(one step down)

C#(half step down)

D(original key)

D#(half step up)

E(one step up)

F#

(capo 1ª casa)

(intro) D9 G A D9

D9 G A D9 (4x)
Sunao na uta ga utaenai
Kazari tsukete shimau kara
Itsu kara konna ni raku ni jibun
Mamoru koto wo oboeta no?

D9 G A D9 (4x)
Kotei kara mieru sora
Kimi ni wa nani iro miutsu
Tada mashiro na kono demo
Toki ni nakuro ni kae takunaru

Bm A
Ikanai SKY CHORD
G D
Mukashi nara atta no ni yeah yeah
Bm A
Nakushita SKY CHORD
G A
Dare no sei demo naku jibun

D9 G A D9
Kitto otona ni naru koto nanka yori
Taisetsu na mono ga aru no
D9 G A D9
Kitto sore wo mitsukerannai mama
Otona ni natte yukun da yeah yeah

D9 G A D9 (4x)
Asa made okite itakatta
Modokashii kodomo no koro
Ima wa jikan ni owarete
Nemuru koto sura dekinai de iru

Bm A
Ikanai SKY CHORD
G D
Mukashi nara atta no ni yeah yeah
Bm A
Nakushita SKY CHORD
G A
Kimi ni oshiete hoshiiyo

D9 G A D9 (4x)
Kitto otona ni naru koto nanka yori
Taisetsu na mono ga aru no
Kitto sore wo mitsukerannai mama
Otona ni natte yukun da

D9 G A D9
Zutto kono mama ja irenaitte
Wakatteru yo arukidase
Bm A/C# D D/F#
Zutto no oto ni ga iteta moji wa
D9 G A
Kawatte nanka inai no

D9 G A D9 (4x)
Kitto otona ni naru koto nanka yori
Taisetsu na mono ga aru no
Kitto sore wo mitsukerannai mama
Otona ni natte yukun da
Kodomo no mama ja irenai

(intro e as duas primeiras estrofes são tocadas com a (mizinha) E|


solta,
o mesmo dá-se a estrofe seguinte ao Refrão)