Sie sind auf Seite 1von 5

LET ME BE THE ONE – JIMMY BONDOC

Intro: A-D--

E|-------------12--12--12----------9--9----------7--9--9------7--9--]
B|-----10--10--10----------10--12--------10--10-----------10--5-----]
G|-------------11---------------------------------------------------]
D|-------------0----------------------------------------------------]
A|------------------------------------------------------------0-----]
E|-----------------------------9-----------------7------------------]

E|-------------12--12--12----------9-------------0--]
B|-----10--10--10----------10--12-----12--10-----0--]
G|-------------11-----------------------------9--1--]
D|-----------------------------------------------2--]
A|-------------0---------------------------------2--]
E|-----------------------------9--------------7--0—-]

E|---------------------------------------------0--------]
B|-----------0h2--0-----------------0h2--0--------3-----]
G|--------2----------2--2--------2----------2--------2--]
D|-----2----------0-----------2----------0--------------]
A|--0----------------------0----------------------------]
E|------------------------------------------------------]

E|---------------------------------------------0--------]
B|-----------0h2--0-----------------0h2--0--------3-----]
G|--------2----------2--2--------2----------2--------2--]
D|-----2----------0-----------2----------0--------------]
A|--0----------------------0----------------------------]
E|------------------------------------------------------]

Verse 1:

E|-------------------------------------------------------------0--------]
B|-----0--0--0--0--0--0-----0--2--0-----------------0h2--0--------3-----]
G|-----2-----------------2-----------------------2----------2--------2--]
D|-----2--------------------0--------2--2-----2----------0--------------]
A|--0--------------------------------------0----------------------------]
E|----------------------------------------------------------------------]
Aadd9 Dadd9 Aadd9-Dadd9
Somebody told me you were leavin’ I didn’t know
E|--------------------------------]
B|-----0--0--0--0--0--0-----0--2--]
G|-----2-----------------2--------]
D|-----2--------------------0-----]
A|--0-----------------------------]
E|--------------------------------]
Aadd9 Dadd9
Somebody told me you’re unhappy
E|--------------------------2--]
B|--0-----5-----------------2--]
G|-----2--4--6--2--------2-----]
D|--------------------4--------]
A|--------4--------4-----------]
E|--------------2--------------]
1
C#m7 F#m
But it doesn’t show
E|-----0--0--0--0--------------------------------5-----]
B|-----3--------------------------------------3--------]
G|-----2-----------2--2—-2--4-—6--4--------4--------1--]
D|--0--------------------------------7--4-----------2--]
A|--------------------------4-----------2-----------2--]
E|--------------------------------------------------0--]
Dadd9 C#m7 Bm7-E
Somebody told me that you don’t want me no more

E|-----------------------]
B|--------0--2--0--------]
G|-----------------2--2--]
D|--2--2-----------------]
A|-----------------------]
E|-----------------------]
Aadd9
So you’re walkin’ out the door

E|-------------------------------------------------------------0--------]
B|-----0--0--0--0--0--0-----0--2--0-----------------0h2--0--------3-----]
G|-----2-----------------2-----------------------2----------2--------2--]
D|-----2--------------------0--------2--2-----2----------0--------------]
A|--0--------------------------------------0----------------------------]
E|----------------------------------------------------------------------]
Aadd9 Dadd9 Aadd9-Dadd9
Nobody told me you’ve been cryin’ every night

E|--------------------------------] E|--------------------------2--]
B|-----0--0--0--0--0--0-----0--2--] B|--0-----5-----------------2--]
G|-----2-----------------2--------] G|-----2--4--6--2--------2-----]
D|-----2--------------------0-----] D|--------------------4--------]
A|--0-----------------------------] A|--------4--------4-----------]
E|--------------------------------] E|--------------2--------------]
Aadd9 Dadd9 C#m7 F#m
Nobody told me you’d been dyin’ But didn’t want to fight

E|-----0--0--0--0--------------------------------5-----]
B|-----3--------------------------------------3--------]
G|-----2-----------2--2—-2--4-—6--4--------4--------1--]
D|--0--------------------------------7--4-----------2--]
A|--------------------------4-----------2-----------2--]
E|--------------------------------------------------0--]
Dadd9 C#m7 Bm7 E Refrain:
Nobody told me that you fell out of love from me
E|--------0--0--0--------------]
B|--------3--------------------]
E|--------------------------0-----0--] G|--2--2--2--------2--4--6--6--]
B|--------0--2--0--------0--------2--] D|--------0--------------------]
G|-----------------2--2--------2--0--] A|--------------------4--------]
D|--2--2--------------------------2--] E|-----------------------------]
Dadd9 C#m7 2
Let me be the one to break it up
A|-----------------------0--------0--]
E|-----------------------------------]
Aadd9 A7
So I’m settin’ you free

E|-----------------------------] E|--------0--0--0--------------]
B|--------------2--2-----0--2--] B|--------3--------------------]
G|-----------4--------2--------] G|--2--2--2--------2--4--6--6--]
D|--7--7--7--------------------] D|--------0--------------------]
A|-----------2-----------0-----] A|--------------------4--------]
E|-----------------------------] E|-----------------------------]
Bm7 Aadd9 Dadd9 C#m7
So you won’t have to make excuses We don’t need to find a set up where

E|--------------------------] E|--------5--5--5--5--4--5--5h7--]
B|-----------2--2-----0--2--] B|--0-----7----------------------]
G|--------4--------2--------] G|-----2--7----------------------]
D|--7--7--------------------] D|--------0----------------------]
A|--------2-----------0-----] A|--------------------4----------]
E|--------------------------] E|-------------------------------]
Bm7 Aadd9 Dadd9 C#m7
Someone wins and someone loses We just have to say our love was true

E|--5--7--9--7--7--5-0h2--2--] E|--------0--0--0--------------------------2-----]
B|------------------------3--] B|--------3-----------------------------3--------]
G|------------------------2--] G|--2--2--2--------2--4--6--4--------4--------1--]
D|------------------------0--] D|--------0--------------------7--4-----------2--]
A|--------9----------0-------] A|--------------------4-----------2-----------2--]
E|---------------------------] E|--------------------------------------------0--]
F#m B7 Bm7 C#m7 Bm7 E
But has now become a lie So I’m tellin’ you I love you one last time

Interlude:

E|-----------] E|----------12--12--12----------9--9--]
B|--2--0-----] B|--10--10--10----------10--12--------]
G|--------2--] G|----------11------------------------]
D|-----------] D|----------0-------------------------]
A|--------0--] A|------------------------------------]
E|-----------] E|--------------------------9---------]
Aadd9
And goodbye

Verse 2: Follow TABS and Chords of Verse 1


E|-----------0--------0-----------]
B|--5--3--2--0-----3-----3--2--0--] Somebody told me you still loved me
G|-----------1--0-----------------] Don’t know why nobody told me that you only
D|-----------2--------------------] Needed time to fly
A|--2--------2--------------------] Somebody told me that you want to come back when our
E|-----------0--------------------] love is true again

3
Repeat Refrain – last:
E|--------0--]
B|--0--2--0--]
G|--------2--]
D|--------2--]
A|--------0--]
E|-----------]
Aadd9
Bridge:
...goodbye
E|--0--0--0--0- E|-----------------------------2--0--]
-0--0--------] B|--------------------------3-----0--]
B|--------------------------] G|--2--2--4--6--4--------4--------1--]
G|--------------------2--2--] D|-----------------7--4-----------2--]
D|-----------------0--------] A|--------4-----------2-----------2--]
A|--------------------------] E|--------------------------------0--]
E|--------------------------] C#m7 Bm7-E
Dadd9 You don’t have to live like this
Just turn around and walk away

E|--------------------2--------] E|-----------------------------]
B|-----0--2--5--5--------5--2--] B|-----0--2--3--3--3--2--0-----]
G|--2--------------6-----------] G|--2-----------------------6--]
D|-----------------------------] D|-----------0-----------------]
A|-----------4-----------------] A|--------------------------4--]
E|--------------------2--------] E|-----------------------------]
C#m7 F#m Dadd9 C#
If you love me still then stay Don’t keep me waiting for that final kiss

E|--------2--2--2--2-----------] E|-----------2--0--0--------]
B|--------------------7--5--5--] B|-----------3--------3-----]
G|--6--6-----------------------] G|--6--6--6--------------6--]
D|-----------------------------] D|-----------0--------------]
A|--------------------4--------] A|-----------------------4--]
E|--------2--------------------] E|--------------------------]
F#m C#m7 Dadd9 C#m7
We can work together through this test Or we can work through it apart

E|--------0--0--0--1--0--------] E|-----------------------0--]
B|--------1-----------1--1--1--] B|-----------5--3--2--3--0--]
G|--2--2-----------------------] G|--2--2--2--------------1--]
D|--------------------3--------] D|-----------------------2--]
A|--------3--------------------] A|-----------2-----------2--]
E|-----------------------------] E|-----------------------0--]
C F Bm7 E
I just need to get this off my chest That you will always have my heart

E|--7/9--7--5--7/12--9--9\7--]
B|---------------------------]
G|---------------------------]
4
D|---------------------------]
A|---------------------------]
E|---------------------------]
Let me be the one..

Repeat Refrain

Outro