You are on page 1of 6

Just a quick note before we get started. This tablature is FREE for everyone.

Please hit me up if you see this


tablature being sold online at any type of platform. As a gesture of saying thank you for this TAB, please
subscribe to my YouTube channel. Cheers!

This arrangement of mine is still subject to revision. If you see any inaccuracies with regards to this tab to the
YouTube video of this version, you can hit me up at any of my social media affiliations.

BUWAN – Juan Karlos Fingerstyle Cover link:


www.youtube.com/watch?v=FNvjgpfFrRs&index=1&list=UUx8Oxcte2KifDL3T4YDpILA

YouTube Channel Link:


www.youtube.com/channel/UCx8Oxcte2KifDL3T4YDpILA

If you have questions, inquiries, requests and bookings, you can reach me at any of my social media accounts
or kindly put a comment on any of my YouTube videos.

YouTube: Karl Vince Casitas Fingerstyle Twitter: @kaloycasitas


Instagram: @kaloycasitas Facebook: Facebook.com/kaloycasitas
BUWAN (Juan Karlos)
Arranged by: Karl Vince Casitas

Tuning: Standard

Intro:
e|---------------0--------------------0-------------------0----------------------0---------------------------------------------------------------------
b|------10s12----12-------------------10-----8----------8--------7--------------7--------------------------------------------------------
g|-----------------------------10------------------------------------------------------------------------------------------------------------------------
d|-----10s12---------12--- 10-----------10--9-------------9-----7------------------7------------------------------------------------------------
a|--------------------------------------------------------------------------------------------------------------------------------------------------------
E|-----0-----------------------0---0-------------0---0---------------0----0--------------------------------------------------------------------------

e|---------------0--------------------0-------------------0----------------------0---------------------------------------------------------------------
b|-----10s12-----12-------------------10-----8----------8--------7--------------7--------------------------------------------------------
g|------------------------------10-----------------------------------------------------------------------------------------------------------------------
d|-----10s12---------12--- 10-----------10--9-------------9-----7------------------7-----------------------------------------------------------
a|-------------------------------------------------------------------------------------------------------------------------------------------------------
E|-----0-----------------------0---0-------------0---0---------------0----0-------------------------------------------------------------------------

let it ring…
e|--------------------------------5----------------5---------------5------------------------------------------------------------------------------------
b|----------------7------------------------7----------------7-------------------------------------------------------------------------------------------
g|----0--------------5------------------------5----------------5---------------------------------------------------------------------------------------
d|-----------7-----------7-------------------------------7----------------------------------------------------------------------------------------------
a|--------6------------------6---------6--------------6-------------------------------------------------------------------------------------------------
E|--------------------------------------------------------------------------------------------------------------------------------------------------------

let it ring…
e|-----------------------------0----------0-------------------------------------------------------------------------------------------------------------
b|----------------------3---------3------ 3-------------------------------------------------------------------------------------------------------------
g|---------------0---------0---------0---0--------------------------------------------------------------------------------------------------------------
d|------------4----4--------------------- 4-------------------------------------------------------------------------------------------------------------
a|--0--2-3-------------------------------3--------------------------------------------------------------------------------------------------------------
E|--------------------------------------------------------------------------------------------------------------------------------------------------------

Verse: Cmaj7 D7
e|--------------------------------------------------------------------------------------------------------------------------------------------------------
b|------------------------------------------------------5---5------5-5-5-5s7---7-7------------------------------------------------------------------
g|--------0---2—2s4—4s2s0-------------------- 4---4------4-4-4-4------5-5--------0-0s2-2s0---------------------------------------------
d|----0-------------------------------4-4------2-----5--- 5------5-5-5-5s7--7-7---4-4----------------4---2s0---------------------------------
a|-------------------------------------------3---------3-3-3---3--3-3-3-3-----5--5-----5----------------------------------------------------------
E|--------------------------------------------------------------------------------------------------------------------------------------------------------

G G7 (then repeat the chords all over again except for the solo and bridge)
e|--------------------------------------------------------------------------------------------------------------------------------------------------------
b|---------------3---3----3-3-3-3---3-3--------------------------------------------------5---5-----5-5-5-5s7--7-7-----------------------------
g|---------------4---4----4-4-4-4---4-4------0--2-2s3s4s3-2s0-----4-4-----2----4---4-----4-4-4-4-----5-5------------------------------
d|---------------5---5----5-5-5-5---3-3----0-----------------------------------3-3---- 5----5----5-5-5-5s7--7-7------------------------------
a|------------------------------------------------------------------------------------------- 3-3-3-3--3-3-3-3-----5-5------------------------------
E|--------3-3--3-3-3-3-3-3-3-3---3-3--------------------------------------------------------------------------------------------------------------
bend..
e|--------------------------------------------------------------7s6-5s4--------------------------------------------------------------------------------
b|------------------------------------------------------------------------------------------------------------------------------------------------------
g|---------0-0s2-2s0-----0-0s2---0---0---------------5s7s6-5s4----------3s4(pause)------------------------------------------------------
d|---4-4-----------------4------------------------------------------------------------------------------------------------------------------------------
a|------5-------------------------------------------------------------------------------------------------------------------------------------------------
E|--------------------------------------3---3(pause)---------------------x-----3--------------------------------------------------------------------
Chorus: (then just play around with G-G7
just like what I did on the video)
e|-------------------------------3-------------7--------------------------------------------------------------------2s3--------------------------------
b|---1s3---3—3s5(bend)----------5s8--8---10--10-------------8----------------7---5s7-7--7-----------------------------------------------
g|----------------------------------------------9--------------9------9----9-------------5--------------------7---------------------------------------
d|-------------------------------------------------------------------0-----------------7-----------------------------------------------------------------
a|-----------------------------------------------------------------------------------5-------------------5---5------------------------------------------
E|----------------------------------------------8-----------------8----------------------------------------------------------3--------------------------

e|-------------------3-------7----------------------------------------------------------------2s3------------------7s6-5s4-------------------------
b|-------3-3-3s5-----5s8-8--10-10--------------8----------7---5s7-7-7------------------------3-----------------------------------------------
g|----------------------------9------------9--------9---9-------5----------------------7--------------4-------5s7s6-5s4--------3s4(pause)---
d|-------------------------------------------------0-----------7-----------------------------------------------------------------------------------------
a|-----------------------------------------------------------5------------------5--5--------------------------------------------------------------------
E|---3-----------------------8----------------8------------------------------------------------------3--------------------------x----3----------------

2nd verse:
Verse: Cmaj7 D7
e|-------------------------------------------------------------------------------------------------------------------------------------------------------
b|--------------------------------------------------------5---5------5-5-5-5s7---7-7----------------------------------------------------------------
g|--------0---2-2s4—2s0----------------------------4---4------4-4-4-4------5-5--------0-0s2-2s0------------0s2s0-----------------------
d|----0---------------------------------4---4s2-2-----5--- 5------5-5-5-5s7--7-7---4-4----------------4---------------------------------------
a|-------------------------------------------3-----------3-3-3---3--3-3-3-3-----5-5------5--------------------------------------------------------
E|--------------------------------------------------------------------------------------------------------------------------------------------------------
(then just play around with G-G7)
e|--------------------------------------------------------------------------------------------------------------------------------------------------------
b|--------------------------------------------------------------------------------- 5----5------5-5-5-5s7-7-7-----------2s4-2--2-----0----------
g|-----------------------------------------0--2-2s4-2s0------------------------4----4------4-4-4-4----5-5------------------------2-------------
d|-----------------------------------0-0---------------------4--4----2s4-2-----5----5------5-5-5-5s7-7-7---0-0-0----------------------------
a|----------------------------------------------------------------------3----------3-3-3---3--3-3-3-3----5-5--------------------------------------
E|--3-3-------------------------------------------------------------------------------------------------------------------------------------------------
(then just play around with G-G7)
e|---------------------------------------------------3---3----3-----3------3s2--1-----1-------------------------------------------------------------
b|---------------------------------------------------0---0----0-----0------0-----0-----0--------------------------------------------------------------
g|---------------------------------------------------0---0----0-----0------0-----0-----0--------------------------------------------------------------
d|--------------------------------------------------------------------------------------------------------------------------------------------------------
a|--------------------------------------------------------------------------------------------------------------------------------------------------------
E|---3-3-------------------------------------3-3-----3---3-----3------3--------3--3----------------------------------------------------------------

Chorus: (bend) (then just play around with G-G7)


e|-----------------------3----------7---------------------------7---------------------------------------------2s3-------------------------------------
b|-------3--3—3s5------5s8----8--10-10-------------8------8-------------------5s7-7--7-----------------------------------------------------
g|-----------------------------------9------------9---------9----------9-----------5--------------------7---------------------------------------------
d|--------------------------------------------------------0---------------------7---7-------------------------------------------------------------------
a|---------------------------------------------------------------------------5---------------------5--5-------------------------------------------------
E|-------------- 3------------------8-----------------8---------------------------------------------------------------3-3------------------------------
e|-----------------------3----------7---------------------------7---------------------------------------------2s3-------------------------------------
b|-------3--3—3s5------5s8----8--10-10-------------8------8-------------------5s7-7--7----------------------------3------------------------
g|-----------------------------------9------------9---------9----------9-----------5--------------------7--------------------4------------------------
d|--------------------------------------------------------0---------------------7---7-------------------------------------------------------------------
a|---------------------------------------------------------------------------5---------------------5--5-------------------------------------------------
E|-------3----- 3------------------8-----------------8---------------------------------------------------------------3-3--3--------------------------

e|----- 7s6—5s4--------------------------------------------------------------------------------------------------------------------------------------
b|--------------------------------------------------------------------------------------------------------------------------------------------------------
g|--5s7s6—5s4-----3s4(pause)------------------------------------------------------------------------------------------------------------------
d|--------------------------------------------------------------------------------------------------------------------------------------------------------
a|--------------------------------------------------------------------------------------------------------------------------------------------------------
E|-----------------------3-------------------------------------------------------------------------------------------------------------------------------

Guitar Solo:
e|--------------------------------------------------------------------------------------------------------------------------------------------------10---
b|----------------------8(bend)-----8-----10--------12-------12s13----10------------10--10----------------10—10s12s10s9-10--------
g|-----7s8s7s6s7---------------8-----8-------8------------------------------------------9---9-------------11------------------------------------
d|-------------------------------------------------------------------------------------------------------------0------------------------------------0-0-
a|----------------------------------------------------------------------------------------10-------------------------------------------------------------
E|--------------------------------------------------------8----8-------------------0-8-----------------8-----------------------------------------------

e|--------------------------------------------------7s8-------------------------------------------------------------15---------------------------------
b|--13--12-10----12-------12s13---10--------------8------------------------------------15------17--------------------------------------------
g|-----------------------------------------------------------------------------12-14-14s16------16-------16---------------------------------------
d|-------------------------------------------------------------------12s14-----------------------------------------------------------------------------
a|-------------------10--10------------- 9---9----------7--7-----------------------------------------------------------------------------------------
E|--------------------------------------------------------------------------------------------------------------------------------------------------------

e|------7--------7s8------------------------------------------------------------------------------------------------------------------------------------
b|------8----------------10-----------------------------------------------------------------------------------------------------------10s12-12s13-
g|------9---------------------9---------9---9s11-- 12---------------------------------------------12----------12---------12--- x----------------
d|-----------------------------------0-----------------------9-9s10s11-----------------0--9-10-------9-10-------9-10--------x----------------
a|-----------------------------------------------------10--------------------10(bend)----------------------------------------------------------------
E|------8----8------------------9-----------------------------------------------------------------------------------------------------------------------

(then just do a G7, strum it down with a bass thump and pause in the end just like what I did on the video)
e|--------------------------------------------------------------------------------------------------------------------------------------------------------
b|--------------------------------------------------------------------------------------------------------------------------------------------------------
g|--------------------------------------------------------------------------------------------------------------------------------------------------------
d|--------------------------------------------------------------------------------------------------------------------------------------------------------
a|--------------------------------------------------------------------------------------------------------------------------------------------------------
E|--------------------------------------------------------------------------------------------------------------------------------------------------------
Bridge:
Cadd9 D G D/F#m Em D
e|-------------- 3-----3-3-3-3-3-3---2-------2-2-2----------0----------0---------------------------------------------3--------------------------
b|------2s3-3--------3-3-3-3-3-3---3-------3-3-3-3-3-3----------3------------3----0--------0-----3----3-3-3-------------------------------
g|---------------------0-0-0-0-0-0------------2-2-2-2-2-------------0----------2--2--0------- 0-----2---2-------------------------------------
d|---------------------2-2-2-2-2-2--------0------------------------------------------------------------0---0---0------------------------------------
a|---------------------3-3-3-3-3-3--------------------------------------------------------------------------------------------------------------------
E|---------------------------------------------------------------------3-----3-----2------2-----0-0---------------------------------------------------
e|----3-3-3-3-3-3--2-------2-2-2----------0-----------0---------------------------------------------0-----0--------------------------------------
b|----3-3-3-3-3-3--3-------3-3-3-3-3-3-----------3--------------3----0-------------0-0-3-------3-----3--------------------------------------
g|----0-0-0-0-0-0-----------2-2-2-2-2----------0--0-----------2---2- 0-------------2-2-2-----2-----------------------------------------------
d|----2-2-2-2-2-2------0-------------------------------------------------------------0--0-0-0---0-------0-----------------------------------------
a|----3-3-3-3-3-3-------------------------------------------------------------------------------------------------------------------------------------
E|--------------------------------------------------3-------3----2-------2--------0--------------------------------------------------------------------

e|-----------------------------------------------------------3---------------------------0-0---3s0-0--0-------0---0----0---------------------------
b|------------3---------5-----5------------ 3------3s5-----------0-0----3------------------------------------3---3----3---------------------------
g|-------4-4-4-----4--4-----4-------4-4-4----4---------------------------------0----------------------------2---2----2---------------------------
d|-------5-5--------------------------------------------------------------------------------------------------0-----0---0------------------------------
a|---3--3-3-3--3-----3--3-------5--5-5-5-5--------------------------------------------------------------------------------------------------------
E|---------------------------------------------------------------3--3-----------2---------------0-----0------------------------------------------------

e|---0-0----3---------0--0---3-----------------------------------------------------------------------------------3----3----3------3s2-1----1-----
b|-----------------------------------------3s5-5—5s6s5--------3----------3s5-3------2s3------------0----0----0----0------0----0----0-----
g|-----------------------------------------------------------------------4--4------------4----------2--------0----0----0----0------0----0----0-----
d|------------------2------------------2-----------------------0---------------0------------------------------------------------------------------------
a|---------------3------------------3--------------------------------------------------------------------------------------------------------------------
E|---------------------------------------------------------------------------------------------------------3------3----3----3------3------3---3------

Chorus: (bend) (then just play around with G-G7)


e|-----------------------3----------7---------------------------7---------------------------------------------2s3-------------------------------------
b|-------3--3—3s5------5s8----8--10-10-------------8------8-------------------5s7-7--7-----------------------------------------------------
g|-----------------------------------9------------9---------9----------9-----------5--------------------7---------------------------------------------
d|--------------------------------------------------------0---------------------7---7-------------------------------------------------------------------
a|---------------------------------------------------------------------------5---------------------5--5-------------------------------------------------
E|-------------- 3------------------8-----------------8---------------------------------------------------------------3-3------------------------------
(then just play around with G-G7)
e|-----------------------3----------7---------------------------7---------------------------------------------2s3-------------------------------------
b|-------3--3—3s5------5s8----8--10-10-------------8------8-------------------5s7-7--7----------------------------3------------------------
g|-----------------------------------9------------9---------9----------9-----------5--------------------7--------------------4------------------------
d|--------------------------------------------------------0---------------------7---7-------------------------------------------------------------------
a|---------------------------------------------------------------------------5---------------------5--5-------------------------------------------------
E|-------3----- 3------------------8-----------------8---------------------------------------------------------------3-3--3--------------------------

(bend every note here)


e|---------------------------------------------------------5-5-5-5-5-5--------------------------------------------------------------------------------
b|-10-----8-8s10------10----10----10--10-10-----7-7-7-7-7-7------ 10s12--12---10--10--10--10----10----8-8s--------- 8-8------
g|--9------9-9-----------9-----9------9----9--9------ 5-5-5-5-5-5-------9s11----11---9-- 9----9----9------9-----9-9-----------9-9------
d|---------------------------------------------------------7-7-7-7-7-7--------------------------------------------------------------------------------
a|---------------------------------------------------------5-5-5-5-5-5-----------------------------------------------------------------10------------
E|------8--------------8-----8------8----------------------------------------------------------------------------------8--8---------8----------------
(then just play around with G-G7)
e|--------------------------5-----------------------------------------------------------------------------------------------------------------------------
b|----------7—5s7-7--------------7s8-8-------------------------------------------------------------------------------------------------------------
g|----------5---------------------------------------------------------------------------------------------------------------------------------------------
d|------7-------------------------------------------------------------------------------------------------------------------------------------------------
a|---5---------------------5----5-------------------5---------------------------------------------------------------------------------------------------
E|-----------------------------------------------3-------------------------------------------------------------------------------------------------------
e|-----------------------3----------7--------10----------------------------------------------------------------2s3------------------------------------
b|-------3--3—3s5------5s8----8------------10------- 10--10----------- 7----------5s7-7--7----------------------------3-------------------
g|-----------------------------------9-----9-------------9--9----9-------------5-----------------------------7--------------------4------------------
d|-----------------------------------------------------------------------------7--------------------------------------------------------------------------
a|---------------------------------------------------------------------------5---------------------5--5-------------------------------------------------
E|-------3----- 3------------------8----8-------------8---------------------------------------------------------------3-3--3-------------------------

e|----- 7s6—5s4--------------------------------------------------------------------------------------------------------------------------------------
b|--------------------------------------------------------------------------------------------------------------------------------------------------------
g|--5s7s6—5s4-----3s4(pause)------------------------------------------------------------------------------------------------------------------
d|--------------------------------------------------------------------------------------------------------------------------------------------------------
a|--------------------------------------------------------------------------------------------------------------------------------------------------------
E|-----------------------3-------------------------------------------------------------------------------------------------------------------------------

Congratulations for reaching this far! Now it’s time to polish and enjoy that song. Make it resonate! Goodluck!

- Karl Vince Casitas