You are on page 1of 3

04/02/2019 Cifra Club - Gabriel Diniz - Jenifer

Jenifer
Gabriel Diniz
Composição: Allef Rodrigues / Junior Lobo / Thales Gui / Thawan Alves

Tom: Cm

[Intro] Cm Fm
Cm Fm

E|-11---11---------------------------------------------|
B|----8----8---6h8-8-8---------------------------------|
G|--------------------------------8-10-10-10-----------|
D|---------------------8-10-10-10------------7-8-8-8-10|
A|-----------------------------------------------------|
E|-----------------------------------------------------|

E|-11---11---------------------------------------------|
B|----8----8---6h8-8-8---------------------------------|
G|--------------------------------8-10-10-10-----------|
D|---------------------8-10-10-10------------7-8-8-8-10|
A|-----------------------------------------------------|
E|-----------------------------------------------------|

[Primeira Parte]

Cm
Mas ela veio me xingando

Enchendo o saco, perguntando


Ab
Quem é essa perua aí?
Bb Cm
Mas peraí, mas peraí

Você não paga as minhas contas

Já não é da sua conta


Ab
O que é que eu tô fazendo aqui
Bb G7
Mas mesmo assim, vou te explicar

[Refrão]

Ab Bb
O nome dela é Jennifer
Cm
Eu encontrei ela no Tinder
https://www.cifraclub.com.br/gabriel-diniz/jennifer/imprimir.html 1/3
04/02/2019 Cifra Club - Gabriel Diniz - Jenifer

Ab Bb
E não é minha namorada
Cm
Mas poderia ser

Ab Bb
O nome dela é Jennifer
Cm
Eu encontrei ela no Tinder
Ab Bb
Mas ela faz umas paradas
Cm
O que eu não faço com você

( Ab Bb Cm )
( Ab Bb Cm )

E|-----------------------------------------------------|
B|-----3-4-3---6-8-8---------3-4-3---3-6-8-------------|
G|-5-5-------5----------5-5-------5-------8------------|
D|-----------------------------------------------------|
A|-----------------------------------------------------|
E|-----------------------------------------------------|

E|-----------------------------------------------------|
B|-4-4-6-8-6-4-6-8-8---------3-4-3---3-6-8-------6-8-8-|
G|-5-5-7-8-7-5----------5-5-------5-------8------------|
D|-----------------------------------------------------|
A|-----------------------------------------------------|
E|-----------------------------------------------------|

[Primeira Parte]

Cm
Mas ela veio me xingando

Enchendo o saco, perguntando


Ab
Quem é essa perua aí?
Bb Cm
Mas peraí, mas peraí

Você não paga as minhas contas

Já não é da sua conta


Ab
O que é que eu tô fazendo aqui
Bb G7
Mas peraí, vou te explicar

https://www.cifraclub.com.br/gabriel-diniz/jennifer/imprimir.html 2/3
04/02/2019 Cifra Club - Gabriel Diniz - Jenifer

[Refrão]

Ab Bb
O nome dela é Jennifer
Cm
Eu encontrei ela no Tinder
Ab Bb
E não é minha namorada
Cm
Mas poderia ser

Ab Bb
O nome dela é Jennifer
Cm
Eu encontrei ela no Tinder
Ab Bb
Mas ela faz umas paradas
Cm
O que eu não faço com você

Ab Bb
O nome dela é Jennifer
Cm
Eu encontrei ela no Tinder
Ab Bb
E não é minha namorada
Cm
Mas poderia ser

Ab Bb
O nome dela é Jennifer
Cm
Eu encontrei ela no Tinder
Ab Bb
Mas ela faz umas paradas
Cm
O que eu não faço com você

[Final] Ab Bb Cm
Ab Bb Cm

Ab Bb Cm Fm G7

2
3 4 2 3 4 3 4
2 3
3 4 4

https://www.cifraclub.com.br/gabriel-diniz/jennifer/imprimir.html 3/3