Sie sind auf Seite 1von 2

DOWN WITH THE SICKNESS

Intro(0:10)
G|-xx-xx-xx-xx-xxx-| Play this part 8 times
D|-xx-xx-xx-xx-xxx-|
A|-xx-xx-xx-xx-xxx-|
D|-xx-xx-xx-xx-xxx-|

(0:32)
G|---------------------------------| Play this 8 times.
D|---------------------------------|
A|---------------------------------|
D|-1-4-1-2-1---1-4-1-2-1---1-4-1-1-|

Verse (0:53)

G|----------------------|--------------------|
D|----------------------|--------------------|
A|----------------------|--------------------| Play this 4 times.
D|--11111--11111--1111--|-11111--11111--2222-|

G|---------------------------------| Play this 8 times.


D|---------------------------------|
A|---------------------------------|
D|-1-4-1-2-1---1-4-1-2-1---1-4-1-1-|

Chorus(1:36)

G|---------------|--------------|--------------| -----|
D|---------------|--------------|--------------| |
A|---------------|--------------|--------------| |
D|--1-1121-1-121-|-1-1121-1-222-|-1-1121-1-121-| |
| Play both 2 times.
G|--------------| |
D|--------------| |
A|--------------| |
D|-3--3-31--1-1-| -----|

Verse 2(1:59)

G|----------------------|--------------------|
D|----------------------|--------------------|
A|----------------------|--------------------| Play 4 times.
D|--11111--11111--1111--|-11111--11111--2222-|

G|---------------------------------| Play this 8 times.


D|---------------------------------|
A|---------------------------------|
D|-1-4-1-2-1---1-4-1-2-1---1-4-1-1-|

Chorus 2 (2:45)

G|---------------|--------------|--------------| -----|
D|---------------|--------------|--------------| |
A|---------------|--------------|--------------| |
D|--1-1121-1-121-|-1-1121-1-222-|-1-1121-1-121-| |
| Play both 2 times.
G|--------------| |
D|--------------| |
A|--------------| |
D|-3--3-31--1-1-| -----|

Bridge (3:07)

G|--------|
D|--------|
A|--------| Play this 8 times.
D|-10-9-1-|

G|------------------|
D|------------------|
A|------------------| Play this 3 times.
D|-3-9-10-15-3-9-10-|

G|--------|
D|--------|
A|--------| Play this 4 times.
D|-3-9-10-|

G|------------------|
D|------------------| Play this 3 times.
A|------------------|
D|-3-9-10-15-3-9-10-|

Verse 3 (4:10)

G|------------------------------|
D|-3-6-3-4-3--3-6-3-4-3--3-6-3-4|
A|------------------------------|
D|------------------------------|

Chorus(

G|---------------|--------------|--------------| -----|
D|---------------|--------------|--------------| |
A|---------------|--------------|--------------| |
D|--1-1121-1-121-|-1-1121-1-222-|-1-1121-1-121-| |
| Play both 2 times.
G|--------------| |
D|--------------| |
A|--------------| |
D|-3--3-31--1-1-| -----|