Sie sind auf Seite 1von 5

Cifra Club - Caetano Veloso - Tigresa 07/06/19, 13*02

Tigresa
Caetano Veloso
Composição: Caetano Veloso

Tom: E

[Intro] C#m B
C#m B
C#m B

C#m F#m C#m A


Uma tigresa de unhas negras e íris cor de mel
C#m F#m B7 E F#
Uma mulher, uma beleza que me aconteceu
C#m A C#m G#m
Esfregando a pele de ouro marrom do seu corpo contra o meu
A B7 ( C#m B C#m B )
Me falou que o mal é bom e o bem cruel

C#m F#m C#m A


Enquanto os pelos dessa deusa tremem ao vento ateu
C#m F#m B7 E F#
Ela me conta, sem certeza, tudo que viveu
C#m A C#m G#m
Que gostava de política em mil novecentos e sessenta e seis
A B7 ( C#m B C#m B )
E hoje dança no Frenetic Dancing Days

C#m F#m C#m A


Ela me conta que era atriz e trabalhou no "Hair"
C#m F#m B7 E F#
Com alguns homens foi feliz, com outros foi mulher
C#m A C#m G#m
Que tem muito ódio no coração, que tem dado muito amor
A B7 ( C#m B C#m B )
E espalhado muito prazer e muita dor

C#m F#m C#m A


Mas ela ao mesmo tempo diz que tudo vai mudar
C#m F#m B7 E F#
Porque ela vai ser o que quis, inventando um lugar
C#m A C#m G#m
Onde a gente e a natureza feliz vivam sempre em comunhão
A B7 ( C#m B C#m B )
E a tigresa possa mais do que um leão

https://www.cifraclub.com.br/caetano-veloso/tigresa/imprimir.html Página 1 de 5
Cifra Club - Caetano Veloso - Tigresa 07/06/19, 13*02

C#m F#m C#m A


As garras da felina me marcaram o coração
C#m F#m B7 E F#
Mas as besteiras de menina que ela disse não
C#m A C#m G#m
E eu corri para o violão, num lamento, e a manhã nasceu azul
A B7 ( C#m B C#m B )
Como é bom poder tocar um instrumento

[Solo] C#m F#m C#m A


C#m F#m B7 E F#
C#m A C#m G#m
A B7

E|-----------------------------------------------------|
B|-----------------------------------------------------|
G|---------------11b13--13b--13r11----9------9---------|
D|--------9--9---------------------------11------------|
A|---9h11----------------------------------------------|
E|-----------------------------------------------------|

E|-----------------------------------------------------------------------------------
-----------|
B|-----------------------12----------12---------12--12-------------------------------
-----------|
G|----11h13------11h13--------11h13------11h13----------13r11--9------11--11b13-----9
----11--9--|
D|-----------------------------------------------------------------11----------------
-11--------|
A|-----------------------------------------------------------------------------------
-----------|
E|-----------------------------------------------------------------------------------
-----------|

E|--------------12/14--9----9-------9----9----9----9---------------------------|
B|----14r12--9--------------12b14---14b--14b--14b--14r12--9--11p9-----11--9----|
G|-----------------------------------------------------------11p9-----11--9----|
D|-----------------------------------------------------------------11----------|
A|-----------------------------------------------------------------------------|
E|-----------------------------------------------------------------------------|

E|-----------------------------------------------|
B|------9-9----9---9\0---------------------------|

https://www.cifraclub.com.br/caetano-veloso/tigresa/imprimir.html Página 2 de 5
Cifra Club - Caetano Veloso - Tigresa 07/06/19, 13*02

G|------9-9----9---9\0---------------------------|
D|--11---------11--11----------------------------|
A|-----------------------------------------------|
E|-----------------------------------------------|

( C#m B )
( C#m B )

C#m F#m C#m A


Uma tigresa de unhas negras e íris cor de mel
C#m F#m B7 E F#
Uma mulher, uma beleza que me aconteceu
C#m A C#m G#m
Esfregando a pele de ouro marrom do seu corpo contra o meu
A B7 ( C#m B C#m B )
Me falou que o mal é bom e o bem cruel

C#m F#m C#m A


Enquanto os pelos dessa deusa tremem ao vento ateu
C#m F#m B7 E F#
Ela me conta, sem certeza, tudo que viveu
C#m A C#m G#m
Que gostava de política em mil novecentos e sessenta e seis
A B7 ( C#m B C#m B )
E hoje dança no Frenetic Dancing Days

C#m F#m C#m A


Ela me conta que era atriz e trabalhou no "Hair"
C#m F#m B7 E F#
Com alguns homens foi feliz, com outros foi mulher
C#m A C#m G#m
Que tem muito ódio no coração, que tem dado muito amor
A B7 ( C#m B C#m B )
E espalhado muito prazer e muita dor

C#m F#m C#m A


Mas ela ao mesmo tempo diz que tudo vai mudar
C#m F#m B7 E F#
Porque ela vai ser o que quis, inventando um lugar
C#m A C#m G#m
Onde a gente e a natureza feliz vivam sempre em comunhão
A B7 ( C#m B C#m B )
E a tigresa possa mais do que um leão

C#m F#m C#m A

https://www.cifraclub.com.br/caetano-veloso/tigresa/imprimir.html Página 3 de 5
Cifra Club - Caetano Veloso - Tigresa 07/06/19, 13*02

As garras da felina me marcaram o coração


C#m F#m B7 E F#
Mas as besteiras de menina que ela disse não
C#m A C#m G#m
E eu corri para o violão, num lamento, e a manhã nasceu azul
A B7 ( C#m B C#m B )
Como é bom poder tocar um instrumento

A B B7 C#m E F#
1 4ª 1
1 2 3 2 3 4 2 2 3
3 4 2
2 3 4 3 4

F#m G#m

3 4
3 4

https://www.cifraclub.com.br/caetano-veloso/tigresa/imprimir.html Página 4 de 5
Cifra Club - Caetano Veloso - Tigresa 07/06/19, 13*02

https://www.cifraclub.com.br/caetano-veloso/tigresa/imprimir.html Página 5 de 5