Sie sind auf Seite 1von 3

Wolke 4 - Marv And Philipp Dittberner

Akustik Version (MDR Jump) by batucaca


(Capo: 4.Bund)

Intro: F C E Am

F C E Am
Lass' uns die Wolke 4 bitte nie mehr verlassen
F C E Am
Weil wir auf Wolke 7 viel zu viel verpassen
F C E Am
Ich war da schon einmal, bin zu tief gefall'n
F C E Am
Lieber Wolke 4 mit Dir als unten wieder ganz allein'

Instrumental: F, C, E, Am
e|-----------------------------------|
B|-----------------------------------|
G|-----------------------------------|
D|-3-2-0-2-0-2-0----------3-2-0-2----|
A|---------------3-2-0---------------|
E|-----------------------------------|

F C E Am
Lass' uns die Wolke 4 bitte nie mehr verlassen
F C E Am
Weil wir auf Wolke 7 viel zu viel verpassen
F C E Am
Ich war da schon einmal, bin zu tief gefall'n
F C E Am
Lieber Wolke 4 mit Dir als unten wieder ganz allein'

F C E Am
Ziemlich gut, wie wir das so gemeistert haben
F C E Am
Wie wir die großen Tage unter kleinen Ding'n begraben
F C E Am
Der Moment, der die Wirklichkeit maskiert
F C E Am
Es tut nur gut zu wissen, dass das wirklich funktioniert

F C E Am
Lass' uns die Wolke 4 bitte nie mehr verlassen
F C E Am
Weil wir auf Wolke 7 viel zu viel verpassen
F C E Am
Ich war da schon einmal, bin zu tief gefall'n
F C E Am
Lieber Wolke 4 mit Dir als unten wieder ganz allein'

F C E Am x2

(langsam)
F C E Am
Hab' nicht geseh'n, was da vielleicht noch kommt,
F C E Am
Was am Ende dann mein Leben -und mein kleines Herz zerbombt
F C E Am
Denn der Moment ist das, was ist und zeigt
F C E Am
Bis die Tage ziemlich dunkel sind, doch dein Lächeln bleibt,
F C E Am

F C E Am
.................., ........ doch Dein Lächeln bleibt

F C E Am
Lass' uns die Wolke 4 bitte nie mehr verlassen
F C E Am
Weil wir auf Wolke 7 viel zu viel verpassen
F C E Am
Ich war da schon einmal, bin zu tief gefall'n
F C E Am
Lieber Wolke 4 mit Dir als unten wieder ganz allein'....

F C E Am
Lieber Wolke 4 mit Dir als unten wieder ganz allein'....

F C E Am
Lieber Wolke 4 mit Dir als unten wieder ganz allein'....

F C E Am
Lass' uns die Wolke 4 bitte nie mehr verlassen
F C E Am
Weil wir auf Wolke 7 viel zu viel verpassen

F C E Am
Ich war da schon einmal, bin zu tief gefall'n
F C E Am
Lieber Wolke 4 mit Dir als unten wieder ganz allein'
F C E Am
Lieber Wolke 4 mit Dir als unten wieder ganz allein'
F C E Am
Lieber Wolke 4 mit Dir als unten wieder ganz allein'

F C E Am 6x

Play Music

comments
print report bad tab
2 comments total.

0 reply
Pfeily wrote on April 16 2015, 11:12 pm

Sehr gut!
Nur eine kleine Anmerkung.

Beim Instrumental ist im ersten Teil auf der D-Saite die letze 2-0 zu viel.
Richtig wäre es:

e|-----------------------------------|
B|-----------------------------------|
G|-----------------------------------|
D|-3-2-0-2-0---------3-2-0-2---------|
A|------------3-2-0------------------|
E|-----------------------------------|

Ansonsten spitze aufgeschrieben! Danke dafür :)

0 reply
Chankwalker wrote on May 17 2015, 04:26 am

To me the first one seems to be better but im not quite sure.

e|-------------------------------------------|
B|-------------------------------------------|
G|-------------------------------------------|
D|2s3-2---0-2-0--------2s3-2-2p0-2-----------|
A|--------------3-2--0-----------------------|
E|-------------------------------------------|

e|-------------------------------------------|
B|-------------------------------------------|
G|-------------------------------------------|
D|0h3-2---0-2-0--------0h3-2-2p0-2-----------|
A|--------------3-2--0-----------------------|
E|-------------------------------------------|