Sie sind auf Seite 1von 4

Será Que Estoy Enamorado Key of C

Los Plebes del Rancho


E|-----/5--5--5--5--5-----3--3----3--3--3--
B|--1--/6--6--6--6--6-----5--3h5--3--3--3--
G|-----------------------------------------
D|-----------------------------------------
A|-----------------------------------------
E|-----------------------------------------
E|--0--3--3--3--5--3-----1--1--3--1--0--0--
B|--1--5--5--5--6--5-----3--3--5--3--1--1--
G|-----------------------------------------
D|-----------------------------------------
A|-----------------------------------------
E|-----------------------------------------

E|-----/5--5--5--5--5-----3--3----1--
B|--1--/6--6--6--6--6-----5--3h5--3--
G|-----------------------------------
D|-----------------------------------
A|-----------------------------------
E|-----------------------------------
E|--0--0--0--1--0--0-0--------------------------------
B|--0--0--1--3--0--1-1--------------------------------
G|-----------------------2-0--------------------------
D|---------------------------3-2-0-----5-----0--2--3--
A|----------------------------------3-----3-----------
E|----------------------------------------------------

English-Spanish Conversion: Ingles a Español Conversion:


A=LA
B=Si
C=DO
D=RE
E=Mi
F=FA
G=SOL
"#"=sostenido
"b"=bemol
Intro Acordes:
F G C G/B Am
FGC

F
Cuando las horas
G
Se me van

Page 1
C G/B Am
Sin mirarte

F
Me desespero
G
Y es que me muero
C
Por buscarte
F
Que tienes tu
G
En tu mirada
C G/B Am
En tu cuerpo, en tu piel
F
Tienes los labios
G
Para hacerme
C
Estremecer..
F G
Será Que Estoy Enamorado
C G/B Am
Y no me habia dado cuenta
F G
Sera que era por tu belleza
C G/B Am
Que habia perdido la cabeza
F G
Será Que Estoy Enamorado
C G/B Am
Pues tienes tantas cosas bellas
F G
Mi corazon es quien te habla
C C7
Mi reyna..

(Intro Acordes con el requinto de nuevo)


F G
Será Que Estoy Enamorado
C G/B Am
Y no me habia dado cuenta
F G
Sera que era por tu belleza

Page 2
C G/B Am
Que habia perdido la cabeza
F G
Será Que Estoy Enamorado
C G/B Am
Pues tienes tantas cosas bellas
F G
Mi corazon es quien te habla
C
Mi reyna..
-----------------------------------
KEY/CLAVE:
Left Side Numbers = Fret numbers
Bottom Numbers = Finger numbers (index finger is 1, middle finger is
2, ring finger is 3, pinky is 4)
X on top = don't play the string, mute it
'O' on top = this string is played openly
If theres not a number on the bottom (usually on the 6th string, the
fat one), this means to use your thumb if you can.
Numeros al izquierda = los trastes
Numeros debajo = los dedos (primer dedo, segundo dedo, tercer dedo,
y el dedo chico que viene siendo el cuarto dedo)
'X' arriba = No toques esta cuerda, que no suene para nada
'O' arriba = esta cuerda se toca al aire o "abierta"
- Si no hay numero debajo de la cuerda (la sexta cuerda, la cuerda
mas gorda) esto quiero decir que uses tu dedo pulgar si es que
puedes.

C F G G/B Am

1 1 3 1 1
2 2 4 2 2
3 3 5 3 3
4 4 6 4 4
5 5 7 5 5
3 2 1 3 2 1 1 3 2 1 1 1 3 2 3 1

Page 3
C7

1
2
3
4
5
3 2 4 1

Page 4