Sie sind auf Seite 1von 1

Rating: (6)

Pasensya Na by CUESHE
Tab by: KM
E-mail: v_impulse12@yahoo.com.ph

First time ko poh gumawa ng tab eh, kaya kng may mali, PASENSYA NA.. ^_^
Dedicated to sa mahal kong si............ SECRET!!!! hehehe!! : )

Intro and Verse 1:


|-------------------------------------------------------------------|
|-------------------------------------------------------------------|
|-------------------------------------------------------------------|
|-------6---6---6---------2---2---2----------4--4-4---1-1-1---------|
|-----6-----------------2------------------4------------------------|
|---4-----------------0------------------2--------------------------|

Chorus:
|--2....-------------------2....-------0....--------------|
|--2....-------------------2....-------0....--------------|
|--4....-------4....-------3....-------1....--------------|
|--4....-------6....-------4....-------2....--------------|
|--2....-------6....-------4....-------2....--------------|
|--2....-------4....-------2....-------0....--------------|

Interlude and Verse 2: Same as Verse 1

Repeat Chorus

Adlib:
|-----4---------6--------7--------------------------------|
|---4---4-----6---6----7---7---7-6-6-7-6-6----------------|
|-4---------6--------8---------------------8--------------| X2
|---------------------------------------------------------|
|---------------------------------------------------------|
|---------------------------------------------------------|

|-----11---9-9-------12-11---12-11---12-11---12-11--12-11----------------------|
|---9-----------12--------12------12------12-----12------12--------------------|
|------------------------------------------------------------------------------|
|-------------------------------------------------------------6(let ring)s1----|
|------------------------------------------------------------------------------|
|------------------------------------------------------------------------------|

Then play Verse....


Repeat Chorus 2X

Outro: Same as Intro

FIN! Rate nyo poh! Tnx!

Greet ko lng mga ka berks ko dyan sa University of La Salette sa Santiago!


Especially 1st year ECE Students (2007)!

Tap a star to rate