Sie sind auf Seite 1von 4

Tabbed by: GCT

Rating: (2)
PREAMBLE:This song is nice.Support OPM. Don't buy pirated CD's if you
are trying to buy an OPM record. TY.

For violent reactions, harassmet letters, death threats, suicide


notes, love letters, please don't send to photang_cannon@yahoo.com.

Hi sa medtech society sa Silliman University. Hi sa mga friends ko


and brods sa UP Diliman. Hi sa mga SIOLERS esp those chillng at the
the 3rd floor of some apartment lapit sa Ateneo. (Jord, Hao, Marv,
Karlo and Chris), special mention din ung friend ko sa Alzate. Hehe.

lastly (haba noh?) im not claiming that this is 100% accurate. This
is just how i play the song.

Rock on. \m/_

INTRU:

Getar 1: (acoustic, 0:00 - 0:12)


E A E E
e|---0---0---0---0---|
B|---0---2---0---0---|
G|---1---2---1---1---|
D|---2---2---2---2---|
A|---2---0---2---2---|
E|-------------------|

Getar 2: (acoustic, 0:00 - 0:12)


e|------------------------------------------------|
B|------------------------------------------------|
G|--4-----4-4-4-4-4-4-4-4----4-6-6-4-6-4-6-4-6-6--|
D|--4h6-6-4-6-4-6-4-6-4-6-6--7-7-7-7-7-7-7-7-7-7--|
A|---------------------------7-7-7-7-7-7-7-7-7-7--|
E|------------------------------------------------|

Getar 1: (Mysteriously transforms into an electric getar. 0:13)*


E A E E
e|---0---0---0---0---|
B|---0---2---0---0---|
G|---1---2---1---1---|
D|---2---2---2---2---|
A|---2---0---2---2---|
E|-------------------|

Getar 2: (Magically transforms into an electric getar. 0:13)*


e|------------------------------------------------|
B|------------------------------------------------|
G|------------------------------------------------|
D|-4-6-6-4-6-4-6-4-6-4-6-6-6-7-7-6-7-6-7-6-7-9----|
A|------------------------------------------------|
E|------------------------------------------------|

e|------------------------------------------------|
B|------------------------------------------------|
G|------------------------------------------------|
D|-4-6-6-4-6-4-6-4-6-4-6-6/2----------------------|
A|------------------------------------------------|
E|------------------------------------------------|

VERSE: 0:25

Getar 1 only:
E A E E
e|---0---0---0---0---|
B|---0---2---0---0---|
G|---1---2---1---1---|
D|---2---2---2---2---|
A|---2---0---2---2---|
E|-------------------|

E
i believe
A E
we shouldn't let the moment pass us by
E
life's too short
A E
we shouldn't wait for the water to run dry

Getar 1:
B c#m D E
e|---2---4---5---7---|
B|---4---5---7---9---|
G|---4---6---7---9---|
D|---4---6---7---9---|
A|---2---4---5---7---|
E|-------------------|

Getar 2:
B c#m D E
e|---7---9----10---12---|
B|---7---9----10---12---|
G|---8---9----11---13---|
D|---9---11---12---14---|
A|---9---11---12---14---|
E|----------------------|

B
think about it
C#m D
cause we only have one shot at destiny

all i'm asking


E
could it possibly be you and me? (never! che!!)

CHORUS:
A c#m D Bm
e|---5---4----5---2---|
B|---5---5----7---3---|
G|---6---6----7---4---|
D|---7---6----7---4---|
A|---7---4----5---2---|
E|---5----------------|

A C#m D
so if you'd still go, i'll understand
Bm A
would you give me something just to hold on to?
c#m D
and if you'll stay, i'll hold your hand
Bm
cause i'm truly, madly, crazy in love with you.

[DO INTRO]

[Verse Chord Sequence]

E
time has come
A E
for us to go our separate ways
E
God forbid
A E
but my mind is going crazy today

B
i feel so cold
C#m D
feel so numb, i'm having nightmares but i'm awake

help me Lord
E
fight this loneliness, take this pain away

[Repeat chorus]

Getar SOlo: Here We Go!. 2:38

GUitar 1:
C D E E
e|--3--5--7--7-|
B|--5--7--9--9-|
G|--5--7--9--9-|
D|--5--7--9--9-|
A|--3--5--7--7-|
E|-------------|

Guitar 2:
e|------------------------|
B|------------------------|
G|--9-9/12\11-11/14--14\7-|
D|--x-x-x--x--x--x---x----|
A|--7-7/10\9--9-/12--12\5-|
E|------------------------|

e|--12p0----14p0----15p0----17p0--15p0--14p0-----|
B|-------0-------0------0-------0----------------|
G|-----------------------------------------------|
D|-----------------------------------------------| 2x
A|-----------------------------------------------|
E|-----------------------------------------------|

e|--------------------12s15---14-----------------|
B|--------------------------------15-------------|
G|--------------12-----------------------14-12---|
D|-----------------------------------------------|
A|--5s7---7s10-----------------------------------|
E|-----------------------------------------------|

e|--15p14-------12----------17----15---14---12---|
B|--------15-12---15-12-----------------------12-|
G|----------------------14----14----14---14------|
D|-----------------------------------------------|
A|-----------------------------------------------|
E|-----------------------------------------------|

[Repeat chorus]

Post chorus chorus like melody: (use same chorus chords)

now that you're gone, i'm all alone


i'm still hoping that you would come back home
don't care how long, but i'm willing to wait
cause i'm truly, madly, crazy in love with you

-ok! bravo! tapos mo na.


photang_cannon@yahoo.com / wendy.clear.nostalgia@yahoo.com

Tap a star to rate