Sie sind auf Seite 1von 3

Artist:Kamikazee

Song:Narda
Transcribed by:EugeneI.

Intro prt 1:
G
e| -----0----0---0----------0----0---0-----------0----0-----0--------|
B| ------3----3---3----------3----3---3-----------3----3-----3-------|
G| ------------------------------------------------------------------|
D| -0-0----0----0----------------------------------------------------|
A| ---------------------2-2----2--------2----------------------------|
E| ----------------------------------------3-3-3----3-----3----------|

e| ---------0---2~-------|
B| ----------3--0~-------|
G| ----------------------| Repeat This 1x
D| ----------------------|
A| ---0-0-0--------------|
E| -3--------------------|

Intro prt 2:
D,B,G,A,B,C#M
e| --------------------------------------------------------------|
B| --------------------------------------------------------------|
G| -x--777777777-------------------------------------------------| Repeat
D| -x--777777777--999999999--5555555--7777777--99999--11-11-11---| This
A| -x--555555555--999999999--5555555--7777777--99999--11-11-11---| 2x
E| -x-------------777777777--3333333--5555555--77777--9---9--9---|

Gtr 2 Lead:
e| --------------------------------------------------------------|
B| --------------------------------------------------------------|
G| --------------------------------------------------------------| Repeat
D| -14-14-14--12-12-12--14-14-14--12-12-12-12--14--12-12-12------| This
A| --------------------------------------------------------------| 4x
E| --------------------------------------------------------------|

Verse:
G
e| -----0----0---0----0--0----------0----0----0----0---0-----------|
B| ------3----3---3----3---3---------3----3----3----3---3----------|
G| ----------------------------------------------------------------|
D| ---0----0----0---0----------------------------------------------|
A| -------------------------------2----2----2----2-----------------|
E| ----------------------------------------------------------------|

e| ----0----0-----0----0---0------0-----0------3-----2----3-2-0-----|
B| -----3----3-----3----3---3------3-----3------0-----0-------------|
G| -----------------------------------------------------------------|
D| -----------------------------------------------------------------|
A| -----------------------------0-----0-----------------------------|
E| --3----3----3-----3----------------------------------------------|

Pre-Chorus prt 1:Mapapansin kaya,sa dami ng iyong ginagawa....


D,B,G,A
e| -------------------------------------------------------|
B| -------------------------------------------------------|
G| -777777777---------------------------------------------|
D| -777777777--999999999--5555555--7777777777777----------|
A| -555555555--999999999--5555555--7777777777777----------|
E| ------------777777777--3333333--5555555555555----------|
......... ......... ....... .............

Pre-Chorus prt 2:Awit na nananawagan,baka sakaling napakikinggan....


D,B,G,A,B,C#M
e| -------------------------------------------------------------|
B| -------------------------------------------------------------|
G| ---777777777-------------------------------------------------|
D| ---777777777--999999999--5555555--7777777--99999--11-11-11---|
A| ---555555555--999999999--5555555--7777777--99999--11-11-11---|
E| --------------777777777--3333333--5555555--77777---9--9--9---|

Chorus:Play the intro prt 2 w/lead:


Repeat Verse:
Repeat Pre-Chorus:
Repeat Chorus:

Bridge:Play the verse then

Gtr 1:
Tumalon kaya ako sa bangin...
e|---------------------------------------------------------------|
B|---------------------------------------------------------------|
G|--7---7777777--------------------------------------------------|
D|--7---7777777--999999999--55555555555----777777777-------------|
A|--5---5555555--999999999--55555555555----777777777-------------|
E|---------------777777777--33333333333----555555555-------------|
. ....... ..... ...... .........

Gtr 2 Fill Lead:


e|----------------------------------------------------------------|
B|----------------------------------------------------------------|
G|----------------------------------------------------------------|
D|--14-14-14--12-12-12------14-14-14--12-12-12---14-14-14-14-14---|
A|----------------------------------------------------------------|
E|----------------------------------------------------------------|

Darating kaya,sa dami ng iyong ginagawa...


Gtr 1:
e|----------------------------------------------------------|
B|----------------------------------------------------------|
G|---7777777------------------------------------------------|
D|---7777777--999999999--55555555555----7~-777777-----------|
A|---5555555--999999999--55555555555----7~-777777-----------|
E|------------777777777--33333333333----5~-555555-----------|

Gtr 2:
e|---------------------------------------------------------- ----|
B|---------------------------------------------------------- ----|
G|---------------------------------------------------------- ----|
D|--12-12-12--11-11-11--12-12-12--11-11-11--12-11-12-11----- 3x -7~-|
A|---------------------------------------------------------- Then ----|
E|---------------------------------------------------------- ----|

Repeat the Pre-chorus Prt 2:


Repeat the Chorus w/lead 2x:

The Last Chord is D,let it ring~


Source: http://tabs.ultimate-guitar.com/k/kamikazee/darna_ver2_tab.htm