Sie sind auf Seite 1von 6

Ozean tab by AnnenMayKantereit

ULTIMATE
GUITAR
COM
Tuning: E A D G B E

[Intro]

Live/Hennings Version:

C
e|--------------------------------------|
B|--------1--------1--------1--------1--|
G|----0--------0--------0--------0------|
D|------2--------2--------2--------2----|
A|--3--------3--------3--------3--------|
E|--------------------------------------|

Studio Recording:

C
e|--0--------0--------0--------0------|
B|--1-1------1--------1-1------1------|
G|--0---0----0--------0---0----0------|
D|--2-----3--2--------2-----3--2------|
A|--3--------3--------3--------3------|
E|------------------------------------|

[Strophe 1]

C Cadd11 C Cadd11
e|---------------------------------------------------------------------------|
B|--------1--------1--------1--------1--------1--------1--------1--------1---|
G|----0--------0--------0--------0--------0--------0--------0--------0-------|
D|------2--------2--------3--------3--------2--------2--------3--------3-----|
A|--3--------3--------3--------3--------3--------3--------3--------3---------|
E|---------------------------------------------------------------------------|
Ich hab' gedacht,ich hab' sie abgehängt

C Cadd11 C Cadd11
e|---------------------------------------------------------------------------|
B|--------1--------1--------1--------1--------1--------1--------1--------1---|
G|----0--------0--------0--------0--------0--------0--------0--------0-------|
D|------2--------2--------3--------3--------2--------2--------3--------3-----|
A|--3--------3--------3--------3--------3--------3--------3--------3---------|
E|---------------------------------------------------------------------------|
Aber sie holt mich immer wieder ein

C Cadd11 C Cadd11
e|---------------------------------------------------------------------------|
B|--------1--------1--------1--------1--------1--------1--------1--------1---|
G|----0--------0--------0--------0--------0--------0--------0--------0-------|
D|------2--------2--------3--------3--------2--------2--------3--------3-----|
A|--3--------3--------3--------3--------3--------3--------3--------3---------|
E|---------------------------------------------------------------------------|
Sie tut mir bis heute weh Und hat mich so oft abgelenkt

C Cadd11 C Cadd11
e|---------------------------------------------------------------------------|
B|--------1--------1--------1--------1--------1--------1--------1--------1---|
G|----0--------0--------0--------0--------0--------0--------0--------0-------|
D|------2--------2--------3--------3--------2--------2--------3--------3-----|
A|--3--------3--------3--------3--------3--------3--------3--------3---------|
E|---------------------------------------------------------------------------|
Vielleicht brauch' ich noch mehr Zeit

Page 1/5
C Cadd11 C Cadd11
e|---------------------------------------------------------------------------|
B|--------1--------1--------1--------1--------1--------1--------1--------1---|
G|----0--------0--------0--------0--------0--------0--------0--------0-------|
D|------2--------2--------3--------3--------2--------2--------3--------3-----|
A|--3--------3--------3--------3--------3--------3--------3--------3---------|
E|---------------------------------------------------------------------------|
Ich will nicht traurig sein und ich will nicht drüber reden

C Cadd11 C Cadd11
e|---------------------------------------------------------------------------|
B|--------1--------1--------1--------1--------1--------1--------1--------1---|
G|----0--------0--------0--------0--------0--------0--------0--------0-------|
D|------2--------2--------3--------3--------2--------2--------3--------3-----|
A|--3--------3--------3--------3--------3--------3--------3--------3---------|
E|---------------------------------------------------------------------------|
Ich will der ganzen Scheiße nicht nochmal begegnen

C Cadd11 C Cadd11
e|--------------------------------------------------------------0------------|
B|--------1--------1--------1--------1---------1-------1-----------------1---|
G|----0--------0--------0--------0--------0--------0--------0--------0-------|
D|------2--------2--------3--------3--------2--------2--------3--------3-----|
A|--3--------3--------3--------3--------3--------3--------3--------3---------|
E|---------------------------------------------------------------------------|
Ich will nicht traurig sein und ich will nicht drüber reden

[Refrain]

Cadd11
e|--------0--------0---------------|
B|---------------------------------|
G|----0--------0-------------------|
D|------3--------3-----------------|
A|--3--------3---------------------|
E|---------------------------------|
Ich will ein

C E/B Am
e|-------------------------------------------------------------------|
B|--------1--------0-------0-------0-------1-------1-------1-------0-|
G|----0--------0-------1-------1-------2-------2-------2-------2-----|
D|------2--------0-------2-------0-------2-------2-------2-------0---|
A|--3--------3-------2-------2-------0-------0-------0-------0-------|
E|-------------------------------------------------------------------|
Meer zwischen mir und meiner Vergang'nheit

C E/B Am
e|-------------------------------------------------------------------|
B|--------1--------0-------0-------0-------1-------1-------1-------0-|
G|----0--------0-------1-------1-------2-------2-------2-------2-----|
D|------2--------0-------2-------0-------2-------2-------2-------0---|
A|--3--------3-------2-------2-------0-------0-------0-------0-------|
E|-------------------------------------------------------------------|
Ein Meer zwischen mir und allem, was war Ich will ein

Page 2/5
C E/B Am
e|-------------------------------------------------------------------|
B|--------1--------0-------0-------0-------1-------1-------1-------0-|
G|----0--------0-------1-------1-------2-------2-------2-------2-----|
D|------2--------0-------2-------0-------2-------2-------2-------0---|
A|--3--------3-------2-------2-------0-------0-------0-------0-------|
E|-------------------------------------------------------------------|
Meer zwischen mir und meiner Vergang'nheit

C E/B Am
e|-------------------------------------------------------------------|
B|--------1--------0-------0-------0-------1-------1-------1-------0-|
G|----0--------0-------1-------1-------2-------2-------2-------2-----|
D|------2--------0-------2-------0-------2-------2-------2-------0---|
A|--3--------3-------2-------2-------0-------0-------0-------0-------|
E|-------------------------------------------------------------------|
Ein Meer zwischen mir und allem, was war

[Übergang]

F/A G7
e|---------0---------------0---------------0---------------0---------------0-------0-3---|
B|-----------------1---------------1---------------0---------------0---------------------|
G|-----2-------2-------2-------2-------0-------0-------0-------0-------0-------0---------|
D|-------3-------3-------3------- 3------3-------3-------3-------3-------3-------3-------|
A|---0-------0-------0------ 0-----------------------------------------------------------|
E|-----------------------------------3-------3-------3-------3-------3-------3-----------|

[Strophe 2]

C Cadd11 C Cadd11
e|---------------------------------------------------------------------------|
B|--------1--------1--------1--------1--------1--------1--------1--------1---|
G|----0--------0--------0--------0--------0--------0--------0--------0-------|
D|------2--------2--------3--------3--------2--------2--------3--------3-----|
A|--3--------3--------3--------3--------3--------3--------3--------3---------|
E|---------------------------------------------------------------------------|
Ich liebe meine Freunde Und wie wir miteinander sind

C Cadd11 C Cadd11
e|---------------------------------------------------------------------------|
B|--------1--------1--------1--------1--------1--------1--------1--------1---|
G|----0--------0--------0--------0--------0--------0--------0--------0-------|
D|------2--------2--------3--------3--------2--------2--------3--------3-----|
A|--3--------3--------3--------3--------3--------3--------3--------3---------|
E|---------------------------------------------------------------------------|
Trotzdem muss ich möglichst schnell irgendwo anders hin

C Cadd11 C Cadd11
e|---------------------------------------------------------------------------|
B|--------1--------1--------1--------1--------1--------1--------1--------1---|
G|----0--------0--------0--------0--------0--------0--------0--------0-------|
D|------2--------2--------3--------3--------2--------2--------3--------3-----|
A|--3--------3--------3--------3--------3--------3--------3--------3---------|
E|---------------------------------------------------------------------------|
Irgendwo, wo im Winter die Sonne scheint

Page 3/5
C Cadd11 C Cadd11
e|---------------------------------------------------------------------------|
B|--------1--------1--------1--------1--------1--------1--------1--------1---|
G|----0--------0--------0--------0--------0--------0--------0--------0-------|
D|------2--------2--------3--------3--------2--------2--------3--------3-----|
A|--3--------3--------3--------3--------3--------3--------3--------3---------|
E|---------------------------------------------------------------------------|
Wo ich allein und ohne Vergangenheit

C Cadd11 C Cadd11
e|---------------------------------------------------------------------------|
B|--------1--------1--------1--------1--------1--------1--------1--------1---|
G|----0--------0--------0--------0--------0--------0--------0--------0-------|
D|------2--------2--------3--------3--------2--------2--------3--------3-----|
A|--3--------3--------3--------3--------3--------3--------3--------3---------|
E|---------------------------------------------------------------------------|
von vorne anfang'n kann

C Cadd11 C Cadd11
e|--------------------------------------------------------------0------------|
B|--------1--------1--------1--------1---------1-------1-----------------1---|
G|----0--------0--------0--------0--------0--------0--------0--------0-------|
D|------2--------2--------3--------3--------2--------2--------3--------3-----|
A|--3--------3--------3--------3--------3--------3--------3--------3---------|
E|---------------------------------------------------------------------------|
Vielleicht lerne ich irgendwann, verzeih'n

[Refrain]

Cadd11
e|--------0--------0---------------|
B|---------------------------------|
G|----0--------0-------------------|
D|------3--------3-----------------|
A|--3--------3---------------------|
E|---------------------------------|
Ich will ein

C E/B Am
e|-------------------------------------------------------------------|
B|--------1--------0-------0-------0-------1-------1-------1-------0-|
G|----0--------0-------1-------1-------2-------2-------2-------2-----|
D|------2--------0-------2-------0-------2-------2-------2-------0---|
A|--3--------3-------2-------2-------0-------0-------0-------0-------|
E|-------------------------------------------------------------------|
Meer zwischen mir und meiner Vergang'nheit

C E/B Am
e|-------------------------------------------------------------------|
B|--------1--------0-------0-------0-------1-------1-------1-------0-|
G|----0--------0-------1-------1-------2-------2-------2-------2-----|
D|------2--------0-------2-------0-------2-------2-------2-------0---|
A|--3--------3-------2-------2-------0-------0-------0-------0-------|
E|-------------------------------------------------------------------|
Ein Meer zwischen mir und allem, was war Ich will ein

Page 4/5
C E/B Am
e|-------------------------------------------------------------------|
B|--------1--------0-------0-------0-------1-------1-------1-------0-|
G|----0--------0-------1-------1-------2-------2-------2-------2-----|
D|------2--------0-------2-------0-------2-------2-------2-------0---|
A|--3--------3-------2-------2-------0-------0-------0-------0-------|
E|-------------------------------------------------------------------|
Meer zwischen mir und meiner Vergang'nheit

C E/B Am
e|---------------------------------------------------------0---------|
B|--------1--------0-------0-------0-------1-------1---------------0-|
G|----0--------0-------1-------1-------2-------2-------2-------2-----|
D|------2--------0-------2-------0-------2-------2-------2-------0---|
A|--3--------3-------2-------2-------0-------0-------0-------0-------|
E|-------------------------------------------------------------------|
Ein Meer zwischen mir und allem, was war

[Hook] 6x

C E/B Am
e|--------0---------------0----------------0---------------0---------|
B|-----------------0---------------0---------------1---------------0-|
G|----0--------0-------1-------1-------2-------2-------2-------2-----|
D|------2--------0-------2-------0-------2-------2-------2-------0---|
A|--3--------3-------2-------2-------0-------0-------0-------0-------|
E|-------------------------------------------------------------------|
Ich will ein'n Ozean

Page 5/5