Sie sind auf Seite 1von 11

The Unforgiven II

Metallica

Versão: Principal Auto rolagem

Tom: C

[Intro] Am C G Em
Am C G Em
Am C G Em
Am C G Em

e|---------------------------------------------------------|
B|---------------------------------------------------------|
G|---------------------------------------------------------|
D|--7--7/9-9/10-12--14-12-10-12/10--7/9-9/10-12--12-9/10-9-|
A|--7--x-x-x-x--x---x--x--x--x-x---x-x-x--x--x---x-x--x-x--|
E|--5--5/7-7/8--10--12-10-8--10/8--

E|-5/7-7/8--10--10-7/8-7--|

e|----------------------|
B|----------------------|
G|----------------------|
D|--2---5------5-----2--|
A|--0---3------5-----2--|
E|-------------3-----0--|

[Primeira Parte]

e|---------0---------------------3-3--------------------|
B|----------1----------------0h1-3-3--3/5/3-1-0---1/3/1-|
G|------2-----------------0-----------------------2/4/2-|
D|----2-----------------2-------------------------------|
A|--0------------0-2-3----------------------------------|
E|---------------------------------

E|--3----------0-------|

e|-------1--------------------------------0--|
B|--------3-------------------------------1--|
G|-----2----2----0----------0-------0-----2--|
D|---0-------------3------0-----------3---2--|
A|--------------3-------2---------3-------0--|
E|------------1-------3---------1-

Am C G
Lay beside me
Em Am
Tell me what they've done
C G
And speak the words I wanna hear
Em Am
To make my demons run
C G
The door is locked now
Em Am
But it's opened if you're true
C G
If you can understand the me
Em ( Am C
Then I can understand the you
G Em )

Am C G
Lay beside me
Em Am
Under wicked skies
C G
Through back of day, dark of night
Em Am
We share this paralyse
C G
The door cracks open

[Ponte]

e|------------------------------------------|
B|--0--------------------------------------0|
G|--4--5-5--5---4-4--4--7-7--7-7-7--5-5-5--4|
D|--7--7-7--7---5-5--5--5-5--5-5-5--5-5-5--5|
A|--7--7-7--7---2-2--2----------------------|
E|---------------------------------

e|---------------------------------------------|
B|--0------------------------------------------|
G|--4--5-5--5---4-4--4--7-7--7-7-7--7-5-4-5-4--|
D|--7--7-7--7---5-5--5--5-5--5-5-5------------7|
A|--7--7-7--7---2-2--2-------------------------|
E|---------------------------------

Em Am
But there's no sun shining through
C G
Black heart scarring darker still
Em Dm
Still no sun shining through
F G
No no sun shining through
F Am
No no sun shining

[Refrão]

e|------------------------------------|
B|------------------------------------|
G|------2--------5-----------------9--|
D|----2---2----5---5------5------9---9|
A|--0--------3----------5---5--7------|
E|--------------------3------------

e|------------------------------------|
B|------------------------------------|
G|--4-2-4-2--7-5-7-5-----------9-7-9-7|
D|--------------------7-5-7-5---------|
A|------------------------------------|
E|---------------------------------

Am G
What I've felt, what I've known
C E7
Turn the pages turn the stone
Am G
Behind the door should I open it
C E7
for you?
Am G
What I've felt, what I've known
C E7
Sick and tired I stand alone
Am
Could you be there? Cause I'm the
G C
one who waits for you
E7 ( Am C
Or are you unforgiven, too?
G Em )

Am C G
Come lay beside me
Em Am
This won't hurt I swear
C G
She loves me not she loves me still
Em Am
But she'll never love again
C
She lay beside me
G Em Am
But she'll be there when I'm gone
C G
Black heart scarring darker still
E7 Dm
Yeah she'll be there when I'm gone
F G
Yes she'll be there when I'm gone
F Am
Dead sure she'll be there

[Refrão]

Am G
What I've felt, what I've known
C E7
Turn the pages turn the stone
Am G
Behind the door should I open it
C E7
for you?
Am G
What I've felt, what I've known
C E7
Sick and tired I stand alone
Am
Could you be there? Cause I'm the
G C
one who waits for you
E7 ( Am C
Or are you unforgiven, too?
G Em )
[Solo] Am C G Em
Am C G Em

Am C G
Lay beside me
Em Am
Tell me what I've done
C G
The door is closed so are your eyes
Em Dm
But now I see the sun
F G E7
Now I see the sun, yes now I see it

[Refrão]

Am G
What I've felt, what I've known
C E7
Turn the pages turn the stone
Am G
Behind the door should I open it
C E7
for you?
Am G
What I've felt, what I've known
C E7
So sick and tired I stand alone
Am
Could you be there? 'Cause I'm the
G
one who waits
C E7
The one who waits for you

Am G
What I've felt, what I've known
C E7
Turn the pages turn the stone
Am G
Behind the door should I open it
C E7
for you?

Am G
Oh, what I've felt,
C E7
Oh, what I've known
Am G
I take this key And I bury it in
C
you
E7
Because you're unforgiven too

Am G C
Never free never me
D G
Because you're unforgiven too Oh
E7
Oh

"What I've felt, what I've known"

[Solo]

e|---------------------------------------------15-----15-----15--15-|
B|-----------------------12--15--12----12--15-----15------15--------|
G|--7-5h7p5-4-5------/14------------14------------------------------|
D|--------------5---------------------------------------------------|
A|------------------------------------------------------------------|
E|-------------------------------

full full
e|-----17--------------17----------
B|-/17----17--20---/17----17--20---
G|---------------------------------
D|---------------------------------
A|---------------------------------
E|---------------------------------

full
e|----17---------17---------|
B|/17----17--20-----20--17--|
G|--------------------------|
D|--------------------------|
A|--------------------------|
E|--------------------------|

e|-------------------------------------------------------------------------|
B|-------------------19-17----19-17----19-17----19-17----19-17----19-17----|
G|-19--17--19--17----19-17----19-17----19-17----19-17----19-17----19-17----|
D|----------------19-------19-------19-------19-------19-------19-------19-|
A|-------------------------------------------------------------------------|
E|-------------------------------

e|--------------------------------------------|
B|-17----------------------19-17--------------|
G|----20-17-19-17-19-17----19-17--------------|
D|----------------------19-------19-----------|
A|--------------------------------------------|
E|-------------------------------

[Refrão]

Am G
What I've felt, what I've known
C E7
Turn the pages turn the stone
Am G
Behind the door should I open it
C E7
for you?
Am C E7
What I've felt, what I've known
Am G
I take this key and I bury it in
C
you
E7
Because you're unforgiven too
Am G
Never me never me
C D G
Because you're unforgiven too

"What I've felt, what I've known"

Clipes

Recomendados

Recién casados se divorcian al sexto día — el novio descubre algo en su noche de boda
Daily-Story | Patrocinado

Comprar un coche nuevo en línea, en liquidación, a precios de lote en Malambo


Autos Nuevos | Enlaces Publicitarios | Patrocinado
Es desgarrador donde vive Eddie Murphy a los 58 anos
InvestmentGuru | Patrocinado

Porque Ele Vive - Fernandinho - Cifra Club


Cifra Club

Amor: los que tienen más de 40 deberían probar estos sitios


Mejores sitio de encuentro | Patrocinado

El sencillo truco para eliminar las arrugas que pocas mujeres saben
HealthNotions.com | Patrocinado

Siga-nos

Youtube Facebook Instagram Twitter

Navegação
Versão clássica

Mais música

Feito com em Belo Horizonte


© 1996 - 2020, 457 mil músicas, 30 milhões de pessoas cadastradas
O maior site de ensino de música do Brasil

Parceiro:
Terra Música